  0
SECTION
  2
HEADER
  9
$ANGBASE
  50
0.0
  9
$ANGDIR
  70
1
  9
$MEASUREMENT
  70
1
  0
ENDSEC
  0
SECTION
  2
TABLES
  0
TABLE
  2
LTYPE
  70
4
  0
LTYPE
  5
40F
  2
CONTINUOUS
  70
0
  3
Solid line
  72
65
  73
0
  40
0.0
  0
LTYPE
  5
410
  2
DASHDOT
 70
0
  3
Dash Dot ____ _ ____ _
 72
65
 73
4
 40
2.0
 49
1.25
 49
-0.25
 49
0.25
 49
-0.25
  0
LTYPE
  5
411
  2
DASHED
 70
0
  3
Dashed __ __ __ __ __
 72
65
 73
2
 40
0.75
 49
0.5
 49
-0.25
  0
LTYPE
  5
43B
  2
DOTTED
 70
0
  3
Dotted .  .  .  .
 72
65
 73
2
 40
0.2
 49
0.0
 49
-0.2
  0
ENDTAB
  0
TABLE
  2
STYLE
  70
4
  0
STYLE
  2
KICAD
  70
0
  40
0
  41
1
  42
1
  50
0
  71
0
  3
isocp.shx
  0
STYLE
  2
KICADB
  70
0
  40
0
  41
1
  42
1
  50
0
  71
0
  3
isocp.shx
  0
STYLE
  2
KICADI
  70
0
  40
0
  41
1
  42
1
  50
15
  71
0
  3
isocp.shx
  0
STYLE
  2
KICADBI
  70
0
  40
0
  41
1
  42
1
  50
15
  71
0
  3
isocp.shx
  0
ENDTAB
  0
TABLE
  2
LAYER
  70
1
  0
LAYER
  2
BLACK
  70
0
  62
7
  6
CONTINUOUS
  0
ENDTAB
  0
ENDSEC
  0
SECTION
  2
ENTITIES
0
LINE
8
BLACK
6
CONTINUOUS
10
74.6776
20
-63.8583
11
75.8663
21
-63.9373
0
LINE
8
BLACK
6
CONTINUOUS
10
75.8663
20
-63.9373
11
75.8663
21
-63.9373
0
LINE
8
BLACK
6
CONTINUOUS
10
75.8663
20
-63.9373
11
75.8664
21
-63.9373
0
LINE
8
BLACK
6
CONTINUOUS
10
75.8664
20
-63.9373
11
75.8753
21
-63.9383
0
LINE
8
BLACK
6
CONTINUOUS
10
75.8753
20
-63.9383
11
75.8774
21
-63.9388
0
LINE
8
BLACK
6
CONTINUOUS
10
75.8774
20
-63.9388
11
75.8795
21
-63.9391
0
LINE
8
BLACK
6
CONTINUOUS
10
75.8795
20
-63.9391
11
77.0489
21
-64.1748
0
LINE
8
BLACK
6
CONTINUOUS
10
77.0489
20
-64.1748
11
77.0489
21
-64.1748
0
LINE
8
BLACK
6
CONTINUOUS
10
77.0489
20
-64.1748
11
77.0489
21
-64.1749
0
LINE
8
BLACK
6
CONTINUOUS
10
77.0489
20
-64.1749
11
77.0577
21
-64.177
0
LINE
8
BLACK
6
CONTINUOUS
10
77.0577
20
-64.177
11
77.0596
21
-64.1778
0
LINE
8
BLACK
6
CONTINUOUS
10
77.0596
20
-64.1778
11
77.0617
21
-64.1783
0
LINE
8
BLACK
6
CONTINUOUS
10
77.0617
20
-64.1783
11
78.1896
21
-64.5667
0
LINE
8
BLACK
6
CONTINUOUS
10
78.1896
20
-64.5667
11
78.198
21
-64.57
0
LINE
8
BLACK
6
CONTINUOUS
10
78.198
20
-64.57
11
78.1999
21
-64.571
0
LINE
8
BLACK
6
CONTINUOUS
10
78.1999
20
-64.571
11
78.2018
21
-64.5718
0
LINE
8
BLACK
6
CONTINUOUS
10
78.2018
20
-64.5718
11
79.2685
21
-65.106
0
LINE
8
BLACK
6
CONTINUOUS
10
79.2685
20
-65.106
11
79.2764
21
-65.1104
0
LINE
8
BLACK
6
CONTINUOUS
10
79.2764
20
-65.1104
11
79.2781
21
-65.1116
0
LINE
8
BLACK
6
CONTINUOUS
10
79.2781
20
-65.1116
11
79.2799
21
-65.1127
0
LINE
8
BLACK
6
CONTINUOUS
10
79.2799
20
-65.1127
11
80.2666
21
-65.7832
0
LINE
8
BLACK
6
CONTINUOUS
10
80.2666
20
-65.7832
11
80.2738
21
-65.7887
0
LINE
8
BLACK
6
CONTINUOUS
10
80.2738
20
-65.7887
11
80.2753
21
-65.7901
0
LINE
8
BLACK
6
CONTINUOUS
10
80.2753
20
-65.7901
11
80.277
21
-65.7914
0
LINE
8
BLACK
6
CONTINUOUS
10
80.277
20
-65.7914
11
81.1663
21
-66.5865
0
LINE
8
BLACK
6
CONTINUOUS
10
81.1663
20
-66.5865
11
81.1728
21
-66.5929
0
LINE
8
BLACK
6
CONTINUOUS
10
81.1728
20
-66.5929
11
81.1741
21
-66.5945
0
LINE
8
BLACK
6
CONTINUOUS
10
81.1741
20
-66.5945
11
81.1756
21
-66.596
0
LINE
8
BLACK
6
CONTINUOUS
10
81.1756
20
-66.596
11
81.9519
21
-67.5017
0
LINE
8
BLACK
6
CONTINUOUS
10
81.9519
20
-67.5017
11
81.9575
21
-67.5089
0
LINE
8
BLACK
6
CONTINUOUS
10
81.9575
20
-67.5089
11
81.9586
21
-67.5107
0
LINE
8
BLACK
6
CONTINUOUS
10
81.9586
20
-67.5107
11
81.9598
21
-67.5123
0
LINE
8
BLACK
6
CONTINUOUS
10
81.9598
20
-67.5123
11
82.6096
21
-68.5128
0
LINE
8
BLACK
6
CONTINUOUS
10
82.6096
20
-68.5128
11
82.6142
21
-68.5206
0
LINE
8
BLACK
6
CONTINUOUS
10
82.6142
20
-68.5206
11
82.615
21
-68.5226
0
LINE
8
BLACK
6
CONTINUOUS
10
82.615
20
-68.5226
11
82.616
21
-68.5244
0
LINE
8
BLACK
6
CONTINUOUS
10
82.616
20
-68.5244
11
83.1277
21
-69.602
0
LINE
8
BLACK
6
CONTINUOUS
10
83.1277
20
-69.602
11
83.1312
21
-69.6104
0
LINE
8
BLACK
6
CONTINUOUS
10
83.1312
20
-69.6104
11
83.1318
21
-69.6124
0
LINE
8
BLACK
6
CONTINUOUS
10
83.1318
20
-69.6124
11
83.1326
21
-69.6143
0
LINE
8
BLACK
6
CONTINUOUS
10
83.1326
20
-69.6143
11
83.4973
21
-70.7502
0
LINE
8
BLACK
6
CONTINUOUS
10
83.4973
20
-70.7502
11
83.4997
21
-70.7589
0
LINE
8
BLACK
6
CONTINUOUS
10
83.4997
20
-70.7589
11
83.5
21
-70.761
0
LINE
8
BLACK
6
CONTINUOUS
10
83.5
20
-70.761
11
83.5005
21
-70.763
0
LINE
8
BLACK
6
CONTINUOUS
10
83.5005
20
-70.763
11
83.7117
21
-71.9371
0
LINE
8
BLACK
6
CONTINUOUS
10
83.7117
20
-71.9371
11
83.7129
21
-71.9461
0
LINE
8
BLACK
6
CONTINUOUS
10
83.7129
20
-71.9461
11
83.713
21
-71.9477
0
LINE
8
BLACK
6
CONTINUOUS
10
83.713
20
-71.9477
11
83.7132
21
-71.9492
0
LINE
8
BLACK
6
CONTINUOUS
10
83.7132
20
-71.9492
11
83.7691
21
-72.9503
0
LINE
8
BLACK
6
CONTINUOUS
10
83.7691
20
-72.9503
11
83.7694
21
-72.9531
0
LINE
8
BLACK
6
CONTINUOUS
10
83.7694
20
-72.9531
11
83.7694
21
-92.3729
0
LINE
8
BLACK
6
CONTINUOUS
10
83.7694
20
-92.3729
11
83.7699
21
-92.3778
0
LINE
8
BLACK
6
CONTINUOUS
10
83.7699
20
-92.3778
11
83.7679
21
-92.3974
0
LINE
8
BLACK
6
CONTINUOUS
10
83.7679
20
-92.3974
11
83.7622
21
-92.4162
0
LINE
8
BLACK
6
CONTINUOUS
10
83.7622
20
-92.4162
11
83.7529
21
-92.4336
0
LINE
8
BLACK
6
CONTINUOUS
10
83.7529
20
-92.4336
11
83.7404
21
-92.4488
0
LINE
8
BLACK
6
CONTINUOUS
10
83.7404
20
-92.4488
11
83.7252
21
-92.4613
0
LINE
8
BLACK
6
CONTINUOUS
10
83.7252
20
-92.4613
11
83.7079
21
-92.4706
0
LINE
8
BLACK
6
CONTINUOUS
10
83.7079
20
-92.4706
11
83.689
21
-92.4763
0
LINE
8
BLACK
6
CONTINUOUS
10
83.689
20
-92.4763
11
83.6743
21
-92.4778
0
LINE
8
BLACK
6
CONTINUOUS
10
83.6743
20
-92.4778
11
83.6694
21
-92.4783
0
LINE
8
BLACK
6
CONTINUOUS
10
83.6694
20
-92.4783
11
83.6645
21
-92.4778
0
LINE
8
BLACK
6
CONTINUOUS
10
83.6645
20
-92.4778
11
72.6743
21
-92.4778
0
LINE
8
BLACK
6
CONTINUOUS
10
72.6743
20
-92.4778
11
72.6694
21
-92.4783
0
LINE
8
BLACK
6
CONTINUOUS
10
72.6694
20
-92.4783
11
72.6645
21
-92.4778
0
LINE
8
BLACK
6
CONTINUOUS
10
72.6645
20
-92.4778
11
72.6645
21
-92.4778
0
LINE
8
BLACK
6
CONTINUOUS
10
72.6645
20
-92.4778
11
72.6498
21
-92.4763
0
LINE
8
BLACK
6
CONTINUOUS
10
72.6498
20
-92.4763
11
72.6498
21
-92.4763
0
LINE
8
BLACK
6
CONTINUOUS
10
72.6498
20
-92.4763
11
72.6498
21
-92.4763
0
LINE
8
BLACK
6
CONTINUOUS
10
72.6498
20
-92.4763
11
72.6458
21
-92.4751
0
LINE
8
BLACK
6
CONTINUOUS
10
72.6458
20
-92.4751
11
72.6309
21
-92.4706
0
LINE
8
BLACK
6
CONTINUOUS
10
72.6309
20
-92.4706
11
72.6136
21
-92.4613
0
LINE
8
BLACK
6
CONTINUOUS
10
72.6136
20
-92.4613
11
72.5983
21
-92.4488
0
LINE
8
BLACK
6
CONTINUOUS
10
72.5983
20
-92.4488
11
72.5858
21
-92.4336
0
LINE
8
BLACK
6
CONTINUOUS
10
72.5858
20
-92.4336
11
72.5766
21
-92.4162
0
LINE
8
BLACK
6
CONTINUOUS
10
72.5766
20
-92.4162
11
72.5708
21
-92.3974
0
LINE
8
BLACK
6
CONTINUOUS
10
72.5708
20
-92.3974
11
72.5689
21
-92.3778
0
LINE
8
BLACK
6
CONTINUOUS
10
72.5689
20
-92.3778
11
72.5694
21
-92.3729
0
LINE
8
BLACK
6
CONTINUOUS
10
72.5694
20
-92.3729
11
72.57
21
-80.3778
0
LINE
8
BLACK
6
CONTINUOUS
10
72.57
20
-80.3778
11
62.0743
21
-80.3778
0
LINE
8
BLACK
6
CONTINUOUS
10
62.0743
20
-80.3778
11
62.0694
21
-80.3783
0
LINE
8
BLACK
6
CONTINUOUS
10
62.0694
20
-80.3783
11
62.0645
21
-80.3778
0
LINE
8
BLACK
6
CONTINUOUS
10
62.0645
20
-80.3778
11
62.0498
21
-80.3763
0
LINE
8
BLACK
6
CONTINUOUS
10
62.0498
20
-80.3763
11
62.0309
21
-80.3706
0
LINE
8
BLACK
6
CONTINUOUS
10
62.0309
20
-80.3706
11
62.0136
21
-80.3613
0
LINE
8
BLACK
6
CONTINUOUS
10
62.0136
20
-80.3613
11
61.9983
21
-80.3488
0
LINE
8
BLACK
6
CONTINUOUS
10
61.9983
20
-80.3488
11
61.9858
21
-80.3336
0
LINE
8
BLACK
6
CONTINUOUS
10
61.9858
20
-80.3336
11
61.9766
21
-80.3162
0
LINE
8
BLACK
6
CONTINUOUS
10
61.9766
20
-80.3162
11
61.9708
21
-80.2974
0
LINE
8
BLACK
6
CONTINUOUS
10
61.9708
20
-80.2974
11
61.9689
21
-80.2778
0
LINE
8
BLACK
6
CONTINUOUS
10
61.9689
20
-80.2778
11
61.9694
21
-80.2729
0
LINE
8
BLACK
6
CONTINUOUS
10
61.9694
20
-80.2729
11
61.9694
21
-78.5278
0
LINE
8
BLACK
6
CONTINUOUS
10
61.9694
20
-78.5278
11
41.1743
21
-78.5278
0
LINE
8
BLACK
6
CONTINUOUS
10
41.1743
20
-78.5278
11
41.1694
21
-78.5283
0
LINE
8
BLACK
6
CONTINUOUS
10
41.1694
20
-78.5283
11
41.1645
21
-78.5278
0
LINE
8
BLACK
6
CONTINUOUS
10
41.1645
20
-78.5278
11
41.1645
21
-78.5278
0
LINE
8
BLACK
6
CONTINUOUS
10
41.1645
20
-78.5278
11
41.154
21
-78.5267
0
LINE
8
BLACK
6
CONTINUOUS
10
41.154
20
-78.5267
11
41.1498
21
-78.5263
0
LINE
8
BLACK
6
CONTINUOUS
10
41.1498
20
-78.5263
11
41.1498
21
-78.5263
0
LINE
8
BLACK
6
CONTINUOUS
10
41.1498
20
-78.5263
11
41.1498
21
-78.5263
0
LINE
8
BLACK
6
CONTINUOUS
10
41.1498
20
-78.5263
11
41.1375
21
-78.5226
0
LINE
8
BLACK
6
CONTINUOUS
10
41.1375
20
-78.5226
11
41.131
21
-78.5206
0
LINE
8
BLACK
6
CONTINUOUS
10
41.131
20
-78.5206
11
41.131
21
-78.5206
0
LINE
8
BLACK
6
CONTINUOUS
10
41.131
20
-78.5206
11
41.1309
21
-78.5206
0
LINE
8
BLACK
6
CONTINUOUS
10
41.1309
20
-78.5206
11
41.1195
21
-78.5145
0
LINE
8
BLACK
6
CONTINUOUS
10
41.1195
20
-78.5145
11
41.1136
21
-78.5113
0
LINE
8
BLACK
6
CONTINUOUS
10
41.1136
20
-78.5113
11
41.1136
21
-78.5113
0
LINE
8
BLACK
6
CONTINUOUS
10
41.1136
20
-78.5113
11
41.1136
21
-78.5113
0
LINE
8
BLACK
6
CONTINUOUS
10
41.1136
20
-78.5113
11
41.1012
21
-78.5012
0
LINE
8
BLACK
6
CONTINUOUS
10
41.1012
20
-78.5012
11
41.0984
21
-78.4988
0
LINE
8
BLACK
6
CONTINUOUS
10
41.0984
20
-78.4988
11
41.0984
21
-78.4988
0
LINE
8
BLACK
6
CONTINUOUS
10
41.0984
20
-78.4988
11
41.0983
21
-78.4988
0
LINE
8
BLACK
6
CONTINUOUS
10
41.0983
20
-78.4988
11
41.0896
21
-78.4882
0
LINE
8
BLACK
6
CONTINUOUS
10
41.0896
20
-78.4882
11
41.0859
21
-78.4836
0
LINE
8
BLACK
6
CONTINUOUS
10
41.0859
20
-78.4836
11
41.0859
21
-78.4836
0
LINE
8
BLACK
6
CONTINUOUS
10
41.0859
20
-78.4836
11
41.0859
21
-78.4836
0
LINE
8
BLACK
6
CONTINUOUS
10
41.0859
20
-78.4836
11
41.0792
21
-78.4712
0
LINE
8
BLACK
6
CONTINUOUS
10
41.0792
20
-78.4712
11
41.0766
21
-78.4662
0
LINE
8
BLACK
6
CONTINUOUS
10
41.0766
20
-78.4662
11
41.0766
21
-78.4662
0
LINE
8
BLACK
6
CONTINUOUS
10
41.0766
20
-78.4662
11
41.0766
21
-78.4662
0
LINE
8
BLACK
6
CONTINUOUS
10
41.0766
20
-78.4662
11
41.0723
21
-78.4521
0
LINE
8
BLACK
6
CONTINUOUS
10
41.0723
20
-78.4521
11
41.0709
21
-78.4474
0
LINE
8
BLACK
6
CONTINUOUS
10
41.0709
20
-78.4474
11
41.0709
21
-78.4474
0
LINE
8
BLACK
6
CONTINUOUS
10
41.0709
20
-78.4474
11
41.0708
21
-78.4474
0
LINE
8
BLACK
6
CONTINUOUS
10
41.0708
20
-78.4474
11
41.0689
21
-78.4278
0
LINE
8
BLACK
6
CONTINUOUS
10
41.0689
20
-78.4278
11
41.0694
21
-78.4229
0
LINE
8
BLACK
6
CONTINUOUS
10
41.0694
20
-78.4229
11
41.0676
21
-69.8261
0
LINE
8
BLACK
6
CONTINUOUS
10
41.0676
20
-69.8261
11
41.068
21
-69.8221
0
LINE
8
BLACK
6
CONTINUOUS
10
41.068
20
-69.8221
11
41.1468
21
-68.8636
0
LINE
8
BLACK
6
CONTINUOUS
10
41.1468
20
-68.8636
11
41.147
21
-68.8612
0
LINE
8
BLACK
6
CONTINUOUS
10
41.147
20
-68.8612
11
41.1483
21
-68.8543
0
LINE
8
BLACK
6
CONTINUOUS
10
41.1483
20
-68.8543
11
41.1494
21
-68.8474
0
LINE
8
BLACK
6
CONTINUOUS
10
41.1494
20
-68.8474
11
41.3839
21
-67.914
0
LINE
8
BLACK
6
CONTINUOUS
10
41.3839
20
-67.914
11
41.3845
21
-67.9116
0
LINE
8
BLACK
6
CONTINUOUS
10
41.3845
20
-67.9116
11
41.3869
21
-67.9051
0
LINE
8
BLACK
6
CONTINUOUS
10
41.3869
20
-67.9051
11
41.3892
21
-67.8985
0
LINE
8
BLACK
6
CONTINUOUS
10
41.3892
20
-67.8985
11
41.773
21
-67.0159
0
LINE
8
BLACK
6
CONTINUOUS
10
41.773
20
-67.0159
11
41.774
21
-67.0136
0
LINE
8
BLACK
6
CONTINUOUS
10
41.774
20
-67.0136
11
41.7774
21
-67.0075
0
LINE
8
BLACK
6
CONTINUOUS
10
41.7774
20
-67.0075
11
41.7807
21
-67.0014
0
LINE
8
BLACK
6
CONTINUOUS
10
41.7807
20
-67.0014
11
42.3035
21
-66.1933
0
LINE
8
BLACK
6
CONTINUOUS
10
42.3035
20
-66.1933
11
42.3048
21
-66.1913
0
LINE
8
BLACK
6
CONTINUOUS
10
42.3048
20
-66.1913
11
42.3092
21
-66.1858
0
LINE
8
BLACK
6
CONTINUOUS
10
42.3092
20
-66.1858
11
42.3135
21
-66.1803
0
LINE
8
BLACK
6
CONTINUOUS
10
42.3135
20
-66.1803
11
42.9612
21
-65.4685
0
LINE
8
BLACK
6
CONTINUOUS
10
42.9612
20
-65.4685
11
42.9629
21
-65.4667
0
LINE
8
BLACK
6
CONTINUOUS
10
42.9629
20
-65.4667
11
42.9681
21
-65.4621
0
LINE
8
BLACK
6
CONTINUOUS
10
42.9681
20
-65.4621
11
42.9732
21
-65.4573
0
LINE
8
BLACK
6
CONTINUOUS
10
42.9732
20
-65.4573
11
43.7285
21
-64.8608
0
LINE
8
BLACK
6
CONTINUOUS
10
43.7285
20
-64.8608
11
43.7305
21
-64.8593
0
LINE
8
BLACK
6
CONTINUOUS
10
43.7305
20
-64.8593
11
43.7364
21
-64.8556
0
LINE
8
BLACK
6
CONTINUOUS
10
43.7364
20
-64.8556
11
43.7422
21
-64.8517
0
LINE
8
BLACK
6
CONTINUOUS
10
43.7422
20
-64.8517
11
44.5848
21
-64.3866
0
LINE
8
BLACK
6
CONTINUOUS
10
44.5848
20
-64.3866
11
44.5848
21
-64.3866
0
LINE
8
BLACK
6
CONTINUOUS
10
44.5848
20
-64.3866
11
44.5848
21
-64.3866
0
LINE
8
BLACK
6
CONTINUOUS
10
44.5848
20
-64.3866
11
44.5869
21
-64.3854
0
LINE
8
BLACK
6
CONTINUOUS
10
44.5869
20
-64.3854
11
44.5934
21
-64.3827
0
LINE
8
BLACK
6
CONTINUOUS
10
44.5934
20
-64.3827
11
44.5997
21
-64.3799
0
LINE
8
BLACK
6
CONTINUOUS
10
44.5997
20
-64.3799
11
45.507
21
-64.0586
0
LINE
8
BLACK
6
CONTINUOUS
10
45.507
20
-64.0586
11
45.5093
21
-64.0578
0
LINE
8
BLACK
6
CONTINUOUS
10
45.5093
20
-64.0578
11
45.5161
21
-64.0562
0
LINE
8
BLACK
6
CONTINUOUS
10
45.5161
20
-64.0562
11
45.5228
21
-64.0544
0
LINE
8
BLACK
6
CONTINUOUS
10
45.5228
20
-64.0544
11
46.4703
21
-63.8856
0
LINE
8
BLACK
6
CONTINUOUS
10
46.4703
20
-63.8856
11
46.4727
21
-63.8852
0
LINE
8
BLACK
6
CONTINUOUS
10
46.4727
20
-63.8852
11
46.478
21
-63.8849
0
LINE
8
BLACK
6
CONTINUOUS
10
46.478
20
-63.8849
11
46.4832
21
-63.8842
0
LINE
8
BLACK
6
CONTINUOUS
10
46.4832
20
-63.8842
11
47.0333
21
-63.8582
0
LINE
8
BLACK
6
CONTINUOUS
10
47.0333
20
-63.8582
11
47.0357
21
-63.858
0
LINE
8
BLACK
6
CONTINUOUS
10
47.0357
20
-63.858
11
74.6743
21
-63.858
0
LINE
8
BLACK
6
CONTINUOUS
10
74.6743
20
-63.858
11
74.6776
21
-63.8583
0
LINE
8
BLACK
6
CONTINUOUS
10
47.0429
20
-64.058
11
46.499
21
-64.0837
0
LINE
8
BLACK
6
CONTINUOUS
10
46.499
20
-64.0837
11
45.566
21
-64.2499
0
LINE
8
BLACK
6
CONTINUOUS
10
45.566
20
-64.2499
11
44.6742
21
-64.5657
0
LINE
8
BLACK
6
CONTINUOUS
10
44.6742
20
-64.5657
11
43.846
21
-65.0228
0
LINE
8
BLACK
6
CONTINUOUS
10
43.846
20
-65.0228
11
43.1036
21
-65.6092
0
LINE
8
BLACK
6
CONTINUOUS
10
43.1036
20
-65.6092
11
42.4669
21
-66.3089
0
LINE
8
BLACK
6
CONTINUOUS
10
42.4669
20
-66.3089
11
41.9531
21
-67.1031
0
LINE
8
BLACK
6
CONTINUOUS
10
41.9531
20
-67.1031
11
41.5759
21
-67.9707
0
LINE
8
BLACK
6
CONTINUOUS
10
41.5759
20
-67.9707
11
41.3454
21
-68.8882
0
LINE
8
BLACK
6
CONTINUOUS
10
41.3454
20
-68.8882
11
41.2676
21
-69.8351
0
LINE
8
BLACK
6
CONTINUOUS
10
41.2676
20
-69.8351
11
41.2694
21
-78.3278
0
LINE
8
BLACK
6
CONTINUOUS
10
41.2694
20
-78.3278
11
62.0645
21
-78.3278
0
LINE
8
BLACK
6
CONTINUOUS
10
62.0645
20
-78.3278
11
62.0694
21
-78.3273
0
LINE
8
BLACK
6
CONTINUOUS
10
62.0694
20
-78.3273
11
62.0743
21
-78.3278
0
LINE
8
BLACK
6
CONTINUOUS
10
62.0743
20
-78.3278
11
62.089
21
-78.3292
0
LINE
8
BLACK
6
CONTINUOUS
10
62.089
20
-78.3292
11
62.1079
21
-78.3349
0
LINE
8
BLACK
6
CONTINUOUS
10
62.1079
20
-78.3349
11
62.1252
21
-78.3442
0
LINE
8
BLACK
6
CONTINUOUS
10
62.1252
20
-78.3442
11
62.1404
21
-78.3567
0
LINE
8
BLACK
6
CONTINUOUS
10
62.1404
20
-78.3567
11
62.1529
21
-78.3719
0
LINE
8
BLACK
6
CONTINUOUS
10
62.1529
20
-78.3719
11
62.1622
21
-78.3893
0
LINE
8
BLACK
6
CONTINUOUS
10
62.1622
20
-78.3893
11
62.1679
21
-78.4082
0
LINE
8
BLACK
6
CONTINUOUS
10
62.1679
20
-78.4082
11
62.1699
21
-78.4278
0
LINE
8
BLACK
6
CONTINUOUS
10
62.1699
20
-78.4278
11
62.1694
21
-78.4327
0
LINE
8
BLACK
6
CONTINUOUS
10
62.1694
20
-78.4327
11
62.1694
21
-80.1778
0
LINE
8
BLACK
6
CONTINUOUS
10
62.1694
20
-80.1778
11
72.6651
21
-80.1778
0
LINE
8
BLACK
6
CONTINUOUS
10
72.6651
20
-80.1778
11
72.67
21
-80.1773
0
LINE
8
BLACK
6
CONTINUOUS
10
72.67
20
-80.1773
11
72.6749
21
-80.1778
0
LINE
8
BLACK
6
CONTINUOUS
10
72.6749
20
-80.1778
11
72.6749
21
-80.1778
0
LINE
8
BLACK
6
CONTINUOUS
10
72.6749
20
-80.1778
11
72.6896
21
-80.1792
0
LINE
8
BLACK
6
CONTINUOUS
10
72.6896
20
-80.1792
11
72.6896
21
-80.1792
0
LINE
8
BLACK
6
CONTINUOUS
10
72.6896
20
-80.1792
11
72.6896
21
-80.1792
0
LINE
8
BLACK
6
CONTINUOUS
10
72.6896
20
-80.1792
11
72.6936
21
-80.1804
0
LINE
8
BLACK
6
CONTINUOUS
10
72.6936
20
-80.1804
11
72.7085
21
-80.1849
0
LINE
8
BLACK
6
CONTINUOUS
10
72.7085
20
-80.1849
11
72.7258
21
-80.1942
0
LINE
8
BLACK
6
CONTINUOUS
10
72.7258
20
-80.1942
11
72.7411
21
-80.2067
0
LINE
8
BLACK
6
CONTINUOUS
10
72.7411
20
-80.2067
11
72.7535
21
-80.2219
0
LINE
8
BLACK
6
CONTINUOUS
10
72.7535
20
-80.2219
11
72.7628
21
-80.2393
0
LINE
8
BLACK
6
CONTINUOUS
10
72.7628
20
-80.2393
11
72.7686
21
-80.2582
0
LINE
8
BLACK
6
CONTINUOUS
10
72.7686
20
-80.2582
11
72.7705
21
-80.2778
0
LINE
8
BLACK
6
CONTINUOUS
10
72.7705
20
-80.2778
11
72.77
21
-80.2827
0
LINE
8
BLACK
6
CONTINUOUS
10
72.77
20
-80.2827
11
72.7694
21
-92.2778
0
LINE
8
BLACK
6
CONTINUOUS
10
72.7694
20
-92.2778
11
83.5694
21
-92.2778
0
LINE
8
BLACK
6
CONTINUOUS
10
83.5694
20
-92.2778
11
83.5694
21
-72.9608
0
LINE
8
BLACK
6
CONTINUOUS
10
83.5694
20
-72.9608
11
83.5138
21
-71.9665
0
LINE
8
BLACK
6
CONTINUOUS
10
83.5138
20
-71.9665
11
83.3048
21
-70.805
0
LINE
8
BLACK
6
CONTINUOUS
10
83.3048
20
-70.805
11
82.9442
21
-69.6818
0
LINE
8
BLACK
6
CONTINUOUS
10
82.9442
20
-69.6818
11
82.4382
21
-68.6162
0
LINE
8
BLACK
6
CONTINUOUS
10
82.4382
20
-68.6162
11
81.7957
21
-67.6268
0
LINE
8
BLACK
6
CONTINUOUS
10
81.7957
20
-67.6268
11
81.028
21
-66.7312
0
LINE
8
BLACK
6
CONTINUOUS
10
81.028
20
-66.7312
11
80.1486
21
-65.9449
0
LINE
8
BLACK
6
CONTINUOUS
10
80.1486
20
-65.9449
11
79.173
21
-65.2818
0
LINE
8
BLACK
6
CONTINUOUS
10
79.173
20
-65.2818
11
78.1182
21
-64.7536
0
LINE
8
BLACK
6
CONTINUOUS
10
78.1182
20
-64.7536
11
77.0028
21
-64.3696
0
LINE
8
BLACK
6
CONTINUOUS
10
77.0028
20
-64.3696
11
75.8464
21
-64.1364
0
LINE
8
BLACK
6
CONTINUOUS
10
75.8464
20
-64.1364
11
74.6661
21
-64.058
0
LINE
8
BLACK
6
CONTINUOUS
10
74.6661
20
-64.058
11
47.0429
21
-64.058
  0
ENDSEC
  0
EOF
