  0
SECTION
  2
HEADER
  9
$ANGBASE
  50
0.0
  9
$ANGDIR
  70
1
  9
$MEASUREMENT
  70
1
  0
ENDSEC
  0
SECTION
  2
TABLES
  0
TABLE
  2
LTYPE
  70
4
  0
LTYPE
  5
40F
  2
CONTINUOUS
  70
0
  3
Solid line
  72
65
  73
0
  40
0.0
  0
LTYPE
  5
410
  2
DASHDOT
 70
0
  3
Dash Dot ____ _ ____ _
 72
65
 73
4
 40
2.0
 49
1.25
 49
-0.25
 49
0.25
 49
-0.25
  0
LTYPE
  5
411
  2
DASHED
 70
0
  3
Dashed __ __ __ __ __
 72
65
 73
2
 40
0.75
 49
0.5
 49
-0.25
  0
LTYPE
  5
43B
  2
DOTTED
 70
0
  3
Dotted .  .  .  .
 72
65
 73
2
 40
0.2
 49
0.0
 49
-0.2
  0
ENDTAB
  0
TABLE
  2
STYLE
  70
4
  0
STYLE
  2
KICAD
  70
0
  40
0
  41
1
  42
1
  50
0
  71
0
  3
isocp.shx
  0
STYLE
  2
KICADB
  70
0
  40
0
  41
1
  42
1
  50
0
  71
0
  3
isocp.shx
  0
STYLE
  2
KICADI
  70
0
  40
0
  41
1
  42
1
  50
15
  71
0
  3
isocp.shx
  0
STYLE
  2
KICADBI
  70
0
  40
0
  41
1
  42
1
  50
15
  71
0
  3
isocp.shx
  0
ENDTAB
  0
TABLE
  2
LAYER
  70
1
  0
LAYER
  2
BLACK
  70
0
  62
7
  6
CONTINUOUS
  0
ENDTAB
  0
ENDSEC
  0
SECTION
  2
ENTITIES
0
LINE
8
BLACK
6
CONTINUOUS
10
129.005
20
-101.875
11
129.01
21
-101.877
0
LINE
8
BLACK
6
CONTINUOUS
10
129.01
20
-101.877
11
129.014
21
-101.879
0
LINE
8
BLACK
6
CONTINUOUS
10
129.014
20
-101.879
11
129.018
21
-101.882
0
LINE
8
BLACK
6
CONTINUOUS
10
129.018
20
-101.882
11
129.021
21
-101.886
0
LINE
8
BLACK
6
CONTINUOUS
10
129.021
20
-101.886
11
129.023
21
-101.89
0
LINE
8
BLACK
6
CONTINUOUS
10
129.023
20
-101.89
11
129.025
21
-101.895
0
LINE
8
BLACK
6
CONTINUOUS
10
129.025
20
-101.895
11
129.025
21
-101.899
0
LINE
8
BLACK
6
CONTINUOUS
10
129.025
20
-101.899
11
129.025
21
-114.501
0
LINE
8
BLACK
6
CONTINUOUS
10
129.025
20
-114.501
11
129.025
21
-114.505
0
LINE
8
BLACK
6
CONTINUOUS
10
129.025
20
-114.505
11
129.023
21
-114.51
0
LINE
8
BLACK
6
CONTINUOUS
10
129.023
20
-114.51
11
129.021
21
-114.514
0
LINE
8
BLACK
6
CONTINUOUS
10
129.021
20
-114.514
11
129.018
21
-114.518
0
LINE
8
BLACK
6
CONTINUOUS
10
129.018
20
-114.518
11
129.014
21
-114.521
0
LINE
8
BLACK
6
CONTINUOUS
10
129.014
20
-114.521
11
129.01
21
-114.523
0
LINE
8
BLACK
6
CONTINUOUS
10
129.01
20
-114.523
11
129.005
21
-114.525
0
LINE
8
BLACK
6
CONTINUOUS
10
129.005
20
-114.525
11
129
21
-114.525
0
LINE
8
BLACK
6
CONTINUOUS
10
129
20
-114.525
11
128.995
21
-114.525
0
LINE
8
BLACK
6
CONTINUOUS
10
128.995
20
-114.525
11
128.99
21
-114.523
0
LINE
8
BLACK
6
CONTINUOUS
10
128.99
20
-114.523
11
128.986
21
-114.521
0
LINE
8
BLACK
6
CONTINUOUS
10
128.986
20
-114.521
11
128.982
21
-114.518
0
LINE
8
BLACK
6
CONTINUOUS
10
128.982
20
-114.518
11
128.979
21
-114.514
0
LINE
8
BLACK
6
CONTINUOUS
10
128.979
20
-114.514
11
128.977
21
-114.51
0
LINE
8
BLACK
6
CONTINUOUS
10
128.977
20
-114.51
11
128.975
21
-114.505
0
LINE
8
BLACK
6
CONTINUOUS
10
128.975
20
-114.505
11
128.975
21
-114.501
0
LINE
8
BLACK
6
CONTINUOUS
10
128.975
20
-114.501
11
128.975
21
-101.899
0
LINE
8
BLACK
6
CONTINUOUS
10
128.975
20
-101.899
11
128.975
21
-101.895
0
LINE
8
BLACK
6
CONTINUOUS
10
128.975
20
-101.895
11
128.977
21
-101.89
0
LINE
8
BLACK
6
CONTINUOUS
10
128.977
20
-101.89
11
128.979
21
-101.886
0
LINE
8
BLACK
6
CONTINUOUS
10
128.979
20
-101.886
11
128.982
21
-101.882
0
LINE
8
BLACK
6
CONTINUOUS
10
128.982
20
-101.882
11
128.986
21
-101.879
0
LINE
8
BLACK
6
CONTINUOUS
10
128.986
20
-101.879
11
128.99
21
-101.877
0
LINE
8
BLACK
6
CONTINUOUS
10
128.99
20
-101.877
11
128.995
21
-101.875
0
LINE
8
BLACK
6
CONTINUOUS
10
128.995
20
-101.875
11
129
21
-101.875
0
LINE
8
BLACK
6
CONTINUOUS
10
129
20
-101.875
11
129.005
21
-101.875
0
LINE
8
BLACK
6
CONTINUOUS
10
126.6
20
-110.85
11
128.094
21
-110.85
0
LINE
8
BLACK
6
CONTINUOUS
10
128.094
20
-110.85
11
128.099
21
-110.849
0
LINE
8
BLACK
6
CONTINUOUS
10
128.099
20
-110.849
11
128.1
21
-110.844
0
LINE
8
BLACK
6
CONTINUOUS
10
128.1
20
-110.844
11
128.1
21
-105.55
0
LINE
8
BLACK
6
CONTINUOUS
10
128.1
20
-105.55
11
127.95
21
-105.55
0
LINE
8
BLACK
6
CONTINUOUS
10
127.95
20
-105.55
11
127.95
21
-104.75
0
LINE
8
BLACK
6
CONTINUOUS
10
127.95
20
-104.75
11
128.5
21
-104.75
0
LINE
8
BLACK
6
CONTINUOUS
10
128.5
20
-104.75
11
128.5
21
-104.753
0
LINE
8
BLACK
6
CONTINUOUS
10
128.5
20
-104.753
11
128.511
21
-104.756
0
LINE
8
BLACK
6
CONTINUOUS
10
128.511
20
-104.756
11
128.522
21
-104.76
0
LINE
8
BLACK
6
CONTINUOUS
10
128.522
20
-104.76
11
128.523
21
-104.76
0
LINE
8
BLACK
6
CONTINUOUS
10
128.523
20
-104.76
11
128.523
21
-104.76
0
LINE
8
BLACK
6
CONTINUOUS
10
128.523
20
-104.76
11
128.533
21
-104.766
0
LINE
8
BLACK
6
CONTINUOUS
10
128.533
20
-104.766
11
128.544
21
-104.772
0
LINE
8
BLACK
6
CONTINUOUS
10
128.544
20
-104.772
11
128.544
21
-104.772
0
LINE
8
BLACK
6
CONTINUOUS
10
128.544
20
-104.772
11
128.545
21
-104.772
0
LINE
8
BLACK
6
CONTINUOUS
10
128.545
20
-104.772
11
128.554
21
-104.78
0
LINE
8
BLACK
6
CONTINUOUS
10
128.554
20
-104.78
11
128.563
21
-104.788
0
LINE
8
BLACK
6
CONTINUOUS
10
128.563
20
-104.788
11
128.563
21
-104.788
0
LINE
8
BLACK
6
CONTINUOUS
10
128.563
20
-104.788
11
128.564
21
-104.788
0
LINE
8
BLACK
6
CONTINUOUS
10
128.564
20
-104.788
11
128.571
21
-104.797
0
LINE
8
BLACK
6
CONTINUOUS
10
128.571
20
-104.797
11
128.579
21
-104.807
0
LINE
8
BLACK
6
CONTINUOUS
10
128.579
20
-104.807
11
128.579
21
-104.807
0
LINE
8
BLACK
6
CONTINUOUS
10
128.579
20
-104.807
11
128.579
21
-104.807
0
LINE
8
BLACK
6
CONTINUOUS
10
128.579
20
-104.807
11
128.585
21
-104.818
0
LINE
8
BLACK
6
CONTINUOUS
10
128.585
20
-104.818
11
128.59
21
-104.829
0
LINE
8
BLACK
6
CONTINUOUS
10
128.59
20
-104.829
11
128.591
21
-104.829
0
LINE
8
BLACK
6
CONTINUOUS
10
128.591
20
-104.829
11
128.591
21
-104.829
0
LINE
8
BLACK
6
CONTINUOUS
10
128.591
20
-104.829
11
128.594
21
-104.841
0
LINE
8
BLACK
6
CONTINUOUS
10
128.594
20
-104.841
11
128.598
21
-104.852
0
LINE
8
BLACK
6
CONTINUOUS
10
128.598
20
-104.852
11
128.598
21
-104.853
0
LINE
8
BLACK
6
CONTINUOUS
10
128.598
20
-104.853
11
128.598
21
-104.853
0
LINE
8
BLACK
6
CONTINUOUS
10
128.598
20
-104.853
11
128.599
21
-104.865
0
LINE
8
BLACK
6
CONTINUOUS
10
128.599
20
-104.865
11
128.6
21
-104.877
0
LINE
8
BLACK
6
CONTINUOUS
10
128.6
20
-104.877
11
128.6
21
-111.223
0
LINE
8
BLACK
6
CONTINUOUS
10
128.6
20
-111.223
11
128.6
21
-111.224
0
LINE
8
BLACK
6
CONTINUOUS
10
128.6
20
-111.224
11
128.6
21
-111.224
0
LINE
8
BLACK
6
CONTINUOUS
10
128.6
20
-111.224
11
128.6
21
-111.224
0
LINE
8
BLACK
6
CONTINUOUS
10
128.6
20
-111.224
11
128.6
21
-111.225
0
LINE
8
BLACK
6
CONTINUOUS
10
128.6
20
-111.225
11
128.599
21
-111.237
0
LINE
8
BLACK
6
CONTINUOUS
10
128.599
20
-111.237
11
128.597
21
-111.249
0
LINE
8
BLACK
6
CONTINUOUS
10
128.597
20
-111.249
11
128.597
21
-111.249
0
LINE
8
BLACK
6
CONTINUOUS
10
128.597
20
-111.249
11
128.597
21
-111.249
0
LINE
8
BLACK
6
CONTINUOUS
10
128.597
20
-111.249
11
128.594
21
-111.261
0
LINE
8
BLACK
6
CONTINUOUS
10
128.594
20
-111.261
11
128.59
21
-111.272
0
LINE
8
BLACK
6
CONTINUOUS
10
128.59
20
-111.272
11
128.59
21
-111.273
0
LINE
8
BLACK
6
CONTINUOUS
10
128.59
20
-111.273
11
128.59
21
-111.273
0
LINE
8
BLACK
6
CONTINUOUS
10
128.59
20
-111.273
11
128.584
21
-111.283
0
LINE
8
BLACK
6
CONTINUOUS
10
128.584
20
-111.283
11
128.578
21
-111.294
0
LINE
8
BLACK
6
CONTINUOUS
10
128.578
20
-111.294
11
128.578
21
-111.294
0
LINE
8
BLACK
6
CONTINUOUS
10
128.578
20
-111.294
11
128.578
21
-111.295
0
LINE
8
BLACK
6
CONTINUOUS
10
128.578
20
-111.295
11
128.57
21
-111.304
0
LINE
8
BLACK
6
CONTINUOUS
10
128.57
20
-111.304
11
128.562
21
-111.313
0
LINE
8
BLACK
6
CONTINUOUS
10
128.562
20
-111.313
11
128.562
21
-111.313
0
LINE
8
BLACK
6
CONTINUOUS
10
128.562
20
-111.313
11
128.562
21
-111.314
0
LINE
8
BLACK
6
CONTINUOUS
10
128.562
20
-111.314
11
128.553
21
-111.321
0
LINE
8
BLACK
6
CONTINUOUS
10
128.553
20
-111.321
11
128.543
21
-111.329
0
LINE
8
BLACK
6
CONTINUOUS
10
128.543
20
-111.329
11
128.543
21
-111.329
0
LINE
8
BLACK
6
CONTINUOUS
10
128.543
20
-111.329
11
128.543
21
-111.329
0
LINE
8
BLACK
6
CONTINUOUS
10
128.543
20
-111.329
11
128.532
21
-111.335
0
LINE
8
BLACK
6
CONTINUOUS
10
128.532
20
-111.335
11
128.521
21
-111.34
0
LINE
8
BLACK
6
CONTINUOUS
10
128.521
20
-111.34
11
128.521
21
-111.341
0
LINE
8
BLACK
6
CONTINUOUS
10
128.521
20
-111.341
11
128.521
21
-111.341
0
LINE
8
BLACK
6
CONTINUOUS
10
128.521
20
-111.341
11
128.509
21
-111.344
0
LINE
8
BLACK
6
CONTINUOUS
10
128.509
20
-111.344
11
128.498
21
-111.348
0
LINE
8
BLACK
6
CONTINUOUS
10
128.498
20
-111.348
11
128.497
21
-111.348
0
LINE
8
BLACK
6
CONTINUOUS
10
128.497
20
-111.348
11
128.497
21
-111.348
0
LINE
8
BLACK
6
CONTINUOUS
10
128.497
20
-111.348
11
128.485
21
-111.349
0
LINE
8
BLACK
6
CONTINUOUS
10
128.485
20
-111.349
11
128.473
21
-111.35
0
LINE
8
BLACK
6
CONTINUOUS
10
128.473
20
-111.35
11
126.6
21
-111.35
0
LINE
8
BLACK
6
CONTINUOUS
10
126.6
20
-111.35
11
126.6
21
-110.85
0
LINE
8
BLACK
6
CONTINUOUS
10
126.85
20
-106.874
11
126.85
21
-106.874
0
LINE
8
BLACK
6
CONTINUOUS
10
126.85
20
-106.874
11
126.85
21
-106.874
0
LINE
8
BLACK
6
CONTINUOUS
10
126.85
20
-106.874
11
126.85
21
-106.875
0
LINE
8
BLACK
6
CONTINUOUS
10
126.85
20
-106.875
11
126.849
21
-106.887
0
LINE
8
BLACK
6
CONTINUOUS
10
126.849
20
-106.887
11
126.847
21
-106.899
0
LINE
8
BLACK
6
CONTINUOUS
10
126.847
20
-106.899
11
126.847
21
-106.899
0
LINE
8
BLACK
6
CONTINUOUS
10
126.847
20
-106.899
11
126.847
21
-106.899
0
LINE
8
BLACK
6
CONTINUOUS
10
126.847
20
-106.899
11
126.844
21
-106.911
0
LINE
8
BLACK
6
CONTINUOUS
10
126.844
20
-106.911
11
126.84
21
-106.922
0
LINE
8
BLACK
6
CONTINUOUS
10
126.84
20
-106.922
11
126.84
21
-106.923
0
LINE
8
BLACK
6
CONTINUOUS
10
126.84
20
-106.923
11
126.84
21
-106.923
0
LINE
8
BLACK
6
CONTINUOUS
10
126.84
20
-106.923
11
126.834
21
-106.933
0
LINE
8
BLACK
6
CONTINUOUS
10
126.834
20
-106.933
11
126.828
21
-106.944
0
LINE
8
BLACK
6
CONTINUOUS
10
126.828
20
-106.944
11
126.828
21
-106.944
0
LINE
8
BLACK
6
CONTINUOUS
10
126.828
20
-106.944
11
126.828
21
-106.945
0
LINE
8
BLACK
6
CONTINUOUS
10
126.828
20
-106.945
11
126.82
21
-106.954
0
LINE
8
BLACK
6
CONTINUOUS
10
126.82
20
-106.954
11
126.812
21
-106.963
0
LINE
8
BLACK
6
CONTINUOUS
10
126.812
20
-106.963
11
126.812
21
-106.963
0
LINE
8
BLACK
6
CONTINUOUS
10
126.812
20
-106.963
11
126.812
21
-106.964
0
LINE
8
BLACK
6
CONTINUOUS
10
126.812
20
-106.964
11
126.803
21
-106.971
0
LINE
8
BLACK
6
CONTINUOUS
10
126.803
20
-106.971
11
126.793
21
-106.979
0
LINE
8
BLACK
6
CONTINUOUS
10
126.793
20
-106.979
11
126.793
21
-106.979
0
LINE
8
BLACK
6
CONTINUOUS
10
126.793
20
-106.979
11
126.793
21
-106.979
0
LINE
8
BLACK
6
CONTINUOUS
10
126.793
20
-106.979
11
126.782
21
-106.985
0
LINE
8
BLACK
6
CONTINUOUS
10
126.782
20
-106.985
11
126.771
21
-106.99
0
LINE
8
BLACK
6
CONTINUOUS
10
126.771
20
-106.99
11
126.771
21
-106.991
0
LINE
8
BLACK
6
CONTINUOUS
10
126.771
20
-106.991
11
126.771
21
-106.991
0
LINE
8
BLACK
6
CONTINUOUS
10
126.771
20
-106.991
11
126.759
21
-106.994
0
LINE
8
BLACK
6
CONTINUOUS
10
126.759
20
-106.994
11
126.748
21
-106.998
0
LINE
8
BLACK
6
CONTINUOUS
10
126.748
20
-106.998
11
126.747
21
-106.998
0
LINE
8
BLACK
6
CONTINUOUS
10
126.747
20
-106.998
11
126.747
21
-106.998
0
LINE
8
BLACK
6
CONTINUOUS
10
126.747
20
-106.998
11
126.735
21
-106.999
0
LINE
8
BLACK
6
CONTINUOUS
10
126.735
20
-106.999
11
126.723
21
-107
0
LINE
8
BLACK
6
CONTINUOUS
10
126.723
20
-107
11
123.506
21
-107
0
LINE
8
BLACK
6
CONTINUOUS
10
123.506
20
-107
11
123.5
21
-107.001
0
LINE
8
BLACK
6
CONTINUOUS
10
123.5
20
-107.001
11
123.494
21
-107
0
LINE
8
BLACK
6
CONTINUOUS
10
123.494
20
-107
11
123.494
21
-107
0
LINE
8
BLACK
6
CONTINUOUS
10
123.494
20
-107
11
123.475
21
-106.998
0
LINE
8
BLACK
6
CONTINUOUS
10
123.475
20
-106.998
11
123.452
21
-106.991
0
LINE
8
BLACK
6
CONTINUOUS
10
123.452
20
-106.991
11
123.45
21
-106.99
0
LINE
8
BLACK
6
CONTINUOUS
10
123.45
20
-106.99
11
123.43
21
-106.979
0
LINE
8
BLACK
6
CONTINUOUS
10
123.43
20
-106.979
11
123.416
21
-106.968
0
LINE
8
BLACK
6
CONTINUOUS
10
123.416
20
-106.968
11
123.411
21
-106.964
0
LINE
8
BLACK
6
CONTINUOUS
10
123.411
20
-106.964
11
123.407
21
-106.959
0
LINE
8
BLACK
6
CONTINUOUS
10
123.407
20
-106.959
11
122.907
21
-106.459
0
LINE
8
BLACK
6
CONTINUOUS
10
122.907
20
-106.459
11
122.896
21
-106.445
0
LINE
8
BLACK
6
CONTINUOUS
10
122.896
20
-106.445
11
122.884
21
-106.423
0
LINE
8
BLACK
6
CONTINUOUS
10
122.884
20
-106.423
11
122.877
21
-106.4
0
LINE
8
BLACK
6
CONTINUOUS
10
122.877
20
-106.4
11
122.874
21
-106.375
0
LINE
8
BLACK
6
CONTINUOUS
10
122.874
20
-106.375
11
122.877
21
-106.35
0
LINE
8
BLACK
6
CONTINUOUS
10
122.877
20
-106.35
11
122.884
21
-106.327
0
LINE
8
BLACK
6
CONTINUOUS
10
122.884
20
-106.327
11
122.896
21
-106.305
0
LINE
8
BLACK
6
CONTINUOUS
10
122.896
20
-106.305
11
122.911
21
-106.286
0
LINE
8
BLACK
6
CONTINUOUS
10
122.911
20
-106.286
11
122.93
21
-106.271
0
LINE
8
BLACK
6
CONTINUOUS
10
122.93
20
-106.271
11
122.952
21
-106.259
0
LINE
8
BLACK
6
CONTINUOUS
10
122.952
20
-106.259
11
122.975
21
-106.252
0
LINE
8
BLACK
6
CONTINUOUS
10
122.975
20
-106.252
11
123
21
-106.249
0
LINE
8
BLACK
6
CONTINUOUS
10
123
20
-106.249
11
123.025
21
-106.252
0
LINE
8
BLACK
6
CONTINUOUS
10
123.025
20
-106.252
11
123.048
21
-106.259
0
LINE
8
BLACK
6
CONTINUOUS
10
123.048
20
-106.259
11
123.07
21
-106.271
0
LINE
8
BLACK
6
CONTINUOUS
10
123.07
20
-106.271
11
123.084
21
-106.282
0
LINE
8
BLACK
6
CONTINUOUS
10
123.084
20
-106.282
11
123.552
21
-106.75
0
LINE
8
BLACK
6
CONTINUOUS
10
123.552
20
-106.75
11
123.6
21
-106.75
0
LINE
8
BLACK
6
CONTINUOUS
10
123.6
20
-106.75
11
123.6
21
-106.327
0
LINE
8
BLACK
6
CONTINUOUS
10
123.6
20
-106.327
11
123.6
21
-106.326
0
LINE
8
BLACK
6
CONTINUOUS
10
123.6
20
-106.326
11
123.6
21
-106.326
0
LINE
8
BLACK
6
CONTINUOUS
10
123.6
20
-106.326
11
123.6
21
-106.326
0
LINE
8
BLACK
6
CONTINUOUS
10
123.6
20
-106.326
11
123.6
21
-106.325
0
LINE
8
BLACK
6
CONTINUOUS
10
123.6
20
-106.325
11
123.601
21
-106.313
0
LINE
8
BLACK
6
CONTINUOUS
10
123.601
20
-106.313
11
123.603
21
-106.301
0
LINE
8
BLACK
6
CONTINUOUS
10
123.603
20
-106.301
11
123.603
21
-106.301
0
LINE
8
BLACK
6
CONTINUOUS
10
123.603
20
-106.301
11
123.603
21
-106.301
0
LINE
8
BLACK
6
CONTINUOUS
10
123.603
20
-106.301
11
123.606
21
-106.289
0
LINE
8
BLACK
6
CONTINUOUS
10
123.606
20
-106.289
11
123.61
21
-106.278
0
LINE
8
BLACK
6
CONTINUOUS
10
123.61
20
-106.278
11
123.61
21
-106.277
0
LINE
8
BLACK
6
CONTINUOUS
10
123.61
20
-106.277
11
123.61
21
-106.277
0
LINE
8
BLACK
6
CONTINUOUS
10
123.61
20
-106.277
11
123.616
21
-106.267
0
LINE
8
BLACK
6
CONTINUOUS
10
123.616
20
-106.267
11
123.622
21
-106.256
0
LINE
8
BLACK
6
CONTINUOUS
10
123.622
20
-106.256
11
123.622
21
-106.256
0
LINE
8
BLACK
6
CONTINUOUS
10
123.622
20
-106.256
11
123.622
21
-106.255
0
LINE
8
BLACK
6
CONTINUOUS
10
123.622
20
-106.255
11
123.63
21
-106.246
0
LINE
8
BLACK
6
CONTINUOUS
10
123.63
20
-106.246
11
123.638
21
-106.237
0
LINE
8
BLACK
6
CONTINUOUS
10
123.638
20
-106.237
11
123.638
21
-106.237
0
LINE
8
BLACK
6
CONTINUOUS
10
123.638
20
-106.237
11
123.638
21
-106.236
0
LINE
8
BLACK
6
CONTINUOUS
10
123.638
20
-106.236
11
123.647
21
-106.229
0
LINE
8
BLACK
6
CONTINUOUS
10
123.647
20
-106.229
11
123.657
21
-106.221
0
LINE
8
BLACK
6
CONTINUOUS
10
123.657
20
-106.221
11
123.657
21
-106.221
0
LINE
8
BLACK
6
CONTINUOUS
10
123.657
20
-106.221
11
123.657
21
-106.221
0
LINE
8
BLACK
6
CONTINUOUS
10
123.657
20
-106.221
11
123.668
21
-106.215
0
LINE
8
BLACK
6
CONTINUOUS
10
123.668
20
-106.215
11
123.679
21
-106.21
0
LINE
8
BLACK
6
CONTINUOUS
10
123.679
20
-106.21
11
123.679
21
-106.209
0
LINE
8
BLACK
6
CONTINUOUS
10
123.679
20
-106.209
11
123.679
21
-106.209
0
LINE
8
BLACK
6
CONTINUOUS
10
123.679
20
-106.209
11
123.691
21
-106.206
0
LINE
8
BLACK
6
CONTINUOUS
10
123.691
20
-106.206
11
123.702
21
-106.202
0
LINE
8
BLACK
6
CONTINUOUS
10
123.702
20
-106.202
11
123.703
21
-106.202
0
LINE
8
BLACK
6
CONTINUOUS
10
123.703
20
-106.202
11
123.703
21
-106.202
0
LINE
8
BLACK
6
CONTINUOUS
10
123.703
20
-106.202
11
123.715
21
-106.201
0
LINE
8
BLACK
6
CONTINUOUS
10
123.715
20
-106.201
11
123.727
21
-106.2
0
LINE
8
BLACK
6
CONTINUOUS
10
123.727
20
-106.2
11
125.994
21
-106.2
0
LINE
8
BLACK
6
CONTINUOUS
10
125.994
20
-106.2
11
125.999
21
-106.199
0
LINE
8
BLACK
6
CONTINUOUS
10
125.999
20
-106.199
11
126
21
-106.194
0
LINE
8
BLACK
6
CONTINUOUS
10
126
20
-106.194
11
126
21
-104.897
0
LINE
8
BLACK
6
CONTINUOUS
10
126
20
-104.897
11
126
21
-104.896
0
LINE
8
BLACK
6
CONTINUOUS
10
126
20
-104.896
11
126
21
-104.896
0
LINE
8
BLACK
6
CONTINUOUS
10
126
20
-104.896
11
126
21
-104.896
0
LINE
8
BLACK
6
CONTINUOUS
10
126
20
-104.896
11
126
21
-104.895
0
LINE
8
BLACK
6
CONTINUOUS
10
126
20
-104.895
11
126.001
21
-104.883
0
LINE
8
BLACK
6
CONTINUOUS
10
126.001
20
-104.883
11
126.003
21
-104.871
0
LINE
8
BLACK
6
CONTINUOUS
10
126.003
20
-104.871
11
126.003
21
-104.871
0
LINE
8
BLACK
6
CONTINUOUS
10
126.003
20
-104.871
11
126.003
21
-104.871
0
LINE
8
BLACK
6
CONTINUOUS
10
126.003
20
-104.871
11
126.006
21
-104.859
0
LINE
8
BLACK
6
CONTINUOUS
10
126.006
20
-104.859
11
126.01
21
-104.848
0
LINE
8
BLACK
6
CONTINUOUS
10
126.01
20
-104.848
11
126.01
21
-104.847
0
LINE
8
BLACK
6
CONTINUOUS
10
126.01
20
-104.847
11
126.01
21
-104.847
0
LINE
8
BLACK
6
CONTINUOUS
10
126.01
20
-104.847
11
126.016
21
-104.837
0
LINE
8
BLACK
6
CONTINUOUS
10
126.016
20
-104.837
11
126.022
21
-104.826
0
LINE
8
BLACK
6
CONTINUOUS
10
126.022
20
-104.826
11
126.022
21
-104.826
0
LINE
8
BLACK
6
CONTINUOUS
10
126.022
20
-104.826
11
126.022
21
-104.825
0
LINE
8
BLACK
6
CONTINUOUS
10
126.022
20
-104.825
11
126.03
21
-104.816
0
LINE
8
BLACK
6
CONTINUOUS
10
126.03
20
-104.816
11
126.038
21
-104.807
0
LINE
8
BLACK
6
CONTINUOUS
10
126.038
20
-104.807
11
126.038
21
-104.807
0
LINE
8
BLACK
6
CONTINUOUS
10
126.038
20
-104.807
11
126.038
21
-104.806
0
LINE
8
BLACK
6
CONTINUOUS
10
126.038
20
-104.806
11
126.047
21
-104.799
0
LINE
8
BLACK
6
CONTINUOUS
10
126.047
20
-104.799
11
126.057
21
-104.791
0
LINE
8
BLACK
6
CONTINUOUS
10
126.057
20
-104.791
11
126.057
21
-104.791
0
LINE
8
BLACK
6
CONTINUOUS
10
126.057
20
-104.791
11
126.057
21
-104.791
0
LINE
8
BLACK
6
CONTINUOUS
10
126.057
20
-104.791
11
126.068
21
-104.785
0
LINE
8
BLACK
6
CONTINUOUS
10
126.068
20
-104.785
11
126.079
21
-104.78
0
LINE
8
BLACK
6
CONTINUOUS
10
126.079
20
-104.78
11
126.079
21
-104.779
0
LINE
8
BLACK
6
CONTINUOUS
10
126.079
20
-104.779
11
126.079
21
-104.779
0
LINE
8
BLACK
6
CONTINUOUS
10
126.079
20
-104.779
11
126.091
21
-104.776
0
LINE
8
BLACK
6
CONTINUOUS
10
126.091
20
-104.776
11
126.102
21
-104.772
0
LINE
8
BLACK
6
CONTINUOUS
10
126.102
20
-104.772
11
126.103
21
-104.772
0
LINE
8
BLACK
6
CONTINUOUS
10
126.103
20
-104.772
11
126.103
21
-104.772
0
LINE
8
BLACK
6
CONTINUOUS
10
126.103
20
-104.772
11
126.115
21
-104.771
0
LINE
8
BLACK
6
CONTINUOUS
10
126.115
20
-104.771
11
126.127
21
-104.77
0
LINE
8
BLACK
6
CONTINUOUS
10
126.127
20
-104.77
11
126.3
21
-104.77
0
LINE
8
BLACK
6
CONTINUOUS
10
126.3
20
-104.77
11
126.3
21
-104.75
0
LINE
8
BLACK
6
CONTINUOUS
10
126.3
20
-104.75
11
126.85
21
-104.75
0
LINE
8
BLACK
6
CONTINUOUS
10
126.85
20
-104.75
11
126.85
21
-106.873
0
LINE
8
BLACK
6
CONTINUOUS
10
126.85
20
-106.873
11
126.85
21
-106.874
  0
ENDSEC
  0
EOF
