0
SECTION
2
HEADER
9
$INSUNITS
70
4
9
$ACADVER
1
AC1014
9
$HANDSEED
5
FFFF
0
ENDSEC
0
SECTION
2
TABLES
0
TABLE
2
VPORT
5
8
100
AcDbSymbolTable
0
ENDTAB
0
TABLE
2
LTYPE
5
5
100
AcDbSymbolTable
0
LTYPE
5
14
100
AcDbSymbolTableRecord
100
AcDbLinetypeTableRecord
2
BYBLOCK
70
0
0
LTYPE
5
15
100
AcDbSymbolTableRecord
100
AcDbLinetypeTableRecord
2
BYLAYER
70
0
0
ENDTAB
0
TABLE
2
LAYER
5
2
100
AcDbSymbolTable
70
2
0
LAYER
5
50
100
AcDbSymbolTableRecord
100
AcDbLayerTableRecord
2
0
70
0
6
CONTINUOUS
0
ENDTAB
0
TABLE
2
STYLE
5
3
100
AcDbSymbolTable
70
1
0
STYLE
5
11
100
AcDbSymbolTableRecord
100
AcDbTextStyleTableRecord
2
STANDARD
70
0
0
ENDTAB
0
TABLE
2
VIEW
5
6
100
AcDbSymbolTable
70
0
0
ENDTAB
0
TABLE
2
UCS
5
7
100
AcDbSymbolTable
70
0
0
ENDTAB
0
TABLE
2
APPID
5
9
100
AcDbSymbolTable
70
2
0
APPID
5
12
100
AcDbSymbolTableRecord
100
AcDbRegAppTableRecord
2
ACAD
70
0
0
ENDTAB
0
TABLE
2
DIMSTYLE
5
A
100
AcDbSymbolTable
70
1
0
ENDTAB
0
TABLE
2
BLOCK_RECORD
5
1
100
AcDbSymbolTable
70
1
0
BLOCK_RECORD
5
1F
100
AcDbSymbolTableRecord
100
AcDbBlockTableRecord
2
*MODEL_SPACE
0
BLOCK_RECORD
5
1B
100
AcDbSymbolTableRecord
100
AcDbBlockTableRecord
2
*PAPER_SPACE
0
ENDTAB
0
ENDSEC
0
SECTION
2
BLOCKS
0
BLOCK
5
20
100
AcDbEntity
100
AcDbBlockBegin
2
*MODEL_SPACE
0
ENDBLK
5
21
100
AcDbEntity
100
AcDbBlockEnd
0
BLOCK
5
1C
100
AcDbEntity
100
AcDbBlockBegin
2
*PAPER_SPACE
0
ENDBLK
5
1D
100
AcDbEntity
100
AcDbBlockEnd
0
ENDSEC
0
SECTION
2
ENTITIES
0
CIRCLE
5
100
100
AcDbEntity
8
0
100
AcDbCircle
10
156.51071458659413
20
19.332092748890865
30
0
40
2.5
210
0
220
-0
230
1
0
CIRCLE
5
101
100
AcDbEntity
8
0
100
AcDbCircle
10
223.48632179427364
20
19.334826450260707
30
0
40
2.5
210
0
220
-0
230
1
0
LWPOLYLINE
5
102
100
AcDbEntity
8
0
100
AcDbPolyline
90
11
70
1
43
0.0
10
185.66812305757381
20
-9.160324453340106
42
0.41421356237311252
10
182.93607225000494
20
-8.4282736457712115
10
173.4097928083761
20
-13.928273645771254
42
0.41421356237309198
10
172.67774200080726
20
-16.660324453340142
10
178.73991982729831
20
-27.160324453340134
42
0.57735026918962529
10
201.25658032569373
20
-27.160324453340124
10
207.18292128611051
20
-16.895600806921721
42
0.40980014140618537
10
206.47689543894134
20
-14.178838511017961
10
197.03362741546903
20
-8.5350585171625379
42
0.41864079968461704
10
194.27555164750044
20
-9.251820813066292
10
194.3283770954182
20
-9.1603244533401167
42
-0.57735026918962695
0
LWPOLYLINE
5
103
100
AcDbEntity
8
0
100
AcDbPolyline
90
11
70
1
43
0.0
10
200.04505271509851
20
0.74124817033638268
42
0.40980014140620741
10
200.75107856226765
20
-1.9755141255673658
10
210.19434658573996
20
-7.6192941194228077
42
0.41864079968465745
10
212.95242235370853
20
-6.9025318235190261
10
219.15043704627385
20
3.8327445300625227
42
0.57735026918962562
10
207.89210679707617
20
23.332744530062534
10
195.76775114409403
20
23.33274453006252
42
0.41421356237309437
10
193.76775114409406
20
21.332744530062531
10
193.76775114409406
20
10.332744530062548
42
0.41421356237309437
10
195.76775114409403
20
8.3327445300625484
42
-0.5773502691896254
10
200.09787816301625
20
0.8327445300625369
0
CIRCLE
5
104
100
AcDbEntity
8
0
100
AcDbCircle
10
190.00282542687299
20
-38.659796375853148
30
0
40
2.5
210
0
220
-0
230
1
0
LWPOLYLINE
5
105
100
AcDbEntity
8
0
100
AcDbPolyline
90
10
70
1
43
0.0
10
184.22874900889798
20
8.3327445300625396
42
0.41421356237309437
10
186.22874900889798
20
10.332744530062534
10
186.22874900889798
20
21.332744530062531
42
0.41421356237309437
10
184.22874900889798
20
23.33274453006252
10
172.10439335591587
20
23.332744530062524
42
0.57735026918962562
10
160.84606310671816
20
3.8327445300625165
10
166.90824093320919
20
-6.6672554699374595
42
0.41421356237311613
10
169.64029174077808
20
-7.3993062775063496
10
179.1665711824069
20
-1.8993062775063407
42
0.41421356237307594
10
179.89862198997577
20
0.83274453006254268
42
-0.57735026918962484
0
LWPOLYLINE
5
106
100
AcDbEntity
8
0
100
AcDbPolyline
90
6
70
1
43
0.0
10
270.24593586955575
20
44.332744530062513
42
0.57735026918962595
10
268.51388506198691
20
47.332744530062499
10
111.48261509100514
20
47.33274453006252
42
0.57735026918961496
10
109.75056428343626
20
44.332744530062556
10
188.26619926892718
20
-91.660324453340223
42
0.57735026918963028
10
191.73030088406492
20
-91.660324453340223
0
LWPOLYLINE
5
107
100
AcDbEntity
8
0
100
AcDbPolyline
90
3
70
1
43
0.0
10
190.00282542687299
20
-38.659796375853148
10
223.48632179427364
20
19.334826450260707
10
156.51071458659413
20
19.332092748890865
0
LWPOLYLINE
5
108
100
AcDbEntity
8
0
100
AcDbPolyline
90
3
70
1
43
0.0
10
135.25191926092984
20
31.603365226787581
10
190.00444283686005
20
-63.201118481556762
10
244.7428835700693
20
31.607834250833733
0
CIRCLE
5
109
100
AcDbEntity
8
0
100
AcDbCircle
10
208.15455881101937
20
-31.764463282178959
30
0
40
2.5
210
0
220
0
230
1
0
CIRCLE
5
110
100
AcDbEntity
8
0
100
AcDbCircle
10
226.3046747851788
20
-0.32780808280123919
30
0
40
2.5
210
0
220
0
230
1
0
CIRCLE
5
111
100
AcDbEntity
8
0
100
AcDbCircle
10
244.45479075933798
20
31.108847116576626
30
0
40
2.5
210
0
220
0
230
1
0
CIRCLE
5
112
100
AcDbEntity
8
0
100
AcDbCircle
10
190.00444283686005
20
-63.201118481556762
30
0
40
2.5
210
0
220
0
230
1
0
LINE
5
113
100
AcDbEntity
8
0
100
AcDbLine
10
190.00444283686005
20
-63.201118481556762
30
0
11
190.00025430483606
21
39.417799118112171
31
0
0
CIRCLE
5
114
100
AcDbEntity
8
0
100
AcDbCircle
10
208.15479075933797
20
31.606340857587941
30
0
40
2.5
210
0
220
0
230
1
0
CIRCLE
5
115
100
AcDbEntity
8
0
100
AcDbCircle
10
171.84635558161219
20
31.604858878952431
30
0
40
2.5
210
0
220
0
230
1
0
CIRCLE
5
116
100
AcDbEntity
8
0
100
AcDbCircle
10
135.54639631434222
20
31.104401870919371
30
0
40
2.5
210
0
220
0
230
1
0
CIRCLE
5
117
100
AcDbEntity
8
0
100
AcDbCircle
10
153.69907848851471
20
-0.33077157990607731
30
0
40
2.5
210
0
220
0
230
1
0
CIRCLE
5
118
100
AcDbEntity
8
0
100
AcDbCircle
10
171.85176066268741
20
-31.76594503073138
30
0
40
2.5
210
0
220
0
230
1
0
LINE
5
119
100
AcDbEntity
8
0
100
AcDbLine
10
135.54639631434222
20
31.104401870919371
30
0
11
224.27398541608866
21
-20.122932019746145
31
0
0
CIRCLE
5
120
100
AcDbEntity
8
0
100
AcDbCircle
10
190.00187690062387
20
-0.33575236308308831
30
0
40
2.5
210
0
220
0
230
1
0
ENDSEC
0
SECTION
2
OBJECTS
0
DICTIONARY
5
C
100
AcDbDictionary
3
ACAD_GROUP
350
D
3
ACAD_MLINESTYLE
350
17
0
DICTIONARY
5
D
100
AcDbDictionary
0
DICTIONARY
5
1A
330
C
100
AcDbDictionary
0
DICTIONARY
5
17
100
AcDbDictionary
0
ENDSEC
0
EOF
