0
SECTION
2
HEADER
9
$INSUNITS
70
4
9
$ACADVER
1
AC1014
9
$HANDSEED
5
FFFF
0
ENDSEC
0
SECTION
2
TABLES
0
TABLE
2
VPORT
5
8
100
AcDbSymbolTable
0
ENDTAB
0
TABLE
2
LTYPE
5
5
100
AcDbSymbolTable
0
LTYPE
5
14
100
AcDbSymbolTableRecord
100
AcDbLinetypeTableRecord
2
BYBLOCK
70
0
0
LTYPE
5
15
100
AcDbSymbolTableRecord
100
AcDbLinetypeTableRecord
2
BYLAYER
70
0
0
ENDTAB
0
TABLE
2
LAYER
5
2
100
AcDbSymbolTable
70
2
0
LAYER
5
50
100
AcDbSymbolTableRecord
100
AcDbLayerTableRecord
2
0
70
0
6
CONTINUOUS
0
ENDTAB
0
TABLE
2
STYLE
5
3
100
AcDbSymbolTable
70
1
0
STYLE
5
11
100
AcDbSymbolTableRecord
100
AcDbTextStyleTableRecord
2
STANDARD
70
0
0
ENDTAB
0
TABLE
2
VIEW
5
6
100
AcDbSymbolTable
70
0
0
ENDTAB
0
TABLE
2
UCS
5
7
100
AcDbSymbolTable
70
0
0
ENDTAB
0
TABLE
2
APPID
5
9
100
AcDbSymbolTable
70
2
0
APPID
5
12
100
AcDbSymbolTableRecord
100
AcDbRegAppTableRecord
2
ACAD
70
0
0
ENDTAB
0
TABLE
2
DIMSTYLE
5
A
100
AcDbSymbolTable
70
1
0
ENDTAB
0
TABLE
2
BLOCK_RECORD
5
1
100
AcDbSymbolTable
70
1
0
BLOCK_RECORD
5
1F
100
AcDbSymbolTableRecord
100
AcDbBlockTableRecord
2
*MODEL_SPACE
0
BLOCK_RECORD
5
1B
100
AcDbSymbolTableRecord
100
AcDbBlockTableRecord
2
*PAPER_SPACE
0
ENDTAB
0
ENDSEC
0
SECTION
2
BLOCKS
0
BLOCK
5
20
100
AcDbEntity
100
AcDbBlockBegin
2
*MODEL_SPACE
0
ENDBLK
5
21
100
AcDbEntity
100
AcDbBlockEnd
0
BLOCK
5
1C
100
AcDbEntity
100
AcDbBlockBegin
2
*PAPER_SPACE
0
ENDBLK
5
1D
100
AcDbEntity
100
AcDbBlockEnd
0
ENDSEC
0
SECTION
2
ENTITIES
0
CIRCLE
5
100
100
AcDbEntity
8
0
100
AcDbCircle
10
156.51071458659413
20
19.332092748890865
30
0
40
2.5
210
0
220
-0
230
1
0
CIRCLE
5
101
100
AcDbEntity
8
0
100
AcDbCircle
10
223.48632179427364
20
19.334826450260707
30
0
40
2.5
210
0
220
-0
230
1
0
LWPOLYLINE
5
102
100
AcDbEntity
8
0
100
AcDbPolyline
90
11
70
1
43
0.0
10
185.66812305757381
20
-9.160324453340106
42
0.41421356237311252
10
182.93607225000494
20
-8.4282736457712115
10
173.4097928083761
20
-13.928273645771254
42
0.41421356237309198
10
172.67774200080726
20
-16.660324453340142
10
178.73991982729831
20
-27.160324453340134
42
0.57735026918962529
10
201.25658032569373
20
-27.160324453340124
10
207.18292128611051
20
-16.895600806921721
42
0.40980014140618537
10
206.47689543894134
20
-14.178838511017961
10
197.03362741546903
20
-8.5350585171625379
42
0.41864079968461704
10
194.27555164750044
20
-9.251820813066292
10
194.3283770954182
20
-9.1603244533401167
42
-0.57735026918962695
0
LWPOLYLINE
5
103
100
AcDbEntity
8
0
100
AcDbPolyline
90
11
70
1
43
0.0
10
200.04505271509851
20
0.74124817033638268
42
0.40980014140620741
10
200.75107856226765
20
-1.9755141255673658
10
210.19434658573996
20
-7.6192941194228077
42
0.41864079968465745
10
212.95242235370853
20
-6.9025318235190261
10
219.15043704627385
20
3.8327445300625227
42
0.57735026918962562
10
207.89210679707617
20
23.332744530062534
10
195.76775114409403
20
23.33274453006252
42
0.41421356237309437
10
193.76775114409406
20
21.332744530062531
10
193.76775114409406
20
10.332744530062548
42
0.41421356237309437
10
195.76775114409403
20
8.3327445300625484
42
-0.5773502691896254
10
200.09787816301625
20
0.8327445300625369
0
CIRCLE
5
104
100
AcDbEntity
8
0
100
AcDbCircle
10
190.00282542687299
20
-38.659796375853148
30
0
40
2.5
210
0
220
-0
230
1
0
LWPOLYLINE
5
105
100
AcDbEntity
8
0
100
AcDbPolyline
90
10
70
1
43
0.0
10
184.22874900889798
20
8.3327445300625396
42
0.41421356237309437
10
186.22874900889798
20
10.332744530062534
10
186.22874900889798
20
21.332744530062531
42
0.41421356237309437
10
184.22874900889798
20
23.33274453006252
10
172.10439335591587
20
23.332744530062524
42
0.57735026918962562
10
160.84606310671816
20
3.8327445300625165
10
166.90824093320919
20
-6.6672554699374595
42
0.41421356237311613
10
169.64029174077808
20
-7.3993062775063496
10
179.1665711824069
20
-1.8993062775063407
42
0.41421356237307594
10
179.89862198997577
20
0.83274453006254268
42
-0.57735026918962484
0
LWPOLYLINE
5
106
100
AcDbEntity
8
0
100
AcDbPolyline
90
6
70
1
43
0.0
10
270.24593586955575
20
44.332744530062513
42
0.57735026918962595
10
268.51388506198691
20
47.332744530062499
10
111.48261509100514
20
47.33274453006252
42
0.57735026918961496
10
109.75056428343626
20
44.332744530062556
10
188.26619926892718
20
-91.660324453340223
42
0.57735026918963028
10
191.73030088406492
20
-91.660324453340223
0
LWPOLYLINE
5
107
100
AcDbEntity
8
0
100
AcDbPolyline
90
3
70
1
43
0.0
10
190.00282542687299
20
-38.659796375853148
10
223.48632179427364
20
19.334826450260707
10
156.51071458659413
20
19.332092748890865
0
LWPOLYLINE
5
108
100
AcDbEntity
8
0
100
AcDbPolyline
90
3
70
1
43
0.0
10
135.25191926092984
20
31.603365226787581
10
190.00444283686005
20
-63.201118481556762
10
244.7428835700693
20
31.607834250833733
0
CIRCLE
5
109
100
AcDbEntity
8
0
100
AcDbCircle
10
190.00444283686005
20
-63.201118481556762
30
0
40
2.5
210
0
220
0
230
1
0
LINE
5
110
100
AcDbEntity
8
0
100
AcDbLine
10
190.00444283686005
20
-63.201118481556762
30
0
11
190.00025430483612
21
39.417799118112136
31
0
0
CIRCLE
5
111
100
AcDbEntity
8
0
100
AcDbCircle
10
190.00344114580227
20
-38.659715542959269
30
0
40
2.5
210
0
220
0
230
1
0
CIRCLE
5
112
100
AcDbEntity
8
0
100
AcDbCircle
10
199.1275011306482
20
-47.399652620183559
30
0
40
2.5
210
0
220
0
230
1
0
CIRCLE
5
113
100
AcDbEntity
8
0
100
AcDbCircle
10
208.2505594244364
20
-31.598186758810357
30
0
40
2.5
210
0
220
0
230
1
0
CIRCLE
5
114
100
AcDbEntity
8
0
100
AcDbCircle
10
217.37361771822458
20
-15.796720897437151
30
0
40
2.5
210
0
220
0
230
1
0
CIRCLE
5
115
100
AcDbEntity
8
0
100
AcDbCircle
10
226.49667601201276
20
0.0047449639360497287
30
0
40
2.5
210
0
220
0
230
1
0
CIRCLE
5
116
100
AcDbEntity
8
0
100
AcDbCircle
10
235.61973430580093
20
15.80621082530925
30
0
40
2.5
210
0
220
0
230
1
0
CIRCLE
5
117
100
AcDbEntity
8
0
100
AcDbCircle
10
135.25191926092984
20
31.603365226787581
30
0
40
2.5
210
0
220
0
230
1
0
CIRCLE
5
118
100
AcDbEntity
8
0
100
AcDbCircle
10
144.38270193480389
20
15.8024833995698
30
0
40
2.5
210
0
220
0
230
1
0
CIRCLE
5
119
100
AcDbEntity
8
0
100
AcDbCircle
10
153.50705011521515
20
0.0017630233444911997
30
0
40
2.5
210
0
220
0
230
1
0
CIRCLE
5
120
100
AcDbEntity
8
0
100
AcDbCircle
10
162.63139829562635
20
-15.798957352880825
30
0
40
2.5
210
0
220
0
230
1
0
CIRCLE
5
121
100
AcDbEntity
8
0
100
AcDbCircle
10
171.75574647603759
20
-31.599677729106141
30
0
40
2.5
210
0
220
0
230
1
0
CIRCLE
5
122
100
AcDbEntity
8
0
100
AcDbCircle
10
180.88009465644885
20
-47.400398105331448
30
0
40
2.5
210
0
220
0
230
1
0
LINE
5
123
100
AcDbEntity
8
0
100
AcDbLine
10
244.74279259958911
20
31.607676686682478
30
0
11
162.63561978333701
21
-15.811756862525703
31
0
0
CIRCLE
5
124
100
AcDbEntity
8
0
100
AcDbCircle
10
208.25079397633075
20
31.597652709956755
30
0
40
2.5
210
0
220
0
230
1
0
CIRCLE
5
125
100
AcDbEntity
8
0
100
AcDbCircle
10
190.00479466470154
20
31.592640721593924
30
0
40
2.5
210
0
220
0
230
1
0
CIRCLE
5
126
100
AcDbEntity
8
0
100
AcDbCircle
10
171.75879535307234
20
31.587628733231075
30
0
40
2.5
210
0
220
0
230
1
0
CIRCLE
5
127
100
AcDbEntity
8
0
100
AcDbCircle
10
153.51279604144318
20
31.582616744868218
30
0
40
2.5
210
0
220
0
230
1
0
CIRCLE
5
128
100
AcDbEntity
8
0
100
AcDbCircle
10
244.74279259958911
20
31.60767668668246
30
0
40
2.5
210
0
220
0
230
1
0
CIRCLE
5
129
100
AcDbEntity
8
0
100
AcDbCircle
10
226.49679328795992
20
31.602664698319618
30
0
40
2.5
210
0
220
0
230
1
0
LWPOLYLINE
5
130
100
AcDbEntity
8
0
100
AcDbPolyline
90
3
70
1
43
0.0
10
190.0015571623189
20
7.4978271787377215
10
183.50201400462987
20
-3.7607683769944251
10
196.50201400462987
20
-3.7602377641446187
0
CIRCLE
5
131
100
AcDbEntity
8
0
100
AcDbCircle
10
196.50201400462987
20
-3.7602377641446187
30
0
40
2.4999999999999889
210
0
220
0
230
1
0
CIRCLE
5
132
100
AcDbEntity
8
0
100
AcDbCircle
10
190.0015571623189
20
7.4978271787377215
30
0
40
2.5000000000000004
210
0
220
0
230
1
0
CIRCLE
5
133
100
AcDbEntity
8
0
100
AcDbCircle
10
183.50201400462987
20
-3.7607683769944251
30
0
40
2.4999999999999938
210
0
220
0
230
1
0
LINE
5
134
100
AcDbEntity
8
0
100
AcDbLine
10
255.24593586955575
20
18.351982416529367
30
0
11
252.64785965820249
21
19.851982416529356
31
0
0
LINE
5
135
100
AcDbEntity
8
0
100
AcDbLine
10
252.64785965820249
20
19.851982416529356
30
0
11
246.64785965820244
21
9.4596775711160941
31
0
0
LINE
5
136
100
AcDbEntity
8
0
100
AcDbLine
10
246.64785965820244
20
9.4596775711160941
30
0
11
249.24593586955578
21
7.9596775711160959
31
0
0
LINE
5
137
100
AcDbEntity
8
0
100
AcDbLine
10
259.86605800222583
20
9.442008476385837
30
0
11
252.87343886596574
21
13.478818474878604
31
0
0
LINE
5
138
100
AcDbEntity
8
0
100
AcDbLine
10
255.08687103879595
20
1.8089533086522458
30
0
11
245.4445244991706
21
7.3754399371389106
31
0
0
LINE
5
139
100
AcDbEntity
8
0
100
AcDbLine
10
238.78404924612528
20
-10.16084160369072
30
0
11
236.66826263159987
21
-8.9392916322466736
31
0
0
LINE
5
140
100
AcDbEntity
8
0
100
AcDbLine
10
190.00186347823188
20
-0.0069041332079811113
30
0
11
262.30286268641953
21
-41.745988051042033
31
0
0
LINE
5
141
100
AcDbEntity
8
0
100
AcDbLine
10
204.13177773589834
20
-64.188223342517063
30
0
11
210.13093307709431
21
-53.795430878881504
31
0
0
LINE
5
142
100
AcDbEntity
8
0
100
AcDbLine
10
206.72997585180718
20
-65.688012177816049
30
0
11
204.13177773589834
21
-64.188223342517063
31
0
0
LINE
5
143
100
AcDbEntity
8
0
100
AcDbLine
10
210.13093307709431
20
-53.795430878881504
30
0
11
212.72913119300318
21
-55.295219714180526
31
0
0
LINE
5
144
100
AcDbEntity
8
0
100
AcDbLine
10
173.27911288960303
20
-65.689377520717954
30
0
11
175.87718856497375
21
-64.189376592369371
31
0
0
LINE
5
145
100
AcDbEntity
8
0
100
AcDbLine
10
175.87718856497375
20
-64.189376592369371
30
0
11
169.87718485157933
21
-53.79707389088621
31
0
0
LINE
5
146
100
AcDbEntity
8
0
100
AcDbLine
10
169.87718485157933
20
-53.79707389088621
30
0
11
167.27910917620861
21
-55.297074819234822
31
0
0
LINE
5
147
100
AcDbEntity
8
0
100
AcDbLine
10
133.35509470394342
20
9.4550533713565255
30
0
11
130.75714095036571
21
7.9548412882590469
31
0
0
LINE
5
148
100
AcDbEntity
8
0
100
AcDbLine
10
127.3542463715534
20
19.8468683856672
30
0
11
133.35509470394342
21
9.4550533713565255
31
0
0
LINE
5
149
100
AcDbEntity
8
0
100
AcDbLine
10
124.75629261797579
20
18.346656302569713
30
0
11
127.3542463715534
21
19.8468683856672
31
0
0
LINE
5
150
100
AcDbEntity
8
0
100
AcDbLine
10
141.47158754514595
20
47.307470166881664
30
0
11
141.47215672059306
21
44.30747022087516
31
0
0
LINE
5
151
100
AcDbEntity
8
0
100
AcDbLine
10
141.47215672059306
20
44.30747022087516
30
0
11
153.47215650461931
21
44.309746922663621
31
0
0
LINE
5
152
100
AcDbEntity
8
0
100
AcDbLine
10
153.47215650461931
20
44.309746922663621
30
0
11
153.47158732917217
21
47.309746868670182
31
0
0
LINE
5
153
100
AcDbEntity
8
0
100
AcDbLine
10
226.51114875433822
20
44.326572394284938
30
0
11
226.51033575262417
21
47.326572284122996
31
0
0
LINE
5
154
100
AcDbEntity
8
0
100
AcDbLine
10
238.5111483136904
20
44.329824401141337
30
0
11
226.51114875433822
21
44.326572394284938
31
0
0
LINE
5
155
100
AcDbEntity
8
0
100
AcDbLine
10
238.51033531197629
20
47.329824290979317
30
0
11
238.5111483136904
21
44.329824401141337
31
0
0
ENDSEC
0
SECTION
2
OBJECTS
0
DICTIONARY
5
C
100
AcDbDictionary
3
ACAD_GROUP
350
D
3
ACAD_MLINESTYLE
350
17
0
DICTIONARY
5
D
100
AcDbDictionary
0
DICTIONARY
5
1A
330
C
100
AcDbDictionary
0
DICTIONARY
5
17
100
AcDbDictionary
0
ENDSEC
0
EOF
