0
SECTION
2
HEADER
9
$INSUNITS
70
4
9
$ACADVER
1
AC1014
9
$HANDSEED
5
FFFF
0
ENDSEC
0
SECTION
2
TABLES
0
TABLE
2
VPORT
5
8
100
AcDbSymbolTable
0
ENDTAB
0
TABLE
2
LTYPE
5
5
100
AcDbSymbolTable
0
LTYPE
5
14
100
AcDbSymbolTableRecord
100
AcDbLinetypeTableRecord
2
BYBLOCK
70
0
0
LTYPE
5
15
100
AcDbSymbolTableRecord
100
AcDbLinetypeTableRecord
2
BYLAYER
70
0
0
ENDTAB
0
TABLE
2
LAYER
5
2
100
AcDbSymbolTable
70
2
0
LAYER
5
50
100
AcDbSymbolTableRecord
100
AcDbLayerTableRecord
2
0
70
0
6
CONTINUOUS
0
ENDTAB
0
TABLE
2
STYLE
5
3
100
AcDbSymbolTable
70
1
0
STYLE
5
11
100
AcDbSymbolTableRecord
100
AcDbTextStyleTableRecord
2
STANDARD
70
0
0
ENDTAB
0
TABLE
2
VIEW
5
6
100
AcDbSymbolTable
70
0
0
ENDTAB
0
TABLE
2
UCS
5
7
100
AcDbSymbolTable
70
0
0
ENDTAB
0
TABLE
2
APPID
5
9
100
AcDbSymbolTable
70
2
0
APPID
5
12
100
AcDbSymbolTableRecord
100
AcDbRegAppTableRecord
2
ACAD
70
0
0
ENDTAB
0
TABLE
2
DIMSTYLE
5
A
100
AcDbSymbolTable
70
1
0
ENDTAB
0
TABLE
2
BLOCK_RECORD
5
1
100
AcDbSymbolTable
70
1
0
BLOCK_RECORD
5
1F
100
AcDbSymbolTableRecord
100
AcDbBlockTableRecord
2
*MODEL_SPACE
0
BLOCK_RECORD
5
1B
100
AcDbSymbolTableRecord
100
AcDbBlockTableRecord
2
*PAPER_SPACE
0
ENDTAB
0
ENDSEC
0
SECTION
2
BLOCKS
0
BLOCK
5
20
100
AcDbEntity
100
AcDbBlockBegin
2
*MODEL_SPACE
0
ENDBLK
5
21
100
AcDbEntity
100
AcDbBlockEnd
0
BLOCK
5
1C
100
AcDbEntity
100
AcDbBlockBegin
2
*PAPER_SPACE
0
ENDBLK
5
1D
100
AcDbEntity
100
AcDbBlockEnd
0
ENDSEC
0
SECTION
2
ENTITIES
0
CIRCLE
5
100
100
AcDbEntity
8
0
100
AcDbCircle
10
-190.00282542687299
20
38.659796375853148
30
0
40
2.5
210
0
220
0
230
1
0
CIRCLE
5
101
100
AcDbEntity
8
0
100
AcDbCircle
10
-223.48632179427364
20
-19.334826450260707
30
0
40
2.5
210
0
220
0
230
1
0
CIRCLE
5
102
100
AcDbEntity
8
0
100
AcDbCircle
10
-156.51071458659413
20
-19.332092748890865
30
0
40
2.5
210
0
220
0
230
1
0
LWPOLYLINE
5
103
100
AcDbEntity
8
0
100
AcDbPolyline
90
6
70
1
43
0.0
10
-270.24593586955575
20
-44.332744530062513
10
-191.73030088406492
20
91.660324453340223
42
-0.57735026918963028
10
-188.26619926892718
20
91.660324453340223
10
-109.75056428343626
20
-44.332744530062556
42
-0.57735026918961496
10
-111.48261509100514
20
-47.33274453006252
10
-268.51388506198691
20
-47.332744530062499
42
-0.57735026918962595
0
LINE
5
104
100
AcDbEntity
8
0
100
AcDbLine
10
-274.02448667387762
20
-46.877386502128182
30
0
11
-272.6068850554928
21
-49.332744530062513
31
0
0
LINE
5
105
100
AcDbEntity
8
0
100
AcDbLine
10
-274.02448667387762
20
-46.877386502128182
30
0
11
-191.41624411200576
21
96.204286739029428
31
0
0
LINE
5
106
100
AcDbEntity
8
0
100
AcDbLine
10
-188.58008661164118
20
96.203993278773652
30
0
11
-191.42205417044119
21
96.203993278773652
31
0
0
LINE
5
107
100
AcDbEntity
8
0
100
AcDbLine
10
-107.39665530629479
20
-49.332744530062499
30
0
11
-105.97553358351222
21
-46.871289502463284
31
0
0
LINE
5
108
100
AcDbEntity
8
0
100
AcDbLine
10
-107.39665530629479
20
-49.332744530062499
30
0
11
-272.6068850554928
21
-49.332744530062513
31
0
0
LINE
5
109
100
AcDbEntity
8
0
100
AcDbLine
10
-188.58008661164118
20
96.203993278773652
30
0
11
-105.97553358351222
21
-46.871289502463284
31
0
0
ARC
5
110
100
AcDbEntity
8
0
100
AcDbCircle
10
-207.89210679707617
20
-10.33274453006252
30
0
40
13.000000000000009
210
0
220
0
230
1
100
AcDbArc
50
149.99999999999997
51
270
0
ARC
5
111
100
AcDbEntity
8
0
100
AcDbCircle
10
-189.99825007649602
20
20.660324453340113
30
0
40
13.000000000000021
210
0
220
-0
230
1
100
AcDbArc
50
30.000000000000057
51
149.99999999999997
0
ARC
5
112
100
AcDbEntity
8
0
100
AcDbCircle
10
-172.10439335591587
20
-10.332744530062516
30
0
40
13.000000000000007
210
0
220
0
230
1
100
AcDbArc
50
-90
51
29.999999999999979
0
ARC
5
113
100
AcDbEntity
8
0
100
AcDbCircle
10
-189.99825007649602
20
6.6603244533401167
30
0
40
5.0000000000000124
210
0
220
-0
230
1
100
AcDbArc
50
29.999999999999922
51
149.99999999999997
0
ARC
5
114
100
AcDbEntity
8
0
100
AcDbCircle
10
-195.76775114409403
20
-3.3327445300625369
30
0
40
5.0000000000000098
210
0
220
0
230
1
100
AcDbArc
50
150.00000000000011
51
270
0
ARC
5
115
100
AcDbEntity
8
0
100
AcDbCircle
10
-184.22874900889798
20
-3.3327445300625334
30
0
40
5.0000000000000009
210
0
220
0
230
1
100
AcDbArc
50
-90
51
29.999999999999826
0
LINE
5
116
100
AcDbEntity
8
0
100
AcDbLine
10
-182.93607225000494
20
8.4282736457712222
30
0
11
-173.4097928083761
21
13.928273645771249
31
0
0
LINE
5
117
100
AcDbEntity
8
0
100
AcDbLine
10
-179.1665711824069
20
1.899306277506341
30
0
11
-169.64029174077808
21
7.3993062775063496
31
0
0
LINE
5
118
100
AcDbEntity
8
0
100
AcDbLine
10
-206.47689543894134
20
14.178838511017959
30
0
11
-197.03362741546903
21
8.5350585171625362
31
0
0
LINE
5
119
100
AcDbEntity
8
0
100
AcDbLine
10
-200.75107856226762
20
1.9755141255673863
30
0
11
-210.19434658573996
21
7.6192941194228077
31
0
0
LINE
5
120
100
AcDbEntity
8
0
100
AcDbLine
10
-186.22874900889798
20
-10.332744530062534
30
0
11
-186.22874900889798
21
-21.332744530062531
31
0
0
LINE
5
121
100
AcDbEntity
8
0
100
AcDbLine
10
-193.76775114409406
20
-10.332744530062548
30
0
11
-193.76775114409406
21
-21.332744530062531
31
0
0
LINE
5
122
100
AcDbEntity
8
0
100
AcDbLine
10
-194.3283770954182
20
9.1603244533401167
30
0
11
-194.27555164750044
21
9.2518208130662956
31
0
0
LINE
5
123
100
AcDbEntity
8
0
100
AcDbLine
10
-200.04505271509851
20
-0.74124817033638279
30
0
11
-200.09787816301625
21
-0.8327445300625369
31
0
0
LINE
5
124
100
AcDbEntity
8
0
100
AcDbLine
10
-207.89210679707617
20
-23.332744530062534
30
0
11
-195.76775114409403
21
-23.33274453006252
31
0
0
LINE
5
125
100
AcDbEntity
8
0
100
AcDbLine
10
-184.22874900889798
20
-23.33274453006252
30
0
11
-172.10439335591587
21
-23.332744530062524
31
0
0
LINE
5
126
100
AcDbEntity
8
0
100
AcDbLine
10
-201.25658032569373
20
27.160324453340124
30
0
11
-207.18292128611051
21
16.895600806921721
31
0
0
LINE
5
127
100
AcDbEntity
8
0
100
AcDbLine
10
-212.95242235370853
20
6.9025318235190234
30
0
11
-219.15043704627385
21
-3.8327445300625218
31
0
0
LINE
5
128
100
AcDbEntity
8
0
100
AcDbLine
10
-160.84606310671816
20
-3.8327445300625151
30
0
11
-166.90824093320919
21
6.6672554699374595
31
0
0
LINE
5
129
100
AcDbEntity
8
0
100
AcDbLine
10
-172.67774200080726
20
16.660324453340124
30
0
11
-178.73991982729831
21
27.160324453340134
31
0
0
ARC
5
130
100
AcDbEntity
8
0
100
AcDbCircle
10
-183.93607225000494
20
10.160324453340056
30
0
40
1.999999999999968
210
0
220
0
230
1
100
AcDbArc
50
209.99999999999889
51
300.00000000000063
0
ARC
5
131
100
AcDbEntity
8
0
100
AcDbCircle
10
-174.40979280837615
20
15.660324453340127
30
0
40
2.0000000000000422
210
0
220
0
230
1
100
AcDbArc
50
-59.999999999998614
51
29.999999999999641
0
ARC
5
132
100
AcDbEntity
8
0
100
AcDbCircle
10
-168.64029174077808
20
5.6672554699375288
30
0
40
1.9999999999999574
210
0
220
-0
230
1
100
AcDbArc
50
29.999999999998007
51
120.00000000000081
0
ARC
5
133
100
AcDbEntity
8
0
100
AcDbCircle
10
-178.16657118240681
20
0.16725546993743121
30
0
40
2.0000000000000711
210
0
220
0
230
1
100
AcDbArc
50
120.00000000000163
51
209.99999999999801
0
ARC
5
134
100
AcDbEntity
8
0
100
AcDbCircle
10
-184.22874900889798
20
-10.332744530062532
30
0
40
1.9999999999999929
210
0
220
-0
230
1
100
AcDbArc
50
90
51
180
0
ARC
5
135
100
AcDbEntity
8
0
100
AcDbCircle
10
-195.76775114409403
20
-10.332744530062543
30
0
40
1.9999999999999929
210
0
220
0
230
1
100
AcDbArc
50
0
51
90
0
ARC
5
136
100
AcDbEntity
8
0
100
AcDbCircle
10
-201.77710352266729
20
0.25875182966365029
30
0
40
1.9999999999999467
210
-0
220
0
230
1
100
AcDbArc
50
-30.000000000002156
51
59.135301307354219
0
ARC
5
137
100
AcDbEntity
8
0
100
AcDbCircle
10
-196.00760245506933
20
10.251820813066397
30
0
40
2.000000000000079
210
0
220
0
230
1
100
AcDbArc
50
239.13530130735535
51
329.99999999999778
0
ARC
5
138
100
AcDbEntity
8
0
100
AcDbCircle
10
-205.45087047854162
20
15.895600806921731
30
0
40
2.0000000000000178
210
0
220
0
230
1
100
AcDbArc
50
150.00000000000054
51
239.13530130735333
0
ARC
5
139
100
AcDbEntity
8
0
100
AcDbCircle
10
-211.22037154613966
20
5.9025318235190882
30
0
40
1.9999999999999594
210
0
220
-0
230
1
100
AcDbArc
50
59.135301307353274
51
150.00000000000148
0
ARC
5
140
100
AcDbEntity
8
0
100
AcDbCircle
10
-195.76775114409403
20
-21.332744530062527
30
0
40
1.9999999999999929
210
-0
220
0
230
1
100
AcDbArc
50
270
51
360
0
ARC
5
141
100
AcDbEntity
8
0
100
AcDbCircle
10
-184.22874900889798
20
-21.332744530062527
30
0
40
1.9999999999999929
210
0
220
0
230
1
100
AcDbArc
50
180
51
270
0
ENDSEC
0
SECTION
2
OBJECTS
0
DICTIONARY
5
C
100
AcDbDictionary
3
ACAD_GROUP
350
D
3
ACAD_MLINESTYLE
350
17
0
DICTIONARY
5
D
100
AcDbDictionary
0
DICTIONARY
5
1A
330
C
100
AcDbDictionary
0
DICTIONARY
5
17
100
AcDbDictionary
0
ENDSEC
0
EOF
