ISO-10303-21;
HEADER;
/* Generated by software containing ST-Developer
 * from STEP Tools, Inc. (www.steptools.com) 
 */

FILE_DESCRIPTION(
/* description */ (''),
/* implementation_level */ '2;1');

FILE_NAME(
/* name */ 
'C:/Users/Scott/Dropbox/CNC/smartknob/3d/TFT-Round-1.28.step',
/* time_stamp */ '2022-02-12T09:37:05-08:00',
/* author */ (''),
/* organization */ (''),
/* preprocessor_version */ 'ST-DEVELOPER v18.1',
/* originating_system */ 'Autodesk Translation Framework v10.13.0.1454',

/* authorisation */ '');

FILE_SCHEMA (('AUTOMOTIVE_DESIGN { 1 0 10303 214 3 1 1 }'));
ENDSEC;

DATA;
#10=MECHANICAL_DESIGN_GEOMETRIC_PRESENTATION_REPRESENTATION('',(#16,#17,
#18,#19,#20,#21,#22,#23,#24,#25),#455);
#11=SHAPE_REPRESENTATION_RELATIONSHIP('SRR','None',#462,#12);
#12=ADVANCED_BREP_SHAPE_REPRESENTATION('',(#13,#14),#454);
#13=MANIFOLD_SOLID_BREP('LCd',#274);
#14=MANIFOLD_SOLID_BREP('FPC',#275);
#15=FACE_BOUND('',#65,.T.);
#16=STYLED_ITEM('',(#472),#260);
#17=STYLED_ITEM('',(#472),#261);
#18=STYLED_ITEM('',(#472),#262);
#19=STYLED_ITEM('',(#472),#263);
#20=STYLED_ITEM('',(#472),#264);
#21=STYLED_ITEM('',(#472),#265);
#22=STYLED_ITEM('',(#472),#266);
#23=STYLED_ITEM('',(#473),#267);
#24=STYLED_ITEM('',(#471),#13);
#25=STYLED_ITEM('',(#474),#14);
#26=PLANE('',#292);
#27=PLANE('',#293);
#28=PLANE('',#297);
#29=PLANE('',#298);
#30=PLANE('',#299);
#31=PLANE('',#300);
#32=PLANE('',#301);
#33=PLANE('',#302);
#34=PLANE('',#303);
#35=PLANE('',#304);
#36=PLANE('',#305);
#37=PLANE('',#306);
#38=PLANE('',#307);
#39=PLANE('',#308);
#40=FACE_OUTER_BOUND('',#56,.T.);
#41=FACE_OUTER_BOUND('',#57,.T.);
#42=FACE_OUTER_BOUND('',#58,.T.);
#43=FACE_OUTER_BOUND('',#59,.T.);
#44=FACE_OUTER_BOUND('',#60,.T.);
#45=FACE_OUTER_BOUND('',#61,.T.);
#46=FACE_OUTER_BOUND('',#62,.T.);
#47=FACE_OUTER_BOUND('',#63,.T.);
#48=FACE_OUTER_BOUND('',#64,.T.);
#49=FACE_OUTER_BOUND('',#66,.T.);
#50=FACE_OUTER_BOUND('',#67,.T.);
#51=FACE_OUTER_BOUND('',#68,.T.);
#52=FACE_OUTER_BOUND('',#69,.T.);
#53=FACE_OUTER_BOUND('',#70,.T.);
#54=FACE_OUTER_BOUND('',#71,.T.);
#55=FACE_OUTER_BOUND('',#72,.T.);
#56=EDGE_LOOP('',(#190,#191,#192,#193));
#57=EDGE_LOOP('',(#194));
#58=EDGE_LOOP('',(#195,#196,#197,#198));
#59=EDGE_LOOP('',(#199,#200,#201,#202));
#60=EDGE_LOOP('',(#203,#204,#205,#206));
#61=EDGE_LOOP('',(#207,#208,#209,#210));
#62=EDGE_LOOP('',(#211,#212,#213,#214));
#63=EDGE_LOOP('',(#215,#216,#217,#218));
#64=EDGE_LOOP('',(#219,#220,#221,#222,#223,#224));
#65=EDGE_LOOP('',(#225));
#66=EDGE_LOOP('',(#226,#227,#228,#229,#230,#231));
#67=EDGE_LOOP('',(#232,#233,#234,#235));
#68=EDGE_LOOP('',(#236,#237,#238,#239));
#69=EDGE_LOOP('',(#240,#241,#242,#243));
#70=EDGE_LOOP('',(#244,#245,#246,#247));
#71=EDGE_LOOP('',(#248,#249,#250,#251));
#72=EDGE_LOOP('',(#252,#253,#254,#255));
#73=LINE('',#385,#102);
#74=LINE('',#391,#103);
#75=LINE('',#393,#104);
#76=LINE('',#395,#105);
#77=LINE('',#396,#106);
#78=LINE('',#402,#107);
#79=LINE('',#405,#108);
#80=LINE('',#407,#109);
#81=LINE('',#408,#110);
#82=LINE('',#411,#111);
#83=LINE('',#413,#112);
#84=LINE('',#414,#113);
#85=LINE('',#417,#114);
#86=LINE('',#419,#115);
#87=LINE('',#420,#116);
#88=LINE('',#422,#117);
#89=LINE('',#423,#118);
#90=LINE('',#429,#119);
#91=LINE('',#431,#120);
#92=LINE('',#433,#121);
#93=LINE('',#434,#122);
#94=LINE('',#437,#123);
#95=LINE('',#439,#124);
#96=LINE('',#440,#125);
#97=LINE('',#443,#126);
#98=LINE('',#445,#127);
#99=LINE('',#446,#128);
#100=LINE('',#448,#129);
#101=LINE('',#449,#130);
#102=VECTOR('',#315,16.2);
#103=VECTOR('',#322,10.);
#104=VECTOR('',#323,10.);
#105=VECTOR('',#324,10.);
#106=VECTOR('',#325,10.);
#107=VECTOR('',#332,10.);
#108=VECTOR('',#335,10.);
#109=VECTOR('',#336,10.);
#110=VECTOR('',#337,10.);
#111=VECTOR('',#340,10.);
#112=VECTOR('',#341,10.);
#113=VECTOR('',#342,10.);
#114=VECTOR('',#345,10.);
#115=VECTOR('',#346,10.);
#116=VECTOR('',#347,10.);
#117=VECTOR('',#350,10.);
#118=VECTOR('',#351,10.);
#119=VECTOR('',#358,10.);
#120=VECTOR('',#359,10.);
#121=VECTOR('',#360,10.);
#122=VECTOR('',#361,10.);
#123=VECTOR('',#364,10.);
#124=VECTOR('',#365,10.);
#125=VECTOR('',#366,10.);
#126=VECTOR('',#369,10.);
#127=VECTOR('',#370,10.);
#128=VECTOR('',#371,10.);
#129=VECTOR('',#374,10.);
#130=VECTOR('',#375,10.);
#131=CIRCLE('',#290,16.2);
#132=CIRCLE('',#291,16.2);
#133=CIRCLE('',#295,17.8);
#134=CIRCLE('',#296,17.8);
#135=VERTEX_POINT('',#382);
#136=VERTEX_POINT('',#384);
#137=VERTEX_POINT('',#389);
#138=VERTEX_POINT('',#390);
#139=VERTEX_POINT('',#392);
#140=VERTEX_POINT('',#394);
#141=VERTEX_POINT('',#398);
#142=VERTEX_POINT('',#400);
#143=VERTEX_POINT('',#404);
#144=VERTEX_POINT('',#406);
#145=VERTEX_POINT('',#410);
#146=VERTEX_POINT('',#412);
#147=VERTEX_POINT('',#416);
#148=VERTEX_POINT('',#418);
#149=VERTEX_POINT('',#427);
#150=VERTEX_POINT('',#428);
#151=VERTEX_POINT('',#430);
#152=VERTEX_POINT('',#432);
#153=VERTEX_POINT('',#436);
#154=VERTEX_POINT('',#438);
#155=VERTEX_POINT('',#442);
#156=VERTEX_POINT('',#444);
#157=EDGE_CURVE('',#135,#135,#131,.T.);
#158=EDGE_CURVE('',#135,#136,#73,.T.);
#159=EDGE_CURVE('',#136,#136,#132,.T.);
#160=EDGE_CURVE('',#137,#138,#74,.T.);
#161=EDGE_CURVE('',#137,#139,#75,.T.);
#162=EDGE_CURVE('',#140,#139,#76,.T.);
#163=EDGE_CURVE('',#138,#140,#77,.T.);
#164=EDGE_CURVE('',#141,#138,#133,.T.);
#165=EDGE_CURVE('',#142,#140,#134,.T.);
#166=EDGE_CURVE('',#141,#142,#78,.T.);
#167=EDGE_CURVE('',#143,#141,#79,.T.);
#168=EDGE_CURVE('',#144,#142,#80,.T.);
#169=EDGE_CURVE('',#143,#144,#81,.T.);
#170=EDGE_CURVE('',#145,#143,#82,.T.);
#171=EDGE_CURVE('',#146,#144,#83,.T.);
#172=EDGE_CURVE('',#145,#146,#84,.T.);
#173=EDGE_CURVE('',#147,#145,#85,.T.);
#174=EDGE_CURVE('',#148,#146,#86,.T.);
#175=EDGE_CURVE('',#147,#148,#87,.T.);
#176=EDGE_CURVE('',#137,#147,#88,.T.);
#177=EDGE_CURVE('',#139,#148,#89,.T.);
#178=EDGE_CURVE('',#149,#150,#90,.T.);
#179=EDGE_CURVE('',#149,#151,#91,.T.);
#180=EDGE_CURVE('',#152,#151,#92,.T.);
#181=EDGE_CURVE('',#150,#152,#93,.T.);
#182=EDGE_CURVE('',#150,#153,#94,.T.);
#183=EDGE_CURVE('',#154,#152,#95,.T.);
#184=EDGE_CURVE('',#153,#154,#96,.T.);
#185=EDGE_CURVE('',#153,#155,#97,.T.);
#186=EDGE_CURVE('',#156,#154,#98,.T.);
#187=EDGE_CURVE('',#155,#156,#99,.T.);
#188=EDGE_CURVE('',#155,#149,#100,.T.);
#189=EDGE_CURVE('',#151,#156,#101,.T.);
#190=ORIENTED_EDGE('',*,*,#157,.F.);
#191=ORIENTED_EDGE('',*,*,#158,.T.);
#192=ORIENTED_EDGE('',*,*,#159,.F.);
#193=ORIENTED_EDGE('',*,*,#158,.F.);
#194=ORIENTED_EDGE('',*,*,#157,.T.);
#195=ORIENTED_EDGE('',*,*,#160,.F.);
#196=ORIENTED_EDGE('',*,*,#161,.T.);
#197=ORIENTED_EDGE('',*,*,#162,.F.);
#198=ORIENTED_EDGE('',*,*,#163,.F.);
#199=ORIENTED_EDGE('',*,*,#164,.T.);
#200=ORIENTED_EDGE('',*,*,#163,.T.);
#201=ORIENTED_EDGE('',*,*,#165,.F.);
#202=ORIENTED_EDGE('',*,*,#166,.F.);
#203=ORIENTED_EDGE('',*,*,#167,.T.);
#204=ORIENTED_EDGE('',*,*,#166,.T.);
#205=ORIENTED_EDGE('',*,*,#168,.F.);
#206=ORIENTED_EDGE('',*,*,#169,.F.);
#207=ORIENTED_EDGE('',*,*,#170,.T.);
#208=ORIENTED_EDGE('',*,*,#169,.T.);
#209=ORIENTED_EDGE('',*,*,#171,.F.);
#210=ORIENTED_EDGE('',*,*,#172,.F.);
#211=ORIENTED_EDGE('',*,*,#173,.T.);
#212=ORIENTED_EDGE('',*,*,#172,.T.);
#213=ORIENTED_EDGE('',*,*,#174,.F.);
#214=ORIENTED_EDGE('',*,*,#175,.F.);
#215=ORIENTED_EDGE('',*,*,#176,.T.);
#216=ORIENTED_EDGE('',*,*,#175,.T.);
#217=ORIENTED_EDGE('',*,*,#177,.F.);
#218=ORIENTED_EDGE('',*,*,#161,.F.);
#219=ORIENTED_EDGE('',*,*,#177,.T.);
#220=ORIENTED_EDGE('',*,*,#174,.T.);
#221=ORIENTED_EDGE('',*,*,#171,.T.);
#222=ORIENTED_EDGE('',*,*,#168,.T.);
#223=ORIENTED_EDGE('',*,*,#165,.T.);
#224=ORIENTED_EDGE('',*,*,#162,.T.);
#225=ORIENTED_EDGE('',*,*,#159,.T.);
#226=ORIENTED_EDGE('',*,*,#176,.F.);
#227=ORIENTED_EDGE('',*,*,#160,.T.);
#228=ORIENTED_EDGE('',*,*,#164,.F.);
#229=ORIENTED_EDGE('',*,*,#167,.F.);
#230=ORIENTED_EDGE('',*,*,#170,.F.);
#231=ORIENTED_EDGE('',*,*,#173,.F.);
#232=ORIENTED_EDGE('',*,*,#178,.F.);
#233=ORIENTED_EDGE('',*,*,#179,.T.);
#234=ORIENTED_EDGE('',*,*,#180,.F.);
#235=ORIENTED_EDGE('',*,*,#181,.F.);
#236=ORIENTED_EDGE('',*,*,#182,.F.);
#237=ORIENTED_EDGE('',*,*,#181,.T.);
#238=ORIENTED_EDGE('',*,*,#183,.F.);
#239=ORIENTED_EDGE('',*,*,#184,.F.);
#240=ORIENTED_EDGE('',*,*,#185,.F.);
#241=ORIENTED_EDGE('',*,*,#184,.T.);
#242=ORIENTED_EDGE('',*,*,#186,.F.);
#243=ORIENTED_EDGE('',*,*,#187,.F.);
#244=ORIENTED_EDGE('',*,*,#188,.F.);
#245=ORIENTED_EDGE('',*,*,#187,.T.);
#246=ORIENTED_EDGE('',*,*,#189,.F.);
#247=ORIENTED_EDGE('',*,*,#179,.F.);
#248=ORIENTED_EDGE('',*,*,#188,.T.);
#249=ORIENTED_EDGE('',*,*,#178,.T.);
#250=ORIENTED_EDGE('',*,*,#182,.T.);
#251=ORIENTED_EDGE('',*,*,#185,.T.);
#252=ORIENTED_EDGE('',*,*,#189,.T.);
#253=ORIENTED_EDGE('',*,*,#186,.T.);
#254=ORIENTED_EDGE('',*,*,#183,.T.);
#255=ORIENTED_EDGE('',*,*,#180,.T.);
#256=CYLINDRICAL_SURFACE('',#289,16.2);
#257=CYLINDRICAL_SURFACE('',#294,17.8);
#258=ADVANCED_FACE('',(#40),#256,.T.);
#259=ADVANCED_FACE('',(#41),#26,.T.);
#260=ADVANCED_FACE('',(#42),#27,.T.);
#261=ADVANCED_FACE('',(#43),#257,.T.);
#262=ADVANCED_FACE('',(#44),#28,.T.);
#263=ADVANCED_FACE('',(#45),#29,.T.);
#264=ADVANCED_FACE('',(#46),#30,.T.);
#265=ADVANCED_FACE('',(#47),#31,.T.);
#266=ADVANCED_FACE('',(#48,#15),#32,.T.);
#267=ADVANCED_FACE('',(#49),#33,.F.);
#268=ADVANCED_FACE('',(#50),#34,.T.);
#269=ADVANCED_FACE('',(#51),#35,.T.);
#270=ADVANCED_FACE('',(#52),#36,.T.);
#271=ADVANCED_FACE('',(#53),#37,.T.);
#272=ADVANCED_FACE('',(#54),#38,.T.);
#273=ADVANCED_FACE('',(#55),#39,.T.);
#274=CLOSED_SHELL('',(#258,#259,#260,#261,#262,#263,#264,#265,#266,#267));
#275=CLOSED_SHELL('',(#268,#269,#270,#271,#272,#273));
#276=DERIVED_UNIT_ELEMENT(#278,1.);
#277=DERIVED_UNIT_ELEMENT(#457,-3.);
#278=(
MASS_UNIT()
NAMED_UNIT(*)
SI_UNIT(.KILO.,.GRAM.)
);
#279=DERIVED_UNIT((#276,#277));
#280=MEASURE_REPRESENTATION_ITEM('density measure',
POSITIVE_RATIO_MEASURE(7850.),#279);
#281=PROPERTY_DEFINITION_REPRESENTATION(#286,#283);
#282=PROPERTY_DEFINITION_REPRESENTATION(#287,#284);
#283=REPRESENTATION('material name',(#285),#454);
#284=REPRESENTATION('density',(#280),#454);
#285=DESCRIPTIVE_REPRESENTATION_ITEM('Steel','Steel');
#286=PROPERTY_DEFINITION('material property','material name',#464);
#287=PROPERTY_DEFINITION('material property','density of part',#464);
#288=AXIS2_PLACEMENT_3D('placement',#380,#309,#310);
#289=AXIS2_PLACEMENT_3D('',#381,#311,#312);
#290=AXIS2_PLACEMENT_3D('',#383,#313,#314);
#291=AXIS2_PLACEMENT_3D('',#386,#316,#317);
#292=AXIS2_PLACEMENT_3D('',#387,#318,#319);
#293=AXIS2_PLACEMENT_3D('',#388,#320,#321);
#294=AXIS2_PLACEMENT_3D('',#397,#326,#327);
#295=AXIS2_PLACEMENT_3D('',#399,#328,#329);
#296=AXIS2_PLACEMENT_3D('',#401,#330,#331);
#297=AXIS2_PLACEMENT_3D('',#403,#333,#334);
#298=AXIS2_PLACEMENT_3D('',#409,#338,#339);
#299=AXIS2_PLACEMENT_3D('',#415,#343,#344);
#300=AXIS2_PLACEMENT_3D('',#421,#348,#349);
#301=AXIS2_PLACEMENT_3D('',#424,#352,#353);
#302=AXIS2_PLACEMENT_3D('',#425,#354,#355);
#303=AXIS2_PLACEMENT_3D('',#426,#356,#357);
#304=AXIS2_PLACEMENT_3D('',#435,#362,#363);
#305=AXIS2_PLACEMENT_3D('',#441,#367,#368);
#306=AXIS2_PLACEMENT_3D('',#447,#372,#373);
#307=AXIS2_PLACEMENT_3D('',#450,#376,#377);
#308=AXIS2_PLACEMENT_3D('',#451,#378,#379);
#309=DIRECTION('axis',(0.,0.,1.));
#310=DIRECTION('refdir',(1.,0.,0.));
#311=DIRECTION('center_axis',(0.,0.,1.));
#312=DIRECTION('ref_axis',(1.,0.,0.));
#313=DIRECTION('center_axis',(0.,0.,1.));
#314=DIRECTION('ref_axis',(1.,0.,0.));
#315=DIRECTION('',(0.,0.,-1.));
#316=DIRECTION('center_axis',(0.,0.,-1.));
#317=DIRECTION('ref_axis',(1.,0.,0.));
#318=DIRECTION('center_axis',(0.,0.,1.));
#319=DIRECTION('ref_axis',(1.,0.,0.));
#320=DIRECTION('center_axis',(-0.9260072092028,-0.377505825788743,0.));
#321=DIRECTION('ref_axis',(0.377505825788743,-0.926007209202801,0.));
#322=DIRECTION('',(-0.377505825788743,0.926007209202801,0.));
#323=DIRECTION('',(0.,0.,1.));
#324=DIRECTION('',(0.377505825788743,-0.926007209202801,0.));
#325=DIRECTION('',(0.,0.,1.));
#326=DIRECTION('center_axis',(0.,0.,1.));
#327=DIRECTION('ref_axis',(6.12323399573677E-17,1.,0.));
#328=DIRECTION('center_axis',(0.,0.,1.));
#329=DIRECTION('ref_axis',(1.,0.,0.));
#330=DIRECTION('center_axis',(0.,0.,1.));
#331=DIRECTION('ref_axis',(1.,0.,0.));
#332=DIRECTION('',(0.,0.,1.));
#333=DIRECTION('center_axis',(0.9260072092028,-0.377505825788743,0.));
#334=DIRECTION('ref_axis',(0.377505825788743,0.9260072092028,0.));
#335=DIRECTION('',(0.377505825788743,0.9260072092028,0.));
#336=DIRECTION('',(0.377505825788743,0.9260072092028,0.));
#337=DIRECTION('',(0.,0.,1.));
#338=DIRECTION('center_axis',(1.,0.,0.));
#339=DIRECTION('ref_axis',(0.,1.,0.));
#340=DIRECTION('',(0.,1.,0.));
#341=DIRECTION('',(0.,1.,0.));
#342=DIRECTION('',(0.,0.,1.));
#343=DIRECTION('center_axis',(0.,-1.,0.));
#344=DIRECTION('ref_axis',(1.,0.,0.));
#345=DIRECTION('',(1.,0.,0.));
#346=DIRECTION('',(1.,0.,0.));
#347=DIRECTION('',(0.,0.,1.));
#348=DIRECTION('center_axis',(-1.,0.,0.));
#349=DIRECTION('ref_axis',(0.,-1.,0.));
#350=DIRECTION('',(0.,-1.,0.));
#351=DIRECTION('',(0.,-1.,0.));
#352=DIRECTION('center_axis',(0.,0.,1.));
#353=DIRECTION('ref_axis',(1.,0.,0.));
#354=DIRECTION('center_axis',(0.,0.,1.));
#355=DIRECTION('ref_axis',(1.,0.,0.));
#356=DIRECTION('center_axis',(0.,-1.,0.));
#357=DIRECTION('ref_axis',(-1.,0.,0.));
#358=DIRECTION('',(1.,0.,0.));
#359=DIRECTION('',(0.,0.,-1.));
#360=DIRECTION('',(-1.,0.,0.));
#361=DIRECTION('',(0.,0.,-1.));
#362=DIRECTION('center_axis',(1.,0.,0.));
#363=DIRECTION('ref_axis',(0.,-1.,0.));
#364=DIRECTION('',(0.,1.,0.));
#365=DIRECTION('',(0.,-1.,0.));
#366=DIRECTION('',(0.,0.,-1.));
#367=DIRECTION('center_axis',(0.,1.,0.));
#368=DIRECTION('ref_axis',(1.,0.,0.));
#369=DIRECTION('',(-1.,0.,0.));
#370=DIRECTION('',(1.,0.,0.));
#371=DIRECTION('',(0.,0.,-1.));
#372=DIRECTION('center_axis',(-1.,0.,0.));
#373=DIRECTION('ref_axis',(0.,1.,0.));
#374=DIRECTION('',(0.,-1.,0.));
#375=DIRECTION('',(0.,1.,0.));
#376=DIRECTION('center_axis',(0.,0.,1.));
#377=DIRECTION('ref_axis',(1.,0.,0.));
#378=DIRECTION('center_axis',(0.,0.,-1.));
#379=DIRECTION('ref_axis',(-1.,0.,0.));
#380=CARTESIAN_POINT('',(0.,0.,0.));
#381=CARTESIAN_POINT('Origin',(0.,0.,1.5));
#382=CARTESIAN_POINT('',(-16.2,1.98392781461871E-15,1.6));
#383=CARTESIAN_POINT('Origin',(0.,0.,1.6));
#384=CARTESIAN_POINT('',(-16.2,1.98392781461871E-15,1.5));
#385=CARTESIAN_POINT('',(-16.2,-1.98392781461871E-15,1.5));
#386=CARTESIAN_POINT('Origin',(0.,0.,1.5));
#387=CARTESIAN_POINT('Origin',(0.,0.,1.6));
#388=CARTESIAN_POINT('Origin',(-8.5,-15.6393733889821,0.));
#389=CARTESIAN_POINT('',(-6.6,-20.3,0.));
#390=CARTESIAN_POINT('',(-8.5,-15.6393733889821,0.));
#391=CARTESIAN_POINT('',(-6.6,-20.3,0.));
#392=CARTESIAN_POINT('',(-6.6,-20.3,1.5));
#393=CARTESIAN_POINT('',(-6.6,-20.3,0.));
#394=CARTESIAN_POINT('',(-8.5,-15.6393733889821,1.5));
#395=CARTESIAN_POINT('',(-6.6,-20.3,1.5));
#396=CARTESIAN_POINT('',(-8.5,-15.6393733889821,0.));
#397=CARTESIAN_POINT('Origin',(0.,0.,0.));
#398=CARTESIAN_POINT('',(8.5,-15.6393733889821,0.));
#399=CARTESIAN_POINT('Origin',(0.,0.,0.));
#400=CARTESIAN_POINT('',(8.5,-15.6393733889821,1.5));
#401=CARTESIAN_POINT('Origin',(0.,0.,1.5));
#402=CARTESIAN_POINT('',(8.5,-15.6393733889821,0.));
#403=CARTESIAN_POINT('Origin',(6.6,-20.3,0.));
#404=CARTESIAN_POINT('',(6.6,-20.3,0.));
#405=CARTESIAN_POINT('',(6.6,-20.3,0.));
#406=CARTESIAN_POINT('',(6.6,-20.3,1.5));
#407=CARTESIAN_POINT('',(6.6,-20.3,1.5));
#408=CARTESIAN_POINT('',(6.6,-20.3,0.));
#409=CARTESIAN_POINT('Origin',(6.6,-20.8,0.));
#410=CARTESIAN_POINT('',(6.6,-20.8,0.));
#411=CARTESIAN_POINT('',(6.6,-20.8,0.));
#412=CARTESIAN_POINT('',(6.6,-20.8,1.5));
#413=CARTESIAN_POINT('',(6.6,-20.8,1.5));
#414=CARTESIAN_POINT('',(6.6,-20.8,0.));
#415=CARTESIAN_POINT('Origin',(-6.6,-20.8,0.));
#416=CARTESIAN_POINT('',(-6.6,-20.8,0.));
#417=CARTESIAN_POINT('',(-6.6,-20.8,0.));
#418=CARTESIAN_POINT('',(-6.6,-20.8,1.5));
#419=CARTESIAN_POINT('',(-6.6,-20.8,1.5));
#420=CARTESIAN_POINT('',(-6.6,-20.8,0.));
#421=CARTESIAN_POINT('Origin',(-6.6,-20.3,0.));
#422=CARTESIAN_POINT('',(-6.6,-20.3,0.));
#423=CARTESIAN_POINT('',(-6.6,-20.3,1.5));
#424=CARTESIAN_POINT('Origin',(0.,-1.5,1.5));
#425=CARTESIAN_POINT('Origin',(0.,-1.5,0.));
#426=CARTESIAN_POINT('Origin',(5.7,-20.8,0.));
#427=CARTESIAN_POINT('',(-5.7,-20.8,0.));
#428=CARTESIAN_POINT('',(5.7,-20.8,0.));
#429=CARTESIAN_POINT('',(-5.7,-20.8,0.));
#430=CARTESIAN_POINT('',(-5.7,-20.8,-0.13));
#431=CARTESIAN_POINT('',(-5.7,-20.8,0.));
#432=CARTESIAN_POINT('',(5.7,-20.8,-0.13));
#433=CARTESIAN_POINT('',(-5.7,-20.8,-0.13));
#434=CARTESIAN_POINT('',(5.7,-20.8,0.));
#435=CARTESIAN_POINT('Origin',(5.7,-10.06,0.));
#436=CARTESIAN_POINT('',(5.7,-10.06,0.));
#437=CARTESIAN_POINT('',(5.7,-20.8,0.));
#438=CARTESIAN_POINT('',(5.7,-10.06,-0.13));
#439=CARTESIAN_POINT('',(5.7,-20.8,-0.13));
#440=CARTESIAN_POINT('',(5.7,-10.06,0.));
#441=CARTESIAN_POINT('Origin',(-5.7,-10.06,0.));
#442=CARTESIAN_POINT('',(-5.7,-10.06,0.));
#443=CARTESIAN_POINT('',(5.7,-10.06,0.));
#444=CARTESIAN_POINT('',(-5.7,-10.06,-0.13));
#445=CARTESIAN_POINT('',(5.7,-10.06,-0.13));
#446=CARTESIAN_POINT('',(-5.7,-10.06,0.));
#447=CARTESIAN_POINT('Origin',(-5.7,-20.8,0.));
#448=CARTESIAN_POINT('',(-5.7,-10.06,0.));
#449=CARTESIAN_POINT('',(-5.7,-10.06,-0.13));
#450=CARTESIAN_POINT('Origin',(0.,-15.43,0.));
#451=CARTESIAN_POINT('Origin',(0.,-15.43,-0.13));
#452=UNCERTAINTY_MEASURE_WITH_UNIT(LENGTH_MEASURE(0.01),#456,
'DISTANCE_ACCURACY_VALUE',
'Maximum model space distance between geometric entities at asserted c
onnectivities');
#453=UNCERTAINTY_MEASURE_WITH_UNIT(LENGTH_MEASURE(0.01),#456,
'DISTANCE_ACCURACY_VALUE',
'Maximum model space distance between geometric entities at asserted c
onnectivities');
#454=(
GEOMETRIC_REPRESENTATION_CONTEXT(3)
GLOBAL_UNCERTAINTY_ASSIGNED_CONTEXT((#452))
GLOBAL_UNIT_ASSIGNED_CONTEXT((#456,#458,#459))
REPRESENTATION_CONTEXT('','3D')
);
#455=(
GEOMETRIC_REPRESENTATION_CONTEXT(3)
GLOBAL_UNCERTAINTY_ASSIGNED_CONTEXT((#453))
GLOBAL_UNIT_ASSIGNED_CONTEXT((#456,#458,#459))
REPRESENTATION_CONTEXT('','3D')
);
#456=(
LENGTH_UNIT()
NAMED_UNIT(*)
SI_UNIT(.MILLI.,.METRE.)
);
#457=(
LENGTH_UNIT()
NAMED_UNIT(*)
SI_UNIT($,.METRE.)
);
#458=(
NAMED_UNIT(*)
PLANE_ANGLE_UNIT()
SI_UNIT($,.RADIAN.)
);
#459=(
NAMED_UNIT(*)
SI_UNIT($,.STERADIAN.)
SOLID_ANGLE_UNIT()
);
#460=SHAPE_DEFINITION_REPRESENTATION(#461,#462);
#461=PRODUCT_DEFINITION_SHAPE('',$,#464);
#462=SHAPE_REPRESENTATION('',(#288),#454);
#463=PRODUCT_DEFINITION_CONTEXT('part definition',#468,'design');
#464=PRODUCT_DEFINITION('TFT-Round-1.28','TFT-Round-1.28 v5',#465,#463);
#465=PRODUCT_DEFINITION_FORMATION('',$,#470);
#466=PRODUCT_RELATED_PRODUCT_CATEGORY('TFT-Round-1.28 v5',
'TFT-Round-1.28 v5',(#470));
#467=APPLICATION_PROTOCOL_DEFINITION('international standard',
'automotive_design',2009,#468);
#468=APPLICATION_CONTEXT(
'Core Data for Automotive Mechanical Design Process');
#469=PRODUCT_CONTEXT('part definition',#468,'mechanical');
#470=PRODUCT('TFT-Round-1.28','TFT-Round-1.28 v5',$,(#469));
#471=PRESENTATION_STYLE_ASSIGNMENT((#475));
#472=PRESENTATION_STYLE_ASSIGNMENT((#476));
#473=PRESENTATION_STYLE_ASSIGNMENT((#477));
#474=PRESENTATION_STYLE_ASSIGNMENT((#478));
#475=SURFACE_STYLE_USAGE(.BOTH.,#479);
#476=SURFACE_STYLE_USAGE(.BOTH.,#480);
#477=SURFACE_STYLE_USAGE(.BOTH.,#481);
#478=SURFACE_STYLE_USAGE(.BOTH.,#482);
#479=SURFACE_SIDE_STYLE('',(#483));
#480=SURFACE_SIDE_STYLE('',(#484));
#481=SURFACE_SIDE_STYLE('',(#485));
#482=SURFACE_SIDE_STYLE('',(#486));
#483=SURFACE_STYLE_FILL_AREA(#487);
#484=SURFACE_STYLE_FILL_AREA(#488);
#485=SURFACE_STYLE_FILL_AREA(#489);
#486=SURFACE_STYLE_FILL_AREA(#490);
#487=FILL_AREA_STYLE('Steel - Satin',(#491));
#488=FILL_AREA_STYLE('Aluminum - Satin',(#492));
#489=FILL_AREA_STYLE('Glass - Heavy Color',(#493));
#490=FILL_AREA_STYLE('Polymide (Kapton)',(#494));
#491=FILL_AREA_STYLE_COLOUR('Steel - Satin',#495);
#492=FILL_AREA_STYLE_COLOUR('Aluminum - Satin',#496);
#493=FILL_AREA_STYLE_COLOUR('Glass - Heavy Color',#497);
#494=FILL_AREA_STYLE_COLOUR('Polymide (Kapton)',#498);
#495=COLOUR_RGB('Steel - Satin',0.627450980392157,0.627450980392157,0.627450980392157);
#496=COLOUR_RGB('Aluminum - Satin',0.96078431372549,0.96078431372549,0.964705882352941);
#497=COLOUR_RGB('Glass - Heavy Color',0.0980392156862745,0.0980392156862745,
0.0980392156862745);
#498=COLOUR_RGB('Polymide (Kapton)',0.784313725490196,0.556862745098039,
0.0274509803921569);
ENDSEC;
END-ISO-10303-21;
