ISO-10303-21;
HEADER;
FILE_DESCRIPTION (( 'STEP AP203' ),
    '1' );
FILE_NAME ('15.) Motor Restraint no Battery Holder.STEP',
    '2023-08-09T18:59:48',
    ( '' ),
    ( '' ),
    'SwSTEP 2.0',
    'SolidWorks 2023',
    '' );
FILE_SCHEMA (( 'CONFIG_CONTROL_DESIGN' ));
ENDSEC;

DATA;
#1 = FACE_OUTER_BOUND ( 'NONE', #383, .T. ) ;
#2 = CIRCLE ( 'NONE', #324, 1.500000000000000000 ) ;
#3 = ORIENTED_EDGE ( 'NONE', *, *, #313, .T. ) ;
#4 = EDGE_CURVE ( 'NONE', #5, #83, #221, .T. ) ;
#5 = VERTEX_POINT ( 'NONE', #372 ) ;
#6 = ORIENTED_EDGE ( 'NONE', *, *, #360, .T. ) ;
#7 = FACE_BOUND ( 'NONE', #115, .T. ) ;
#8 = CIRCLE ( 'NONE', #129, 1.500000000000000000 ) ;
#9 = EDGE_CURVE ( 'NONE', #83, #334, #42, .T. ) ;
#10 = DIRECTION ( 'NONE',  ( -0.000000000000000000, -0.000000000000000000, -1.000000000000000000 ) ) ;
#11 = CARTESIAN_POINT ( 'NONE',  ( 2.999999999999997335, 12.14999999999999858, 2.000000000000000000 ) ) ;
#12 = DIRECTION ( 'NONE',  ( 0.000000000000000000, -0.000000000000000000, 1.000000000000000000 ) ) ;
#13 = CARTESIAN_POINT ( 'NONE',  ( 0.000000000000000000, 0.000000000000000000, 0.000000000000000000 ) ) ;
#14 = ADVANCED_BREP_SHAPE_REPRESENTATION ( '15.) Motor Restraint no Battery Holder', ( #205, #81 ), #382 ) ;
#15 = EDGE_CURVE ( 'NONE', #5, #90, #276, .T. ) ;
#16 = CIRCLE ( 'NONE', #155, 1.500000000000000000 ) ;
#17 = FACE_BOUND ( 'NONE', #292, .T. ) ;
#18 = APPROVAL_ROLE ( '' ) ;
#19 = PLANE ( 'NONE',  #260 ) ;
#20 = PERSON_AND_ORGANIZATION ( #380, #310 ) ;
#21 = DIRECTION ( 'NONE',  ( 0.000000000000000000, -0.000000000000000000, 1.000000000000000000 ) ) ;
#22 = PERSON_AND_ORGANIZATION ( #380, #310 ) ;
#23 = CYLINDRICAL_SURFACE ( 'NONE', #117, 1.500000000000000000 ) ;
#24 = PERSON_AND_ORGANIZATION ( #380, #310 ) ;
#25 = DIRECTION ( 'NONE',  ( 1.000000000000000000, 0.000000000000000000, 0.000000000000000000 ) ) ;
#26 = APPROVAL_STATUS ( 'not_yet_approved' ) ;
#27 = VERTEX_POINT ( 'NONE', #367 ) ;
#28 = ORIENTED_EDGE ( 'NONE', *, *, #4, .F. ) ;
#29 = DIRECTION ( 'NONE',  ( -0.000000000000000000, 0.000000000000000000, 1.000000000000000000 ) ) ;
#30 = VERTEX_POINT ( 'NONE', #370 ) ;
#31 = DIRECTION ( 'NONE',  ( 1.427755947306013918E-16, -1.000000000000000000, 0.000000000000000000 ) ) ;
#32 = ORIENTED_EDGE ( 'NONE', *, *, #124, .F. ) ;
#33 = VERTEX_POINT ( 'NONE', #305 ) ;
#34 = PLANE ( 'NONE',  #202 ) ;
#35 = ADVANCED_FACE ( 'NONE', ( #67 ), #123, .F. ) ;
#36 = ORIENTED_EDGE ( 'NONE', *, *, #4, .T. ) ;
#37 = CIRCLE ( 'NONE', #268, 1.500000000000000000 ) ;
#38 = EDGE_LOOP ( 'NONE', ( #63, #241, #118, #32 ) ) ;
#39 = CALENDAR_DATE ( 2023, 9, 8 ) ;
#40 = EDGE_CURVE ( 'NONE', #83, #33, #131, .T. ) ;
#41 = DIRECTION ( 'NONE',  ( 1.427755947306013918E-16, -1.000000000000000000, 0.000000000000000000 ) ) ;
#42 = LINE ( 'NONE', #302, #74 ) ;
#43 = VECTOR ( 'NONE', #196, 1000.000000000000000 ) ;
#44 = CC_DESIGN_APPROVAL ( #82, ( #186 ) ) ;
#45 = CARTESIAN_POINT ( 'NONE',  ( 1.500000000000000000, -9.150000000000002132, 0.000000000000000000 ) ) ;
#46 = LINE ( 'NONE', #98, #85 ) ;
#47 = CARTESIAN_POINT ( 'NONE',  ( 3.673940397442057896E-16, 9.149999999999998579, 2.000000000000000000 ) ) ;
#48 = DATE_AND_TIME ( #345, #137 ) ;
#49 = CARTESIAN_POINT ( 'NONE',  ( 3.673940397442057896E-16, 9.149999999999998579, 0.000000000000000000 ) ) ;
#50 = AXIS2_PLACEMENT_3D ( 'NONE', #379, #293, #229 ) ;
#51 = FACE_OUTER_BOUND ( 'NONE', #177, .T. ) ;
#52 = EDGE_CURVE ( 'NONE', #332, #325, #184, .T. ) ;
#53 = ORIENTED_EDGE ( 'NONE', *, *, #40, .T. ) ;
#54 = VECTOR ( 'NONE', #10, 1000.000000000000000 ) ;
#55 = PRODUCT_DEFINITION_FORMATION_WITH_SPECIFIED_SOURCE ( 'ANY', '', #217, .NOT_KNOWN. ) ;
#56 = ORIENTED_EDGE ( 'NONE', *, *, #185, .T. ) ;
#57 = FACE_OUTER_BOUND ( 'NONE', #335, .T. ) ;
#58 = ORIENTED_EDGE ( 'NONE', *, *, #304, .T. ) ;
#59 = CARTESIAN_POINT ( 'NONE',  ( -3.000000000000000888, -4.283267841918042988E-16, 2.000000000000000000 ) ) ;
#60 = ORIENTED_EDGE ( 'NONE', *, *, #190, .F. ) ;
#61 = AXIS2_PLACEMENT_3D ( 'NONE', #255, #369, #12 ) ;
#62 = ORIENTED_EDGE ( 'NONE', *, *, #206, .T. ) ;
#63 = ORIENTED_EDGE ( 'NONE', *, *, #40, .F. ) ;
#64 = EDGE_CURVE ( 'NONE', #90, #334, #95, .T. ) ;
#65 = CARTESIAN_POINT ( 'NONE',  ( 0.000000000000000000, 12.14999999999999858, 2.000000000000000000 ) ) ;
#66 = UNCERTAINTY_MEASURE_WITH_UNIT (LENGTH_MEASURE( 1.000000000000000082E-05 ), #308, 'distance_accuracy_value', 'NONE');
#67 = FACE_OUTER_BOUND ( 'NONE', #93, .T. ) ;
#68 = AXIS2_PLACEMENT_3D ( 'NONE', #47, #143, #287 ) ;
#69 = PERSON_AND_ORGANIZATION ( #380, #310 ) ;
#70 = ORIENTED_EDGE ( 'NONE', *, *, #347, .F. ) ;
#71 = PRODUCT_DEFINITION_SHAPE ( 'NONE', 'NONE',  #219 ) ;
#72 = CARTESIAN_POINT ( 'NONE',  ( -3.000000000000000888, -4.283267841918042988E-16, 2.000000000000000000 ) ) ;
#73 = DIRECTION ( 'NONE',  ( -0.000000000000000000, -0.000000000000000000, -1.000000000000000000 ) ) ;
#74 = VECTOR ( 'NONE', #189, 1000.000000000000000 ) ;
#75 = LINE ( 'NONE', #134, #149 ) ;
#76 = CARTESIAN_POINT ( 'NONE',  ( -1.499999999999999556, 9.149999999999998579, 2.000000000000000000 ) ) ;
#77 = ADVANCED_FACE ( 'NONE', ( #17, #274, #97 ), #34, .T. ) ;
#78 = CARTESIAN_POINT ( 'NONE',  ( 3.673940397442057896E-16, 9.149999999999998579, 2.000000000000000000 ) ) ;
#79 = DIRECTION ( 'NONE',  ( -0.000000000000000000, -0.000000000000000000, -1.000000000000000000 ) ) ;
#80 = DIRECTION ( 'NONE',  ( -0.000000000000000000, -0.000000000000000000, -1.000000000000000000 ) ) ;
#81 = AXIS2_PLACEMENT_3D ( 'NONE', #159, #284, #277 ) ;
#82 = APPROVAL ( #26, 'UNSPECIFIED' ) ;
#83 = VERTEX_POINT ( 'NONE', #272 ) ;
#84 = LINE ( 'NONE', #135, #249 ) ;
#85 = VECTOR ( 'NONE', #250, 1000.000000000000000 ) ;
#86 = CALENDAR_DATE ( 2023, 9, 8 ) ;
#87 = ORIENTED_EDGE ( 'NONE', *, *, #378, .F. ) ;
#88 = CARTESIAN_POINT ( 'NONE',  ( 0.000000000000000000, -9.150000000000002132, 2.000000000000000000 ) ) ;
#89 = ORIENTED_EDGE ( 'NONE', *, *, #288, .T. ) ;
#90 = VERTEX_POINT ( 'NONE', #11 ) ;
#91 = PRODUCT_RELATED_PRODUCT_CATEGORY ( 'detail', '', ( #217 ) ) ;
#92 = AXIS2_PLACEMENT_3D ( 'NONE', #78, #220, #165 ) ;
#93 = EDGE_LOOP ( 'NONE', ( #53, #174, #209, #36 ) ) ;
#94 = EDGE_LOOP ( 'NONE', ( #180, #339, #150, #309 ) ) ;
#95 = LINE ( 'NONE', #247, #54 ) ;
#96 = DATE_AND_TIME ( #39, #357 ) ;
#97 = FACE_OUTER_BOUND ( 'NONE', #299, .T. ) ;
#98 = CARTESIAN_POINT ( 'NONE',  ( -1.500000000000000000, -9.150000000000002132, 2.000000000000000000 ) ) ;
#99 = DIRECTION ( 'NONE',  ( -0.000000000000000000, 0.000000000000000000, 1.000000000000000000 ) ) ;
#100 = DIRECTION ( 'NONE',  ( -1.427755947306013918E-16, 1.000000000000000000, 0.000000000000000000 ) ) ;
#101 = CALENDAR_DATE ( 2023, 9, 8 ) ;
#102 = EDGE_CURVE ( 'NONE', #356, #332, #16, .T. ) ;
#103 = CARTESIAN_POINT ( 'NONE',  ( -2.999999999999999112, -12.15000000000000213, 2.000000000000000000 ) ) ;
#104 = VECTOR ( 'NONE', #301, 1000.000000000000000 ) ;
#105 = CYLINDRICAL_SURFACE ( 'NONE', #68, 1.500000000000000000 ) ;
#106 = PERSON_AND_ORGANIZATION ( #380, #310 ) ;
#107 = DIRECTION ( 'NONE',  ( -0.000000000000000000, 0.000000000000000000, 1.000000000000000000 ) ) ;
#108 = EDGE_CURVE ( 'NONE', #334, #30, #307, .T. ) ;
#109 = CALENDAR_DATE ( 2023, 9, 8 ) ;
#110 = APPLICATION_CONTEXT ( 'configuration controlled 3d designs of mechanical parts and assemblies' ) ;
#111 = DATE_AND_TIME ( #86, #261 ) ;
#112 = ORIENTED_EDGE ( 'NONE', *, *, #64, .F. ) ;
#113 = LINE ( 'NONE', #198, #43 ) ;
#114 = ADVANCED_FACE ( 'NONE', ( #158, #7, #153 ), #244, .F. ) ;
#115 = EDGE_LOOP ( 'NONE', ( #240, #269 ) ) ;
#116 = PLANE ( 'NONE',  #61 ) ;
#117 = AXIS2_PLACEMENT_3D ( 'NONE', #170, #224, #258 ) ;
#118 = ORIENTED_EDGE ( 'NONE', *, *, #108, .T. ) ;
#119 = ORIENTED_EDGE ( 'NONE', *, *, #256, .F. ) ;
#120 = APPROVAL ( #280, 'UNSPECIFIED' ) ;
#121 = ORIENTED_EDGE ( 'NONE', *, *, #304, .F. ) ;
#122 = VECTOR ( 'NONE', #317, 1000.000000000000000 ) ;
#123 = PLANE ( 'NONE',  #210 ) ;
#124 = EDGE_CURVE ( 'NONE', #33, #30, #251, .T. ) ;
#125 = CARTESIAN_POINT ( 'NONE',  ( -3.000000000000002665, 12.14999999999999858, 2.000000000000000000 ) ) ;
#126 = CARTESIAN_POINT ( 'NONE',  ( 0.000000000000000000, -9.150000000000002132, 2.000000000000000000 ) ) ;
#127 = CARTESIAN_POINT ( 'NONE',  ( -1.500000000000000000, -9.150000000000002132, 2.000000000000000000 ) ) ;
#128 = DIRECTION ( 'NONE',  ( 1.000000000000000000, 0.000000000000000000, 0.000000000000000000 ) ) ;
#129 = AXIS2_PLACEMENT_3D ( 'NONE', #49, #264, #139 ) ;
#130 = MECHANICAL_CONTEXT ( 'NONE', #154, 'mechanical' ) ;
#131 = LINE ( 'NONE', #279, #161 ) ;
#132 = DIRECTION ( 'NONE',  ( -0.000000000000000000, -0.000000000000000000, -1.000000000000000000 ) ) ;
#133 = CARTESIAN_POINT ( 'NONE',  ( -1.500000000000000000, -9.150000000000002132, 0.000000000000000000 ) ) ;
#134 = CARTESIAN_POINT ( 'NONE',  ( 2.999999999999999112, 4.283267841918040522E-16, 2.000000000000000000 ) ) ;
#135 = CARTESIAN_POINT ( 'NONE',  ( -2.999999999999999112, -12.15000000000000213, 2.000000000000000000 ) ) ;
#136 = AXIS2_PLACEMENT_3D ( 'NONE', #342, #73, #312 ) ;
#137 = LOCAL_TIME ( 12, 59, 48.00000000000000000, #226 ) ;
#138 = APPROVAL_STATUS ( 'not_yet_approved' ) ;
#139 = DIRECTION ( 'NONE',  ( 1.000000000000000000, 0.000000000000000000, 0.000000000000000000 ) ) ;
#140 = APPROVAL_ROLE ( '' ) ;
#141 = APPROVAL_PERSON_ORGANIZATION ( #163, #120, #18 ) ;
#142 = ORIENTED_EDGE ( 'NONE', *, *, #371, .F. ) ;
#143 = DIRECTION ( 'NONE',  ( -0.000000000000000000, -0.000000000000000000, -1.000000000000000000 ) ) ;
#144 = EDGE_CURVE ( 'NONE', #145, #160, #113, .T. ) ;
#145 = VERTEX_POINT ( 'NONE', #103 ) ;
#146 = FACE_OUTER_BOUND ( 'NONE', #201, .T. ) ;
#147 = ORIENTED_EDGE ( 'NONE', *, *, #144, .F. ) ;
#148 = DIRECTION ( 'NONE',  ( -0.000000000000000000, -0.000000000000000000, -1.000000000000000000 ) ) ;
#149 = VECTOR ( 'NONE', #253, 1000.000000000000000 ) ;
#150 = ORIENTED_EDGE ( 'NONE', *, *, #288, .F. ) ;
#151 = CC_DESIGN_DATE_AND_TIME_ASSIGNMENT ( #111, #323, ( #186 ) ) ;
#152 = VERTEX_POINT ( 'NONE', #133 ) ;
#153 = FACE_OUTER_BOUND ( 'NONE', #38, .T. ) ;
#154 = APPLICATION_CONTEXT ( 'configuration controlled 3d designs of mechanical parts and assemblies' ) ;
#155 = AXIS2_PLACEMENT_3D ( 'NONE', #126, #218, #337 ) ;
#156 = VERTEX_POINT ( 'NONE', #315 ) ;
#157 = DIRECTION ( 'NONE',  ( 1.427755947306013918E-16, -1.000000000000000000, 0.000000000000000000 ) ) ;
#158 = FACE_BOUND ( 'NONE', #353, .T. ) ;
#159 = CARTESIAN_POINT ( 'NONE',  ( 0.000000000000000000, 0.000000000000000000, 0.000000000000000000 ) ) ;
#160 = VERTEX_POINT ( 'NONE', #327 ) ;
#161 = VECTOR ( 'NONE', #157, 1000.000000000000000 ) ;
#162 = CC_DESIGN_PERSON_AND_ORGANIZATION_ASSIGNMENT ( #69, #306, ( #55 ) ) ;
#163 = PERSON_AND_ORGANIZATION ( #380, #310 ) ;
#164 = PLANE ( 'NONE',  #286 ) ;
#165 = DIRECTION ( 'NONE',  ( 1.000000000000000000, 0.000000000000000000, 0.000000000000000000 ) ) ;
#166 = DIRECTION ( 'NONE',  ( 1.000000000000000000, 0.000000000000000000, 0.000000000000000000 ) ) ;
#167 = DATE_TIME_ROLE ( 'creation_date' ) ;
#168 = FACE_OUTER_BOUND ( 'NONE', #322, .T. ) ;
#169 = AXIS2_PLACEMENT_3D ( 'NONE', #283, #384, #354 ) ;
#170 = CARTESIAN_POINT ( 'NONE',  ( 0.000000000000000000, -9.150000000000002132, 2.000000000000000000 ) ) ;
#171 = ORIENTED_EDGE ( 'NONE', *, *, #52, .F. ) ;
#172 = EDGE_CURVE ( 'NONE', #145, #33, #84, .T. ) ;
#173 = VECTOR ( 'NONE', #193, 1000.000000000000000 ) ;
#174 = ORIENTED_EDGE ( 'NONE', *, *, #172, .F. ) ;
#175 = CARTESIAN_POINT ( 'NONE',  ( 0.000000000000000000, 12.14999999999999858, 2.000000000000000000 ) ) ;
#176 = COORDINATED_UNIVERSAL_TIME_OFFSET ( 7, 0, .BEHIND. ) ;
#177 = EDGE_LOOP ( 'NONE', ( #87, #235, #191, #60 ) ) ;
#178 = FACE_OUTER_BOUND ( 'NONE', #94, .T. ) ;
#179 = CC_DESIGN_PERSON_AND_ORGANIZATION_ASSIGNMENT ( #20, #376, ( #219 ) ) ;
#180 = ORIENTED_EDGE ( 'NONE', *, *, #102, .T. ) ;
#181 = VECTOR ( 'NONE', #273, 1000.000000000000000 ) ;
#182 = VERTEX_POINT ( 'NONE', #346 ) ;
#183 = DIRECTION ( 'NONE',  ( -0.000000000000000000, -0.000000000000000000, -1.000000000000000000 ) ) ;
#184 = LINE ( 'NONE', #187, #104 ) ;
#185 = EDGE_CURVE ( 'NONE', #325, #152, #350, .T. ) ;
#186 = SECURITY_CLASSIFICATION ( '', '', #230 ) ;
#187 = CARTESIAN_POINT ( 'NONE',  ( 1.500000000000000000, -9.150000000000002132, 2.000000000000000000 ) ) ;
#188 = APPROVAL_ROLE ( '' ) ;
#189 = DIRECTION ( 'NONE',  ( 1.000000000000000000, 0.000000000000000000, 0.000000000000000000 ) ) ;
#190 = EDGE_CURVE ( 'NONE', #291, #182, #2, .T. ) ;
#191 = ORIENTED_EDGE ( 'NONE', *, *, #243, .T. ) ;
#192 =( NAMED_UNIT ( * ) SI_UNIT ( $, .STERADIAN. ) SOLID_ANGLE_UNIT ( ) );
#193 = DIRECTION ( 'NONE',  ( 1.000000000000000000, 0.000000000000000000, 0.000000000000000000 ) ) ;
#194 = CC_DESIGN_APPROVAL ( #120, ( #219 ) ) ;
#195 = APPLICATION_PROTOCOL_DEFINITION ( 'international standard', 'config_control_design', 1994, #154 ) ;
#196 = DIRECTION ( 'NONE',  ( 1.000000000000000000, 0.000000000000000000, 0.000000000000000000 ) ) ;
#197 = COORDINATED_UNIVERSAL_TIME_OFFSET ( 7, 0, .BEHIND. ) ;
#198 = CARTESIAN_POINT ( 'NONE',  ( 0.000000000000000000, -12.15000000000000213, 2.000000000000000000 ) ) ;
#199 = CARTESIAN_POINT ( 'NONE',  ( 0.000000000000000000, -9.150000000000002132, 2.000000000000000000 ) ) ;
#200 = CC_DESIGN_PERSON_AND_ORGANIZATION_ASSIGNMENT ( #106, #289, ( #55 ) ) ;
#201 = EDGE_LOOP ( 'NONE', ( #62, #328, #119, #213 ) ) ;
#202 = AXIS2_PLACEMENT_3D ( 'NONE', #215, #364, #252 ) ;
#203 = CARTESIAN_POINT ( 'NONE',  ( 3.673940397442057896E-16, 9.149999999999998579, 2.000000000000000000 ) ) ;
#204 = ORIENTED_EDGE ( 'NONE', *, *, #185, .F. ) ;
#205 = MANIFOLD_SOLID_BREP ( 'Boss-Extrude1', #242 ) ;
#206 = EDGE_CURVE ( 'NONE', #27, #156, #290, .T. ) ;
#207 = CARTESIAN_POINT ( 'NONE',  ( 1.500000000000000000, -9.150000000000002132, 2.000000000000000000 ) ) ;
#208 = ORIENTED_EDGE ( 'NONE', *, *, #64, .T. ) ;
#209 = ORIENTED_EDGE ( 'NONE', *, *, #326, .F. ) ;
#210 = AXIS2_PLACEMENT_3D ( 'NONE', #72, #365, #212 ) ;
#211 = CC_DESIGN_SECURITY_CLASSIFICATION ( #186, ( #55 ) ) ;
#212 = DIRECTION ( 'NONE',  ( -1.427755947306013918E-16, 1.000000000000000000, 0.000000000000000000 ) ) ;
#213 = ORIENTED_EDGE ( 'NONE', *, *, #243, .F. ) ;
#214 = ADVANCED_FACE ( 'NONE', ( #51 ), #105, .F. ) ;
#215 = CARTESIAN_POINT ( 'NONE',  ( 0.000000000000000000, 0.000000000000000000, 2.000000000000000000 ) ) ;
#216 = CIRCLE ( 'NONE', #50, 1.500000000000000000 ) ;
#217 = PRODUCT ( '15.) Motor Restraint no Battery Holder', '15.) Motor Restraint no Battery Holder', '', ( #130 ) ) ;
#218 = DIRECTION ( 'NONE',  ( -0.000000000000000000, 0.000000000000000000, 1.000000000000000000 ) ) ;
#219 = PRODUCT_DEFINITION ( 'UNKNOWN', '', #55, #246 ) ;
#220 = DIRECTION ( 'NONE',  ( -0.000000000000000000, 0.000000000000000000, 1.000000000000000000 ) ) ;
#221 = LINE ( 'NONE', #125, #236 ) ;
#222 = CARTESIAN_POINT ( 'NONE',  ( 3.000000000000000888, -12.15000000000000213, 2.000000000000000000 ) ) ;
#223 = DATE_AND_TIME ( #101, #363 ) ;
#224 = DIRECTION ( 'NONE',  ( -0.000000000000000000, -0.000000000000000000, -1.000000000000000000 ) ) ;
#225 = AXIS2_PLACEMENT_3D ( 'NONE', #203, #107, #166 ) ;
#226 = COORDINATED_UNIVERSAL_TIME_OFFSET ( 7, 0, .BEHIND. ) ;
#227 = LINE ( 'NONE', #76, #122 ) ;
#228 = COORDINATED_UNIVERSAL_TIME_OFFSET ( 7, 0, .BEHIND. ) ;
#229 = DIRECTION ( 'NONE',  ( 1.000000000000000000, 0.000000000000000000, 0.000000000000000000 ) ) ;
#230 = SECURITY_CLASSIFICATION_LEVEL ( 'unclassified' ) ;
#231 = VECTOR ( 'NONE', #80, 1000.000000000000000 ) ;
#232 = APPROVAL ( #138, 'UNSPECIFIED' ) ;
#233 = ORIENTED_EDGE ( 'NONE', *, *, #9, .F. ) ;
#234 = CARTESIAN_POINT ( 'NONE',  ( 2.999999999999999112, 4.283267841918040522E-16, 2.000000000000000000 ) ) ;
#235 = ORIENTED_EDGE ( 'NONE', *, *, #371, .T. ) ;
#236 = VECTOR ( 'NONE', #183, 1000.000000000000000 ) ;
#237 = APPROVAL_PERSON_ORGANIZATION ( #22, #232, #188 ) ;
#238 = LINE ( 'NONE', #59, #321 ) ;
#239 = ORIENTED_EDGE ( 'NONE', *, *, #326, .T. ) ;
#240 = ORIENTED_EDGE ( 'NONE', *, *, #256, .T. ) ;
#241 = ORIENTED_EDGE ( 'NONE', *, *, #9, .T. ) ;
#242 = CLOSED_SHELL ( 'NONE', ( #331, #318, #35, #341, #259, #214, #271, #248, #77, #114 ) ) ;
#243 = EDGE_CURVE ( 'NONE', #27, #182, #227, .T. ) ;
#244 = PLANE ( 'NONE',  #298 ) ;
#245 = ORIENTED_EDGE ( 'NONE', *, *, #144, .T. ) ;
#246 = DESIGN_CONTEXT ( 'detailed design', #110, 'design' ) ;
#247 = CARTESIAN_POINT ( 'NONE',  ( 2.999999999999997335, 12.14999999999999858, 2.000000000000000000 ) ) ;
#248 = ADVANCED_FACE ( 'NONE', ( #57 ), #164, .T. ) ;
#249 = VECTOR ( 'NONE', #79, 1000.000000000000000 ) ;
#250 = DIRECTION ( 'NONE',  ( -0.000000000000000000, -0.000000000000000000, -1.000000000000000000 ) ) ;
#251 = LINE ( 'NONE', #254, #173 ) ;
#252 = DIRECTION ( 'NONE',  ( 1.000000000000000000, 0.000000000000000000, 0.000000000000000000 ) ) ;
#253 = DIRECTION ( 'NONE',  ( 1.427755947306013918E-16, -1.000000000000000000, 0.000000000000000000 ) ) ;
#254 = CARTESIAN_POINT ( 'NONE',  ( 0.000000000000000000, -12.15000000000000213, 0.000000000000000000 ) ) ;
#255 = CARTESIAN_POINT ( 'NONE',  ( 0.000000000000000000, -12.15000000000000213, 2.000000000000000000 ) ) ;
#256 = EDGE_CURVE ( 'NONE', #182, #291, #8, .T. ) ;
#257 = DIRECTION ( 'NONE',  ( 1.000000000000000000, 1.427755947306013918E-16, -0.000000000000000000 ) ) ;
#258 = DIRECTION ( 'NONE',  ( -1.000000000000000000, 0.000000000000000000, 0.000000000000000000 ) ) ;
#259 = ADVANCED_FACE ( 'NONE', ( #168 ), #19, .T. ) ;
#260 = AXIS2_PLACEMENT_3D ( 'NONE', #234, #257, #100 ) ;
#261 = LOCAL_TIME ( 12, 59, 48.00000000000000000, #228 ) ;
#262 = PERSON_AND_ORGANIZATION ( #380, #310 ) ;
#263 = ORIENTED_EDGE ( 'NONE', *, *, #124, .T. ) ;
#264 = DIRECTION ( 'NONE',  ( -0.000000000000000000, 0.000000000000000000, 1.000000000000000000 ) ) ;
#265 = ORIENTED_EDGE ( 'NONE', *, *, #15, .F. ) ;
#266 = DIRECTION ( 'NONE',  ( 1.000000000000000000, 0.000000000000000000, 0.000000000000000000 ) ) ;
#267 = EDGE_LOOP ( 'NONE', ( #330, #142 ) ) ;
#268 = AXIS2_PLACEMENT_3D ( 'NONE', #199, #29, #25 ) ;
#269 = ORIENTED_EDGE ( 'NONE', *, *, #190, .T. ) ;
#270 = ORIENTED_EDGE ( 'NONE', *, *, #172, .T. ) ;
#271 = ADVANCED_FACE ( 'NONE', ( #285 ), #23, .F. ) ;
#272 = CARTESIAN_POINT ( 'NONE',  ( -3.000000000000002665, 12.14999999999999858, 0.000000000000000000 ) ) ;
#273 = DIRECTION ( 'NONE',  ( 1.000000000000000000, 0.000000000000000000, 0.000000000000000000 ) ) ;
#274 = FACE_BOUND ( 'NONE', #267, .T. ) ;
#275 = PERSON_AND_ORGANIZATION ( #380, #310 ) ;
#276 = LINE ( 'NONE', #65, #181 ) ;
#277 = DIRECTION ( 'NONE',  ( 1.000000000000000000, 0.000000000000000000, 0.000000000000000000 ) ) ;
#278 = LOCAL_TIME ( 12, 59, 48.00000000000000000, #176 ) ;
#279 = CARTESIAN_POINT ( 'NONE',  ( -3.000000000000000888, -4.283267841918042988E-16, 0.000000000000000000 ) ) ;
#280 = APPROVAL_STATUS ( 'not_yet_approved' ) ;
#281 = CYLINDRICAL_SURFACE ( 'NONE', #136, 1.500000000000000000 ) ;
#282 = PERSON_AND_ORGANIZATION_ROLE ( 'design_owner' ) ;
#283 = CARTESIAN_POINT ( 'NONE',  ( 0.000000000000000000, -9.150000000000002132, 0.000000000000000000 ) ) ;
#284 = DIRECTION ( 'NONE',  ( 0.000000000000000000, 0.000000000000000000, 1.000000000000000000 ) ) ;
#285 = FACE_OUTER_BOUND ( 'NONE', #295, .T. ) ;
#286 = AXIS2_PLACEMENT_3D ( 'NONE', #175, #373, #21 ) ;
#287 = DIRECTION ( 'NONE',  ( -1.000000000000000000, 0.000000000000000000, 0.000000000000000000 ) ) ;
#288 = EDGE_CURVE ( 'NONE', #152, #325, #216, .T. ) ;
#289 = PERSON_AND_ORGANIZATION_ROLE ( 'design_supplier' ) ;
#290 = CIRCLE ( 'NONE', #225, 1.500000000000000000 ) ;
#291 = VERTEX_POINT ( 'NONE', #344 ) ;
#292 = EDGE_LOOP ( 'NONE', ( #385, #361 ) ) ;
#293 = DIRECTION ( 'NONE',  ( -0.000000000000000000, 0.000000000000000000, 1.000000000000000000 ) ) ;
#294 = CC_DESIGN_PERSON_AND_ORGANIZATION_ASSIGNMENT ( #24, #381, ( #186 ) ) ;
#295 = EDGE_LOOP ( 'NONE', ( #171, #3, #6, #204 ) ) ;
#296 = CYLINDRICAL_SURFACE ( 'NONE', #355, 1.500000000000000000 ) ;
#297 = ORIENTED_EDGE ( 'NONE', *, *, #108, .F. ) ;
#298 = AXIS2_PLACEMENT_3D ( 'NONE', #13, #99, #128 ) ;
#299 = EDGE_LOOP ( 'NONE', ( #239, #245, #70, #265 ) ) ;
#300 = CC_DESIGN_DATE_AND_TIME_ASSIGNMENT ( #48, #167, ( #219 ) ) ;
#301 = DIRECTION ( 'NONE',  ( -0.000000000000000000, -0.000000000000000000, -1.000000000000000000 ) ) ;
#302 = CARTESIAN_POINT ( 'NONE',  ( -0.000000000000000000, 12.14999999999999858, 0.000000000000000000 ) ) ;
#303 = CIRCLE ( 'NONE', #92, 1.500000000000000000 ) ;
#304 = EDGE_CURVE ( 'NONE', #160, #30, #349, .T. ) ;
#305 = CARTESIAN_POINT ( 'NONE',  ( -2.999999999999999112, -12.15000000000000213, 0.000000000000000000 ) ) ;
#306 = PERSON_AND_ORGANIZATION_ROLE ( 'creator' ) ;
#307 = LINE ( 'NONE', #333, #374 ) ;
#308 =( LENGTH_UNIT ( ) NAMED_UNIT ( * ) SI_UNIT ( .MILLI., .METRE. ) );
#309 = ORIENTED_EDGE ( 'NONE', *, *, #360, .F. ) ;
#310 = ORGANIZATION ( 'UNSPECIFIED', 'UNSPECIFIED', '' ) ;
#311 = APPROVAL_PERSON_ORGANIZATION ( #262, #82, #140 ) ;
#312 = DIRECTION ( 'NONE',  ( -1.000000000000000000, 0.000000000000000000, 0.000000000000000000 ) ) ;
#313 = EDGE_CURVE ( 'NONE', #332, #356, #37, .T. ) ;
#314 = APPLICATION_PROTOCOL_DEFINITION ( 'international standard', 'config_control_design', 1994, #110 ) ;
#315 = CARTESIAN_POINT ( 'NONE',  ( 1.500000000000000444, 9.149999999999998579, 2.000000000000000000 ) ) ;
#316 = CARTESIAN_POINT ( 'NONE',  ( 1.500000000000000444, 9.149999999999998579, 2.000000000000000000 ) ) ;
#317 = DIRECTION ( 'NONE',  ( -0.000000000000000000, -0.000000000000000000, -1.000000000000000000 ) ) ;
#318 = ADVANCED_FACE ( 'NONE', ( #146 ), #281, .F. ) ;
#319 = DATE_AND_TIME ( #109, #278 ) ;
#320 = CARTESIAN_POINT ( 'NONE',  ( 3.673940397442057896E-16, 9.149999999999998579, 0.000000000000000000 ) ) ;
#321 = VECTOR ( 'NONE', #31, 1000.000000000000000 ) ;
#322 = EDGE_LOOP ( 'NONE', ( #297, #112, #362, #58 ) ) ;
#323 = DATE_TIME_ROLE ( 'classification_date' ) ;
#324 = AXIS2_PLACEMENT_3D ( 'NONE', #320, #377, #266 ) ;
#325 = VERTEX_POINT ( 'NONE', #45 ) ;
#326 = EDGE_CURVE ( 'NONE', #5, #145, #238, .T. ) ;
#327 = CARTESIAN_POINT ( 'NONE',  ( 3.000000000000000888, -12.15000000000000213, 2.000000000000000000 ) ) ;
#328 = ORIENTED_EDGE ( 'NONE', *, *, #378, .T. ) ;
#329 = CARTESIAN_POINT ( 'NONE',  ( 2.999999999999997335, 12.14999999999999858, 0.000000000000000000 ) ) ;
#330 = ORIENTED_EDGE ( 'NONE', *, *, #206, .F. ) ;
#331 = ADVANCED_FACE ( 'NONE', ( #178 ), #296, .F. ) ;
#332 = VERTEX_POINT ( 'NONE', #207 ) ;
#333 = CARTESIAN_POINT ( 'NONE',  ( 2.999999999999999112, 4.283267841918040522E-16, 0.000000000000000000 ) ) ;
#334 = VERTEX_POINT ( 'NONE', #329 ) ;
#335 = EDGE_LOOP ( 'NONE', ( #233, #28, #359, #208 ) ) ;
#336 = APPROVAL_DATE_TIME ( #96, #232 ) ;
#337 = DIRECTION ( 'NONE',  ( 1.000000000000000000, 0.000000000000000000, 0.000000000000000000 ) ) ;
#338 =( NAMED_UNIT ( * ) PLANE_ANGLE_UNIT ( ) SI_UNIT ( $, .RADIAN. ) );
#339 = ORIENTED_EDGE ( 'NONE', *, *, #52, .T. ) ;
#340 = LINE ( 'NONE', #316, #368 ) ;
#341 = ADVANCED_FACE ( 'NONE', ( #1 ), #116, .F. ) ;
#342 = CARTESIAN_POINT ( 'NONE',  ( 3.673940397442057896E-16, 9.149999999999998579, 2.000000000000000000 ) ) ;
#343 = APPROVAL_DATE_TIME ( #223, #120 ) ;
#344 = CARTESIAN_POINT ( 'NONE',  ( 1.500000000000000444, 9.149999999999998579, 0.000000000000000000 ) ) ;
#345 = CALENDAR_DATE ( 2023, 9, 8 ) ;
#346 = CARTESIAN_POINT ( 'NONE',  ( -1.499999999999999556, 9.149999999999998579, 0.000000000000000000 ) ) ;
#347 = EDGE_CURVE ( 'NONE', #90, #160, #75, .T. ) ;
#348 = SHAPE_DEFINITION_REPRESENTATION ( #71, #14 ) ;
#349 = LINE ( 'NONE', #222, #231 ) ;
#350 = CIRCLE ( 'NONE', #169, 1.500000000000000000 ) ;
#351 = APPROVAL_DATE_TIME ( #319, #82 ) ;
#352 = CC_DESIGN_PERSON_AND_ORGANIZATION_ASSIGNMENT ( #275, #282, ( #217 ) ) ;
#353 = EDGE_LOOP ( 'NONE', ( #89, #56 ) ) ;
#354 = DIRECTION ( 'NONE',  ( 1.000000000000000000, 0.000000000000000000, 0.000000000000000000 ) ) ;
#355 = AXIS2_PLACEMENT_3D ( 'NONE', #88, #148, #358 ) ;
#356 = VERTEX_POINT ( 'NONE', #127 ) ;
#357 = LOCAL_TIME ( 12, 59, 48.00000000000000000, #366 ) ;
#358 = DIRECTION ( 'NONE',  ( -1.000000000000000000, 0.000000000000000000, 0.000000000000000000 ) ) ;
#359 = ORIENTED_EDGE ( 'NONE', *, *, #15, .T. ) ;
#360 = EDGE_CURVE ( 'NONE', #356, #152, #46, .T. ) ;
#361 = ORIENTED_EDGE ( 'NONE', *, *, #313, .F. ) ;
#362 = ORIENTED_EDGE ( 'NONE', *, *, #347, .T. ) ;
#363 = LOCAL_TIME ( 12, 59, 48.00000000000000000, #197 ) ;
#364 = DIRECTION ( 'NONE',  ( -0.000000000000000000, 0.000000000000000000, 1.000000000000000000 ) ) ;
#365 = DIRECTION ( 'NONE',  ( 1.000000000000000000, 1.427755947306013918E-16, -0.000000000000000000 ) ) ;
#366 = COORDINATED_UNIVERSAL_TIME_OFFSET ( 7, 0, .BEHIND. ) ;
#367 = CARTESIAN_POINT ( 'NONE',  ( -1.499999999999999556, 9.149999999999998579, 2.000000000000000000 ) ) ;
#368 = VECTOR ( 'NONE', #132, 1000.000000000000000 ) ;
#369 = DIRECTION ( 'NONE',  ( 0.000000000000000000, 1.000000000000000000, 0.000000000000000000 ) ) ;
#370 = CARTESIAN_POINT ( 'NONE',  ( 3.000000000000000888, -12.15000000000000213, 0.000000000000000000 ) ) ;
#371 = EDGE_CURVE ( 'NONE', #156, #27, #303, .T. ) ;
#372 = CARTESIAN_POINT ( 'NONE',  ( -3.000000000000002665, 12.14999999999999858, 2.000000000000000000 ) ) ;
#373 = DIRECTION ( 'NONE',  ( 0.000000000000000000, 1.000000000000000000, 0.000000000000000000 ) ) ;
#374 = VECTOR ( 'NONE', #41, 1000.000000000000000 ) ;
#375 = CC_DESIGN_APPROVAL ( #232, ( #55 ) ) ;
#376 = PERSON_AND_ORGANIZATION_ROLE ( 'creator' ) ;
#377 = DIRECTION ( 'NONE',  ( -0.000000000000000000, 0.000000000000000000, 1.000000000000000000 ) ) ;
#378 = EDGE_CURVE ( 'NONE', #156, #291, #340, .T. ) ;
#379 = CARTESIAN_POINT ( 'NONE',  ( 0.000000000000000000, -9.150000000000002132, 0.000000000000000000 ) ) ;
#380 = PERSON ( 'UNSPECIFIED', 'UNSPECIFIED', 'UNSPECIFIED', ('UNSPECIFIED'), ('UNSPECIFIED'), ('UNSPECIFIED') ) ;
#381 = PERSON_AND_ORGANIZATION_ROLE ( 'classification_officer' ) ;
#382 =( GEOMETRIC_REPRESENTATION_CONTEXT ( 3 ) GLOBAL_UNCERTAINTY_ASSIGNED_CONTEXT ( ( #66 ) ) GLOBAL_UNIT_ASSIGNED_CONTEXT ( ( #308, #338, #192 ) ) REPRESENTATION_CONTEXT ( 'NONE', 'WORKASPACE' ) );
#383 = EDGE_LOOP ( 'NONE', ( #263, #121, #147, #270 ) ) ;
#384 = DIRECTION ( 'NONE',  ( -0.000000000000000000, 0.000000000000000000, 1.000000000000000000 ) ) ;
#385 = ORIENTED_EDGE ( 'NONE', *, *, #102, .F. ) ;
ENDSEC;
END-ISO-10303-21;
