ISO-10303-21;
HEADER;
FILE_DESCRIPTION (( 'STEP AP203' ),
    '1' );
FILE_NAME ('8.) Axle C-Clip 3.0.STEP',
    '2023-09-26T15:42:38',
    ( '' ),
    ( '' ),
    'SwSTEP 2.0',
    'SolidWorks 2023',
    '' );
FILE_SCHEMA (( 'CONFIG_CONTROL_DESIGN' ));
ENDSEC;

DATA;
#1 = DIRECTION ( 'NONE',  ( -1.000000000000000000, 0.000000000000000000, 0.000000000000000000 ) ) ;
#2 = DIRECTION ( 'NONE',  ( -0.000000000000000000, -0.000000000000000000, -1.000000000000000000 ) ) ;
#3 = CARTESIAN_POINT ( 'NONE',  ( 9.500000000000000000, 1.163414459189985485E-15, 1.399999999999999911 ) ) ;
#4 = VECTOR ( 'NONE', #158, 1000.000000000000000 ) ;
#5 = CARTESIAN_POINT ( 'NONE',  ( 0.000000000000000000, 0.000000000000000000, 1.399999999999999911 ) ) ;
#6 = CARTESIAN_POINT ( 'NONE',  ( 0.000000000000000000, 0.000000000000000000, 1.399999999999999911 ) ) ;
#7 = ADVANCED_FACE ( 'NONE', ( #185 ), #118, .T. ) ;
#8 = CARTESIAN_POINT ( 'NONE',  ( -5.238737920530097014, -7.925000000000001599, 1.399999999999999911 ) ) ;
#9 = VERTEX_POINT ( 'NONE', #277 ) ;
#10 = CIRCLE ( 'NONE', #137, 4.000000000000000000 ) ;
#11 = ORIENTED_EDGE ( 'NONE', *, *, #188, .F. ) ;
#12 = CARTESIAN_POINT ( 'NONE',  ( 4.425000000000000711, 5.419062086227039378E-16, 1.399999999999999911 ) ) ;
#13 = ORIENTED_EDGE ( 'NONE', *, *, #81, .T. ) ;
#14 = APPROVAL_STATUS ( 'not_yet_approved' ) ;
#15 = ORIENTED_EDGE ( 'NONE', *, *, #19, .T. ) ;
#16 = DATE_AND_TIME ( #72, #175 ) ;
#17 = AXIS2_PLACEMENT_3D ( 'NONE', #248, #319, #154 ) ;
#18 = VECTOR ( 'NONE', #418, 1000.000000000000000 ) ;
#19 = EDGE_CURVE ( 'NONE', #379, #208, #296, .T. ) ;
#20 = PERSON_AND_ORGANIZATION_ROLE ( 'creator' ) ;
#21 = CYLINDRICAL_SURFACE ( 'NONE', #145, 4.000000000000000000 ) ;
#22 = DIRECTION ( 'NONE',  ( -0.000000000000000000, 0.000000000000000000, 1.000000000000000000 ) ) ;
#23 = CIRCLE ( 'NONE', #255, 9.500000000000000000 ) ;
#24 = ORIENTED_EDGE ( 'NONE', *, *, #211, .T. ) ;
#25 = CARTESIAN_POINT ( 'NONE',  ( 0.000000000000000000, 0.000000000000000000, 1.399999999999999911 ) ) ;
#26 = ORIENTED_EDGE ( 'NONE', *, *, #330, .F. ) ;
#27 = DIRECTION ( 'NONE',  ( 1.000000000000000000, 0.000000000000000000, 0.000000000000000000 ) ) ;
#28 = DIRECTION ( 'NONE',  ( -0.000000000000000000, 0.000000000000000000, 1.000000000000000000 ) ) ;
#29 = CIRCLE ( 'NONE', #270, 4.425000000000000711 ) ;
#30 = CARTESIAN_POINT ( 'NONE',  ( 3.701351104664348579, -2.424999999999999378, 1.399999999999999911 ) ) ;
#31 = LOCAL_TIME ( 9, 42, 38.00000000000000000, #144 ) ;
#32 = CARTESIAN_POINT ( 'NONE',  ( 7.167812789541583740, -4.420906657957250019, 1.399999999999999911 ) ) ;
#33 = CARTESIAN_POINT ( 'NONE',  ( -7.167812789541583740, -4.420906657957251795, 1.399999999999999911 ) ) ;
#34 = DIRECTION ( 'NONE',  ( -0.000000000000000000, -0.000000000000000000, -1.000000000000000000 ) ) ;
#35 = DIRECTION ( 'NONE',  ( 1.000000000000000000, 0.000000000000000000, 0.000000000000000000 ) ) ;
#36 = CARTESIAN_POINT ( 'NONE',  ( 9.500000000000000000, 1.163414459189985485E-15, 0.000000000000000000 ) ) ;
#37 = ADVANCED_FACE ( 'NONE', ( #222 ), #62, .F. ) ;
#38 = DIRECTION ( 'NONE',  ( -1.000000000000000000, 0.000000000000000000, 0.000000000000000000 ) ) ;
#39 = AXIS2_PLACEMENT_3D ( 'NONE', #225, #329, #1 ) ;
#40 = CARTESIAN_POINT ( 'NONE',  ( 0.000000000000000000, 0.000000000000000000, 1.399999999999999911 ) ) ;
#41 = MANIFOLD_SOLID_BREP ( 'Boss-Extrude1', #316 ) ;
#42 = VERTEX_POINT ( 'NONE', #189 ) ;
#43 = ORIENTED_EDGE ( 'NONE', *, *, #266, .T. ) ;
#44 = ADVANCED_FACE ( 'NONE', ( #184 ), #21, .T. ) ;
#45 = PRODUCT_DEFINITION_FORMATION_WITH_SPECIFIED_SOURCE ( 'ANY', '', #334, .NOT_KNOWN. ) ;
#46 = DIRECTION ( 'NONE',  ( -0.000000000000000000, -0.000000000000000000, -1.000000000000000000 ) ) ;
#47 = LOCAL_TIME ( 9, 42, 38.00000000000000000, #115 ) ;
#48 = ORIENTED_EDGE ( 'NONE', *, *, #173, .F. ) ;
#49 = PERSON_AND_ORGANIZATION_ROLE ( 'design_owner' ) ;
#50 = ORIENTED_EDGE ( 'NONE', *, *, #109, .T. ) ;
#51 = PERSON_AND_ORGANIZATION ( #249, #161 ) ;
#52 = ADVANCED_FACE ( 'NONE', ( #123 ), #106, .T. ) ;
#53 = EDGE_LOOP ( 'NONE', ( #90, #341, #186, #408, #216, #244, #48, #125, #113 ) ) ;
#54 = AXIS2_PLACEMENT_3D ( 'NONE', #264, #382, #394 ) ;
#55 = CARTESIAN_POINT ( 'NONE',  ( -7.167812789541583740, -4.420906657957251795, 0.000000000000000000 ) ) ;
#56 = ORIENTED_EDGE ( 'NONE', *, *, #151, .F. ) ;
#57 = ORIENTED_EDGE ( 'NONE', *, *, #403, .T. ) ;
#58 = EDGE_CURVE ( 'NONE', #401, #347, #138, .T. ) ;
#59 = AXIS2_PLACEMENT_3D ( 'NONE', #256, #224, #127 ) ;
#60 = DIRECTION ( 'NONE',  ( -0.000000000000000000, 0.000000000000000000, 1.000000000000000000 ) ) ;
#61 = DIRECTION ( 'NONE',  ( -0.000000000000000000, 0.000000000000000000, 1.000000000000000000 ) ) ;
#62 = PLANE ( 'NONE',  #348 ) ;
#63 = DIRECTION ( 'NONE',  ( 0.000000000000000000, -0.000000000000000000, -1.000000000000000000 ) ) ;
#64 = ADVANCED_FACE ( 'NONE', ( #295 ), #392, .T. ) ;
#65 = DIRECTION ( 'NONE',  ( -0.000000000000000000, 0.000000000000000000, 1.000000000000000000 ) ) ;
#66 = CARTESIAN_POINT ( 'NONE',  ( 0.000000000000000000, 0.000000000000000000, 0.000000000000000000 ) ) ;
#67 = CIRCLE ( 'NONE', #411, 4.000000000000000000 ) ;
#68 = CARTESIAN_POINT ( 'NONE',  ( 0.000000000000000000, 0.000000000000000000, 1.399999999999999911 ) ) ;
#69 = DIRECTION ( 'NONE',  ( -1.000000000000000000, 0.000000000000000000, 0.000000000000000000 ) ) ;
#70 = CARTESIAN_POINT ( 'NONE',  ( 0.000000000000000000, 0.000000000000000000, 0.000000000000000000 ) ) ;
#71 = CARTESIAN_POINT ( 'NONE',  ( 9.500000000000000000, 1.163414459189985485E-15, 1.399999999999999911 ) ) ;
#72 = CALENDAR_DATE ( 2023, 26, 9 ) ;
#73 = CARTESIAN_POINT ( 'NONE',  ( 0.000000000000000000, 0.000000000000000000, 1.399999999999999911 ) ) ;
#74 = AXIS2_PLACEMENT_3D ( 'NONE', #164, #420, #135 ) ;
#75 = VERTEX_POINT ( 'NONE', #163 ) ;
#76 = EDGE_LOOP ( 'NONE', ( #276, #13, #43, #369 ) ) ;
#77 = CIRCLE ( 'NONE', #59, 4.425000000000000711 ) ;
#78 = DIRECTION ( 'NONE',  ( -0.000000000000000000, 0.000000000000000000, 1.000000000000000000 ) ) ;
#79 = VERTEX_POINT ( 'NONE', #299 ) ;
#80 =( NAMED_UNIT ( * ) PLANE_ANGLE_UNIT ( ) SI_UNIT ( $, .RADIAN. ) );
#81 = EDGE_CURVE ( 'NONE', #150, #148, #231, .T. ) ;
#82 = APPROVAL_ROLE ( '' ) ;
#83 = DIRECTION ( 'NONE',  ( 1.000000000000000000, 0.000000000000000000, 0.000000000000000000 ) ) ;
#84 = AXIS2_PLACEMENT_3D ( 'NONE', #241, #78, #409 ) ;
#85 = VECTOR ( 'NONE', #140, 1000.000000000000000 ) ;
#86 = ORIENTED_EDGE ( 'NONE', *, *, #343, .T. ) ;
#87 = APPLICATION_CONTEXT ( 'configuration controlled 3d designs of mechanical parts and assemblies' ) ;
#88 = CC_DESIGN_DATE_AND_TIME_ASSIGNMENT ( #94, #345, ( #406 ) ) ;
#89 = ORIENTED_EDGE ( 'NONE', *, *, #206, .T. ) ;
#90 = ORIENTED_EDGE ( 'NONE', *, *, #199, .T. ) ;
#91 = AXIS2_PLACEMENT_3D ( 'NONE', #318, #323, #69 ) ;
#92 = LINE ( 'NONE', #30, #18 ) ;
#93 = ORIENTED_EDGE ( 'NONE', *, *, #112, .F. ) ;
#94 = DATE_AND_TIME ( #176, #385 ) ;
#95 = APPROVAL ( #147, 'UNSPECIFIED' ) ;
#96 = DIRECTION ( 'NONE',  ( 1.000000000000000000, 0.000000000000000000, 0.000000000000000000 ) ) ;
#97 = CYLINDRICAL_SURFACE ( 'NONE', #39, 9.500000000000000000 ) ;
#98 = DIRECTION ( 'NONE',  ( -0.000000000000000000, -0.000000000000000000, -1.000000000000000000 ) ) ;
#99 = DIRECTION ( 'NONE',  ( -1.000000000000000000, 0.000000000000000000, 0.000000000000000000 ) ) ;
#100 = FACE_OUTER_BOUND ( 'NONE', #157, .T. ) ;
#101 = APPROVAL_PERSON_ORGANIZATION ( #169, #95, #82 ) ;
#102 = CARTESIAN_POINT ( 'NONE',  ( 3.701351104664348579, -2.424999999999999378, 1.399999999999999911 ) ) ;
#103 = FACE_OUTER_BOUND ( 'NONE', #344, .T. ) ;
#104 = DESIGN_CONTEXT ( 'detailed design', #217, 'design' ) ;
#105 = APPROVAL_ROLE ( '' ) ;
#106 = CYLINDRICAL_SURFACE ( 'NONE', #287, 4.000000000000000000 ) ;
#107 = VECTOR ( 'NONE', #291, 1000.000000000000000 ) ;
#108 = CIRCLE ( 'NONE', #205, 4.425000000000000711 ) ;
#109 = EDGE_CURVE ( 'NONE', #317, #400, #29, .T. ) ;
#110 = VERTEX_POINT ( 'NONE', #261 ) ;
#111 = ORIENTED_EDGE ( 'NONE', *, *, #336, .F. ) ;
#112 = EDGE_CURVE ( 'NONE', #347, #79, #10, .T. ) ;
#113 = ORIENTED_EDGE ( 'NONE', *, *, #391, .F. ) ;
#114 = AXIS2_PLACEMENT_3D ( 'NONE', #68, #357, #165 ) ;
#115 = COORDINATED_UNIVERSAL_TIME_OFFSET ( 7, 0, .BEHIND. ) ;
#116 = EDGE_LOOP ( 'NONE', ( #15, #177, #308, #304 ) ) ;
#117 = CARTESIAN_POINT ( 'NONE',  ( 3.167812789541583740, -4.420906657957250019, 1.399999999999999911 ) ) ;
#118 = CYLINDRICAL_SURFACE ( 'NONE', #17, 9.500000000000000000 ) ;
#119 = SECURITY_CLASSIFICATION_LEVEL ( 'unclassified' ) ;
#120 = DIRECTION ( 'NONE',  ( -0.000000000000000000, -0.000000000000000000, -1.000000000000000000 ) ) ;
#121 = AXIS2_PLACEMENT_3D ( 'NONE', #55, #22, #152 ) ;
#122 = ADVANCED_FACE ( 'NONE', ( #395 ), #359, .F. ) ;
#123 = FACE_OUTER_BOUND ( 'NONE', #337, .T. ) ;
#124 = APPROVAL_ROLE ( '' ) ;
#125 = ORIENTED_EDGE ( 'NONE', *, *, #266, .F. ) ;
#126 = PERSON_AND_ORGANIZATION ( #249, #161 ) ;
#127 = DIRECTION ( 'NONE',  ( 1.000000000000000000, 0.000000000000000000, 0.000000000000000000 ) ) ;
#128 = ORIENTED_EDGE ( 'NONE', *, *, #280, .T. ) ;
#129 = EDGE_CURVE ( 'NONE', #150, #141, #333, .T. ) ;
#130 = AXIS2_PLACEMENT_3D ( 'NONE', #5, #46, #402 ) ;
#131 = CARTESIAN_POINT ( 'NONE',  ( -3.701351104664349467, -2.425000000000000266, 0.000000000000000000 ) ) ;
#132 = CARTESIAN_POINT ( 'NONE',  ( 0.000000000000000000, 0.000000000000000000, 0.000000000000000000 ) ) ;
#133 = CARTESIAN_POINT ( 'NONE',  ( 5.238737920530097014, -7.924999999999999822, 1.399999999999999911 ) ) ;
#134 = CARTESIAN_POINT ( 'NONE',  ( -7.167812789541583740, -4.420906657957251795, 1.399999999999999911 ) ) ;
#135 = DIRECTION ( 'NONE',  ( 1.000000000000000000, 0.000000000000000000, 0.000000000000000000 ) ) ;
#136 = CARTESIAN_POINT ( 'NONE',  ( 7.167812789541583740, -4.420906657957250019, 0.000000000000000000 ) ) ;
#137 = AXIS2_PLACEMENT_3D ( 'NONE', #362, #389, #228 ) ;
#138 = LINE ( 'NONE', #419, #107 ) ;
#139 = DIRECTION ( 'NONE',  ( -0.000000000000000000, 0.000000000000000000, 1.000000000000000000 ) ) ;
#140 = DIRECTION ( 'NONE',  ( -0.000000000000000000, -0.000000000000000000, -1.000000000000000000 ) ) ;
#141 = VERTEX_POINT ( 'NONE', #235 ) ;
#142 = ADVANCED_FACE ( 'NONE', ( #103 ), #97, .T. ) ;
#143 = ORIENTED_EDGE ( 'NONE', *, *, #250, .T. ) ;
#144 = COORDINATED_UNIVERSAL_TIME_OFFSET ( 7, 0, .BEHIND. ) ;
#145 = AXIS2_PLACEMENT_3D ( 'NONE', #279, #120, #412 ) ;
#146 = VERTEX_POINT ( 'NONE', #366 ) ;
#147 = APPROVAL_STATUS ( 'not_yet_approved' ) ;
#148 = VERTEX_POINT ( 'NONE', #36 ) ;
#149 = PERSON_AND_ORGANIZATION ( #249, #161 ) ;
#150 = VERTEX_POINT ( 'NONE', #3 ) ;
#151 = EDGE_CURVE ( 'NONE', #368, #208, #153, .T. ) ;
#152 = DIRECTION ( 'NONE',  ( 1.000000000000000000, 0.000000000000000000, 0.000000000000000000 ) ) ;
#153 = CIRCLE ( 'NONE', #360, 4.425000000000000711 ) ;
#154 = DIRECTION ( 'NONE',  ( -1.000000000000000000, 0.000000000000000000, 0.000000000000000000 ) ) ;
#155 = DIRECTION ( 'NONE',  ( -0.000000000000000000, -0.000000000000000000, -1.000000000000000000 ) ) ;
#156 = EDGE_CURVE ( 'NONE', #110, #208, #233, .T. ) ;
#157 = EDGE_LOOP ( 'NONE', ( #380, #143, #313, #413 ) ) ;
#158 = DIRECTION ( 'NONE',  ( -0.000000000000000000, -0.000000000000000000, -1.000000000000000000 ) ) ;
#159 = CARTESIAN_POINT ( 'NONE',  ( -3.701351104664349467, -2.425000000000000266, 1.399999999999999911 ) ) ;
#160 = VECTOR ( 'NONE', #34, 1000.000000000000000 ) ;
#161 = ORGANIZATION ( 'UNSPECIFIED', 'UNSPECIFIED', '' ) ;
#162 = DIRECTION ( 'NONE',  ( -0.000000000000000000, 0.000000000000000000, 1.000000000000000000 ) ) ;
#163 = CARTESIAN_POINT ( 'NONE',  ( -4.425000000000000711, 0.000000000000000000, 1.399999999999999911 ) ) ;
#164 = CARTESIAN_POINT ( 'NONE',  ( 0.000000000000000000, 0.000000000000000000, 0.000000000000000000 ) ) ;
#165 = DIRECTION ( 'NONE',  ( -1.000000000000000000, 0.000000000000000000, 0.000000000000000000 ) ) ;
#166 = ADVANCED_FACE ( 'NONE', ( #198 ), #285, .T. ) ;
#167 = DIRECTION ( 'NONE',  ( 1.000000000000000000, 0.000000000000000000, 0.000000000000000000 ) ) ;
#168 = DIRECTION ( 'NONE',  ( -0.000000000000000000, -0.000000000000000000, -1.000000000000000000 ) ) ;
#169 = PERSON_AND_ORGANIZATION ( #249, #161 ) ;
#170 = CC_DESIGN_APPROVAL ( #95, ( #45 ) ) ;
#171 = DIRECTION ( 'NONE',  ( 1.000000000000000000, 0.000000000000000000, 0.000000000000000000 ) ) ;
#172 = DIRECTION ( 'NONE',  ( -0.000000000000000000, 0.000000000000000000, 1.000000000000000000 ) ) ;
#173 = EDGE_CURVE ( 'NONE', #146, #379, #274, .T. ) ;
#174 = ORIENTED_EDGE ( 'NONE', *, *, #391, .T. ) ;
#175 = LOCAL_TIME ( 9, 42, 38.00000000000000000, #309 ) ;
#176 = CALENDAR_DATE ( 2023, 26, 9 ) ;
#177 = ORIENTED_EDGE ( 'NONE', *, *, #156, .F. ) ;
#178 = APPLICATION_PROTOCOL_DEFINITION ( 'international standard', 'config_control_design', 1994, #217 ) ;
#179 = EDGE_CURVE ( 'NONE', #191, #379, #300, .T. ) ;
#180 = PERSON_AND_ORGANIZATION_ROLE ( 'creator' ) ;
#181 = ORIENTED_EDGE ( 'NONE', *, *, #237, .F. ) ;
#182 = CIRCLE ( 'NONE', #288, 4.425000000000000711 ) ;
#183 = CC_DESIGN_DATE_AND_TIME_ASSIGNMENT ( #16, #331, ( #195 ) ) ;
#184 = FACE_OUTER_BOUND ( 'NONE', #269, .T. ) ;
#185 = FACE_OUTER_BOUND ( 'NONE', #76, .T. ) ;
#186 = ORIENTED_EDGE ( 'NONE', *, *, #330, .T. ) ;
#187 = VECTOR ( 'NONE', #364, 1000.000000000000000 ) ;
#188 = EDGE_CURVE ( 'NONE', #75, #110, #399, .T. ) ;
#189 = CARTESIAN_POINT ( 'NONE',  ( 5.238737920530097014, -7.924999999999999822, 1.399999999999999911 ) ) ;
#190 = DIRECTION ( 'NONE',  ( -0.000000000000000000, -0.000000000000000000, -1.000000000000000000 ) ) ;
#191 = VERTEX_POINT ( 'NONE', #386 ) ;
#192 = DIRECTION ( 'NONE',  ( -0.000000000000000000, 0.000000000000000000, 1.000000000000000000 ) ) ;
#193 = APPROVAL_PERSON_ORGANIZATION ( #307, #340, #105 ) ;
#194 = DIRECTION ( 'NONE',  ( -1.000000000000000000, 0.000000000000000000, 0.000000000000000000 ) ) ;
#195 = PRODUCT_DEFINITION ( 'UNKNOWN', '', #45, #104 ) ;
#196 = CARTESIAN_POINT ( 'NONE',  ( 7.167812789541583740, -4.420906657957250019, 1.399999999999999911 ) ) ;
#197 = PERSON_AND_ORGANIZATION ( #249, #161 ) ;
#198 = FACE_OUTER_BOUND ( 'NONE', #350, .T. ) ;
#199 = EDGE_CURVE ( 'NONE', #9, #347, #67, .T. ) ;
#200 = CIRCLE ( 'NONE', #393, 4.000000000000000000 ) ;
#201 = CC_DESIGN_SECURITY_CLASSIFICATION ( #406, ( #45 ) ) ;
#202 = CARTESIAN_POINT ( 'NONE',  ( 0.000000000000000000, 0.000000000000000000, 0.000000000000000000 ) ) ;
#203 = ORIENTED_EDGE ( 'NONE', *, *, #403, .F. ) ;
#204 = APPROVAL_DATE_TIME ( #210, #95 ) ;
#205 = AXIS2_PLACEMENT_3D ( 'NONE', #70, #61, #35 ) ;
#206 = EDGE_CURVE ( 'NONE', #141, #146, #328, .T. ) ;
#207 = APPLICATION_PROTOCOL_DEFINITION ( 'international standard', 'config_control_design', 1994, #87 ) ;
#208 = VERTEX_POINT ( 'NONE', #131 ) ;
#209 = ORIENTED_EDGE ( 'NONE', *, *, #81, .F. ) ;
#210 = DATE_AND_TIME ( #407, #47 ) ;
#211 = EDGE_CURVE ( 'NONE', #42, #401, #383, .T. ) ;
#212 = ORIENTED_EDGE ( 'NONE', *, *, #280, .F. ) ;
#213 = AXIS2_PLACEMENT_3D ( 'NONE', #388, #98, #194 ) ;
#214 = EDGE_LOOP ( 'NONE', ( #50, #355, #26, #212 ) ) ;
#215 = APPROVAL_DATE_TIME ( #352, #286 ) ;
#216 = ORIENTED_EDGE ( 'NONE', *, *, #151, .T. ) ;
#217 = APPLICATION_CONTEXT ( 'configuration controlled 3d designs of mechanical parts and assemblies' ) ;
#218 = ORIENTED_EDGE ( 'NONE', *, *, #188, .T. ) ;
#219 = AXIS2_PLACEMENT_3D ( 'NONE', #370, #373, #372 ) ;
#220 = PRODUCT_DEFINITION_SHAPE ( 'NONE', 'NONE',  #195 ) ;
#221 = CARTESIAN_POINT ( 'NONE',  ( 7.167812789541583740, -4.420906657957250019, 1.399999999999999911 ) ) ;
#222 = FACE_OUTER_BOUND ( 'NONE', #53, .T. ) ;
#223 = SHAPE_DEFINITION_REPRESENTATION ( #220, #346 ) ;
#224 = DIRECTION ( 'NONE',  ( -0.000000000000000000, 0.000000000000000000, 1.000000000000000000 ) ) ;
#225 = CARTESIAN_POINT ( 'NONE',  ( 0.000000000000000000, 0.000000000000000000, 1.399999999999999911 ) ) ;
#226 = CARTESIAN_POINT ( 'NONE',  ( -9.500000000000000000, 0.000000000000000000, 1.399999999999999911 ) ) ;
#227 = EDGE_CURVE ( 'NONE', #400, #273, #361, .T. ) ;
#228 = DIRECTION ( 'NONE',  ( 1.000000000000000000, 0.000000000000000000, 0.000000000000000000 ) ) ;
#229 = AXIS2_PLACEMENT_3D ( 'NONE', #332, #65, #417 ) ;
#230 = FACE_OUTER_BOUND ( 'NONE', #384, .T. ) ;
#231 = LINE ( 'NONE', #71, #160 ) ;
#232 = CARTESIAN_POINT ( 'NONE',  ( 3.167812789541583740, -4.420906657957250019, 0.000000000000000000 ) ) ;
#233 = LINE ( 'NONE', #159, #187 ) ;
#234 = MECHANICAL_CONTEXT ( 'NONE', #87, 'mechanical' ) ;
#235 = CARTESIAN_POINT ( 'NONE',  ( -9.500000000000000000, 0.000000000000000000, 1.399999999999999911 ) ) ;
#236 = VECTOR ( 'NONE', #155, 1000.000000000000000 ) ;
#237 = EDGE_CURVE ( 'NONE', #75, #368, #358, .T. ) ;
#238 = ORIENTED_EDGE ( 'NONE', *, *, #259, .T. ) ;
#239 = AXIS2_PLACEMENT_3D ( 'NONE', #40, #172, #335 ) ;
#240 = ORIENTED_EDGE ( 'NONE', *, *, #353, .T. ) ;
#241 = CARTESIAN_POINT ( 'NONE',  ( 0.000000000000000000, 0.000000000000000000, 1.399999999999999911 ) ) ;
#242 =( NAMED_UNIT ( * ) SI_UNIT ( $, .STERADIAN. ) SOLID_ANGLE_UNIT ( ) );
#243 = CC_DESIGN_PERSON_AND_ORGANIZATION_ASSIGNMENT ( #51, #180, ( #195 ) ) ;
#244 = ORIENTED_EDGE ( 'NONE', *, *, #19, .F. ) ;
#245 = PERSON_AND_ORGANIZATION_ROLE ( 'design_supplier' ) ;
#246 = AXIS2_PLACEMENT_3D ( 'NONE', #132, #257, #324 ) ;
#247 = EDGE_LOOP ( 'NONE', ( #181, #218, #322, #56 ) ) ;
#248 = CARTESIAN_POINT ( 'NONE',  ( 0.000000000000000000, 0.000000000000000000, 1.399999999999999911 ) ) ;
#249 = PERSON ( 'UNSPECIFIED', 'UNSPECIFIED', 'UNSPECIFIED', ('UNSPECIFIED'), ('UNSPECIFIED'), ('UNSPECIFIED') ) ;
#250 = EDGE_CURVE ( 'NONE', #400, #75, #77, .T. ) ;
#251 = ORIENTED_EDGE ( 'NONE', *, *, #173, .T. ) ;
#252 = APPROVAL_STATUS ( 'not_yet_approved' ) ;
#253 = DIRECTION ( 'NONE',  ( 1.000000000000000000, 1.734723475976807094E-15, 0.000000000000000000 ) ) ;
#254 = ORIENTED_EDGE ( 'NONE', *, *, #199, .F. ) ;
#255 = AXIS2_PLACEMENT_3D ( 'NONE', #25, #162, #294 ) ;
#256 = CARTESIAN_POINT ( 'NONE',  ( 0.000000000000000000, 0.000000000000000000, 1.399999999999999911 ) ) ;
#257 = DIRECTION ( 'NONE',  ( -0.000000000000000000, 0.000000000000000000, 1.000000000000000000 ) ) ;
#258 = CALENDAR_DATE ( 2023, 26, 9 ) ;
#259 = EDGE_CURVE ( 'NONE', #401, #317, #200, .T. ) ;
#260 = CYLINDRICAL_SURFACE ( 'NONE', #213, 4.425000000000000711 ) ;
#261 = CARTESIAN_POINT ( 'NONE',  ( -3.701351104664349467, -2.425000000000000266, 1.399999999999999911 ) ) ;
#262 = FACE_OUTER_BOUND ( 'NONE', #247, .T. ) ;
#263 = AXIS2_PLACEMENT_3D ( 'NONE', #6, #139, #293 ) ;
#264 = CARTESIAN_POINT ( 'NONE',  ( 0.000000000000000000, 0.000000000000000000, 0.000000000000000000 ) ) ;
#265 = DIRECTION ( 'NONE',  ( 1.000000000000000000, 0.000000000000000000, 0.000000000000000000 ) ) ;
#266 = EDGE_CURVE ( 'NONE', #148, #146, #271, .T. ) ;
#267 = PERSON_AND_ORGANIZATION_ROLE ( 'classification_officer' ) ;
#268 = DIRECTION ( 'NONE',  ( -0.000000000000000000, -0.000000000000000000, -1.000000000000000000 ) ) ;
#269 = EDGE_LOOP ( 'NONE', ( #24, #314, #254, #371 ) ) ;
#270 = AXIS2_PLACEMENT_3D ( 'NONE', #73, #387, #171 ) ;
#271 = CIRCLE ( 'NONE', #54, 9.500000000000000000 ) ;
#272 = EDGE_CURVE ( 'NONE', #273, #368, #182, .T. ) ;
#273 = VERTEX_POINT ( 'NONE', #320 ) ;
#274 = CIRCLE ( 'NONE', #246, 9.500000000000000000 ) ;
#275 = ADVANCED_FACE ( 'NONE', ( #100 ), #356, .F. ) ;
#276 = ORIENTED_EDGE ( 'NONE', *, *, #129, .F. ) ;
#277 = CARTESIAN_POINT ( 'NONE',  ( 5.238737920530097014, -7.924999999999999822, 0.000000000000000000 ) ) ;
#278 = CIRCLE ( 'NONE', #84, 9.500000000000000000 ) ;
#279 = CARTESIAN_POINT ( 'NONE',  ( 7.167812789541583740, -4.420906657957250019, 1.399999999999999911 ) ) ;
#280 = EDGE_CURVE ( 'NONE', #317, #79, #92, .T. ) ;
#281 = ORIENTED_EDGE ( 'NONE', *, *, #211, .F. ) ;
#282 = LINE ( 'NONE', #133, #326 ) ;
#283 = ORIENTED_EDGE ( 'NONE', *, *, #58, .F. ) ;
#284 = CARTESIAN_POINT ( 'NONE',  ( -4.425000000000000711, 0.000000000000000000, 1.399999999999999911 ) ) ;
#285 = PLANE ( 'NONE',  #229 ) ;
#286 = APPROVAL ( #252, 'UNSPECIFIED' ) ;
#287 = AXIS2_PLACEMENT_3D ( 'NONE', #32, #168, #38 ) ;
#288 = AXIS2_PLACEMENT_3D ( 'NONE', #66, #192, #167 ) ;
#289 = APPROVAL_PERSON_ORGANIZATION ( #126, #286, #124 ) ;
#290 = DIRECTION ( 'NONE',  ( 0.000000000000000000, -0.000000000000000000, -1.000000000000000000 ) ) ;
#291 = DIRECTION ( 'NONE',  ( -0.000000000000000000, -0.000000000000000000, -1.000000000000000000 ) ) ;
#292 = DIRECTION ( 'NONE',  ( -0.000000000000000000, 0.000000000000000000, 1.000000000000000000 ) ) ;
#293 = DIRECTION ( 'NONE',  ( 1.000000000000000000, 0.000000000000000000, 0.000000000000000000 ) ) ;
#294 = DIRECTION ( 'NONE',  ( 1.000000000000000000, 0.000000000000000000, 0.000000000000000000 ) ) ;
#295 = FACE_OUTER_BOUND ( 'NONE', #116, .T. ) ;
#296 = CIRCLE ( 'NONE', #121, 4.000000000000000000 ) ;
#297 = CIRCLE ( 'NONE', #349, 4.000000000000000000 ) ;
#298 = PERSON_AND_ORGANIZATION ( #249, #161 ) ;
#299 = CARTESIAN_POINT ( 'NONE',  ( 3.701351104664348579, -2.424999999999999378, 0.000000000000000000 ) ) ;
#300 = LINE ( 'NONE', #8, #85 ) ;
#301 = ORIENTED_EDGE ( 'NONE', *, *, #250, .F. ) ;
#302 = CC_DESIGN_PERSON_AND_ORGANIZATION_ASSIGNMENT ( #312, #20, ( #45 ) ) ;
#303 = CC_DESIGN_APPROVAL ( #340, ( #195 ) ) ;
#304 = ORIENTED_EDGE ( 'NONE', *, *, #179, .T. ) ;
#305 =( LENGTH_UNIT ( ) NAMED_UNIT ( * ) SI_UNIT ( .MILLI., .METRE. ) );
#306 = ORIENTED_EDGE ( 'NONE', *, *, #129, .T. ) ;
#307 = PERSON_AND_ORGANIZATION ( #249, #161 ) ;
#308 = ORIENTED_EDGE ( 'NONE', *, *, #343, .F. ) ;
#309 = COORDINATED_UNIVERSAL_TIME_OFFSET ( 7, 0, .BEHIND. ) ;
#310 = LOCAL_TIME ( 9, 42, 38.00000000000000000, #342 ) ;
#311 = ORIENTED_EDGE ( 'NONE', *, *, #179, .F. ) ;
#312 = PERSON_AND_ORGANIZATION ( #249, #161 ) ;
#313 = ORIENTED_EDGE ( 'NONE', *, *, #237, .T. ) ;
#314 = ORIENTED_EDGE ( 'NONE', *, *, #58, .T. ) ;
#315 = PRODUCT_RELATED_PRODUCT_CATEGORY ( 'detail', '', ( #334 ) ) ;
#316 = CLOSED_SHELL ( 'NONE', ( #122, #275, #7, #142, #44, #52, #396, #64, #376, #166, #37 ) ) ;
#317 = VERTEX_POINT ( 'NONE', #102 ) ;
#318 = CARTESIAN_POINT ( 'NONE',  ( 0.000000000000000000, 0.000000000000000000, 1.399999999999999911 ) ) ;
#319 = DIRECTION ( 'NONE',  ( -0.000000000000000000, -0.000000000000000000, -1.000000000000000000 ) ) ;
#320 = CARTESIAN_POINT ( 'NONE',  ( 4.425000000000000711, 5.419062086227039378E-16, 0.000000000000000000 ) ) ;
#321 = CC_DESIGN_PERSON_AND_ORGANIZATION_ASSIGNMENT ( #197, #49, ( #334 ) ) ;
#322 = ORIENTED_EDGE ( 'NONE', *, *, #156, .T. ) ;
#323 = DIRECTION ( 'NONE',  ( -0.000000000000000000, -0.000000000000000000, -1.000000000000000000 ) ) ;
#324 = DIRECTION ( 'NONE',  ( 1.000000000000000000, 0.000000000000000000, 0.000000000000000000 ) ) ;
#325 = VECTOR ( 'NONE', #2, 1000.000000000000000 ) ;
#326 = VECTOR ( 'NONE', #190, 1000.000000000000000 ) ;
#327 = CARTESIAN_POINT ( 'NONE',  ( -5.238737920530097014, -7.925000000000001599, 0.000000000000000000 ) ) ;
#328 = LINE ( 'NONE', #226, #4 ) ;
#329 = DIRECTION ( 'NONE',  ( -0.000000000000000000, -0.000000000000000000, -1.000000000000000000 ) ) ;
#330 = EDGE_CURVE ( 'NONE', #79, #273, #108, .T. ) ;
#331 = DATE_TIME_ROLE ( 'creation_date' ) ;
#332 = CARTESIAN_POINT ( 'NONE',  ( 0.000000000000000000, 0.000000000000000000, 1.399999999999999911 ) ) ;
#333 = CIRCLE ( 'NONE', #263, 9.500000000000000000 ) ;
#334 = PRODUCT ( '8.) Axle C-Clip 3.0', '8.) Axle C-Clip 3.0', '', ( #234 ) ) ;
#335 = DIRECTION ( 'NONE',  ( 1.000000000000000000, 0.000000000000000000, 0.000000000000000000 ) ) ;
#336 = EDGE_CURVE ( 'NONE', #42, #150, #23, .T. ) ;
#337 = EDGE_LOOP ( 'NONE', ( #283, #238, #128, #93 ) ) ;
#338 = COORDINATED_UNIVERSAL_TIME_OFFSET ( 7, 0, .BEHIND. ) ;
#339 = AXIS2_PLACEMENT_3D ( 'NONE', #221, #63, #363 ) ;
#340 = APPROVAL ( #14, 'UNSPECIFIED' ) ;
#341 = ORIENTED_EDGE ( 'NONE', *, *, #112, .T. ) ;
#342 = COORDINATED_UNIVERSAL_TIME_OFFSET ( 7, 0, .BEHIND. ) ;
#343 = EDGE_CURVE ( 'NONE', #191, #110, #297, .T. ) ;
#344 = EDGE_LOOP ( 'NONE', ( #203, #89, #251, #311 ) ) ;
#345 = DATE_TIME_ROLE ( 'classification_date' ) ;
#346 = ADVANCED_BREP_SHAPE_REPRESENTATION ( '8.) Axle C-Clip 3.0', ( #41, #219 ), #405 ) ;
#347 = VERTEX_POINT ( 'NONE', #232 ) ;
#348 = AXIS2_PLACEMENT_3D ( 'NONE', #410, #60, #83 ) ;
#349 = AXIS2_PLACEMENT_3D ( 'NONE', #33, #292, #27 ) ;
#350 = EDGE_LOOP ( 'NONE', ( #281, #415, #306, #57, #86, #11, #301, #374, #378 ) ) ;
#351 = CC_DESIGN_APPROVAL ( #286, ( #406 ) ) ;
#352 = DATE_AND_TIME ( #258, #310 ) ;
#353 = EDGE_CURVE ( 'NONE', #42, #9, #282, .T. ) ;
#354 = CARTESIAN_POINT ( 'NONE',  ( 4.425000000000000711, 5.419062086227039378E-16, 1.399999999999999911 ) ) ;
#355 = ORIENTED_EDGE ( 'NONE', *, *, #227, .T. ) ;
#356 = CYLINDRICAL_SURFACE ( 'NONE', #91, 4.425000000000000711 ) ;
#357 = DIRECTION ( 'NONE',  ( -0.000000000000000000, -0.000000000000000000, -1.000000000000000000 ) ) ;
#358 = LINE ( 'NONE', #284, #236 ) ;
#359 = CYLINDRICAL_SURFACE ( 'NONE', #114, 4.425000000000000711 ) ;
#360 = AXIS2_PLACEMENT_3D ( 'NONE', #202, #28, #265 ) ;
#361 = LINE ( 'NONE', #354, #325 ) ;
#362 = CARTESIAN_POINT ( 'NONE',  ( 7.167812789541583740, -4.420906657957250019, 0.000000000000000000 ) ) ;
#363 = DIRECTION ( 'NONE',  ( 1.000000000000000000, 1.734723475976807094E-15, 0.000000000000000000 ) ) ;
#364 = DIRECTION ( 'NONE',  ( -0.000000000000000000, -0.000000000000000000, -1.000000000000000000 ) ) ;
#365 = DATE_AND_TIME ( #404, #31 ) ;
#366 = CARTESIAN_POINT ( 'NONE',  ( -9.500000000000000000, 0.000000000000000000, 0.000000000000000000 ) ) ;
#367 = CC_DESIGN_PERSON_AND_ORGANIZATION_ASSIGNMENT ( #298, #267, ( #406 ) ) ;
#368 = VERTEX_POINT ( 'NONE', #416 ) ;
#369 = ORIENTED_EDGE ( 'NONE', *, *, #206, .F. ) ;
#370 = CARTESIAN_POINT ( 'NONE',  ( 0.000000000000000000, 0.000000000000000000, 0.000000000000000000 ) ) ;
#371 = ORIENTED_EDGE ( 'NONE', *, *, #353, .F. ) ;
#372 = DIRECTION ( 'NONE',  ( 1.000000000000000000, 0.000000000000000000, 0.000000000000000000 ) ) ;
#373 = DIRECTION ( 'NONE',  ( 0.000000000000000000, 0.000000000000000000, 1.000000000000000000 ) ) ;
#374 = ORIENTED_EDGE ( 'NONE', *, *, #109, .F. ) ;
#375 = APPROVAL_DATE_TIME ( #365, #340 ) ;
#376 = ADVANCED_FACE ( 'NONE', ( #262 ), #260, .F. ) ;
#377 = CIRCLE ( 'NONE', #74, 9.500000000000000000 ) ;
#378 = ORIENTED_EDGE ( 'NONE', *, *, #259, .F. ) ;
#379 = VERTEX_POINT ( 'NONE', #327 ) ;
#380 = ORIENTED_EDGE ( 'NONE', *, *, #227, .F. ) ;
#381 = CC_DESIGN_PERSON_AND_ORGANIZATION_ASSIGNMENT ( #149, #245, ( #45 ) ) ;
#382 = DIRECTION ( 'NONE',  ( -0.000000000000000000, 0.000000000000000000, 1.000000000000000000 ) ) ;
#383 = CIRCLE ( 'NONE', #339, 4.000000000000000000 ) ;
#384 = EDGE_LOOP ( 'NONE', ( #209, #111, #240, #174 ) ) ;
#385 = LOCAL_TIME ( 9, 42, 38.00000000000000000, #338 ) ;
#386 = CARTESIAN_POINT ( 'NONE',  ( -5.238737920530097014, -7.925000000000001599, 1.399999999999999911 ) ) ;
#387 = DIRECTION ( 'NONE',  ( -0.000000000000000000, 0.000000000000000000, 1.000000000000000000 ) ) ;
#388 = CARTESIAN_POINT ( 'NONE',  ( 0.000000000000000000, 0.000000000000000000, 1.399999999999999911 ) ) ;
#389 = DIRECTION ( 'NONE',  ( 0.000000000000000000, -0.000000000000000000, -1.000000000000000000 ) ) ;
#390 = CYLINDRICAL_SURFACE ( 'NONE', #130, 9.500000000000000000 ) ;
#391 = EDGE_CURVE ( 'NONE', #9, #148, #377, .T. ) ;
#392 = CYLINDRICAL_SURFACE ( 'NONE', #398, 4.000000000000000000 ) ;
#393 = AXIS2_PLACEMENT_3D ( 'NONE', #196, #290, #96 ) ;
#394 = DIRECTION ( 'NONE',  ( 1.000000000000000000, 0.000000000000000000, 0.000000000000000000 ) ) ;
#395 = FACE_OUTER_BOUND ( 'NONE', #214, .T. ) ;
#396 = ADVANCED_FACE ( 'NONE', ( #230 ), #390, .T. ) ;
#397 = UNCERTAINTY_MEASURE_WITH_UNIT (LENGTH_MEASURE( 1.000000000000000082E-05 ), #305, 'distance_accuracy_value', 'NONE');
#398 = AXIS2_PLACEMENT_3D ( 'NONE', #134, #268, #99 ) ;
#399 = CIRCLE ( 'NONE', #239, 4.425000000000000711 ) ;
#400 = VERTEX_POINT ( 'NONE', #12 ) ;
#401 = VERTEX_POINT ( 'NONE', #117 ) ;
#402 = DIRECTION ( 'NONE',  ( -1.000000000000000000, 0.000000000000000000, 0.000000000000000000 ) ) ;
#403 = EDGE_CURVE ( 'NONE', #141, #191, #278, .T. ) ;
#404 = CALENDAR_DATE ( 2023, 26, 9 ) ;
#405 =( GEOMETRIC_REPRESENTATION_CONTEXT ( 3 ) GLOBAL_UNCERTAINTY_ASSIGNED_CONTEXT ( ( #397 ) ) GLOBAL_UNIT_ASSIGNED_CONTEXT ( ( #305, #80, #242 ) ) REPRESENTATION_CONTEXT ( 'NONE', 'WORKASPACE' ) );
#406 = SECURITY_CLASSIFICATION ( '', '', #119 ) ;
#407 = CALENDAR_DATE ( 2023, 26, 9 ) ;
#408 = ORIENTED_EDGE ( 'NONE', *, *, #272, .T. ) ;
#409 = DIRECTION ( 'NONE',  ( 1.000000000000000000, 0.000000000000000000, 0.000000000000000000 ) ) ;
#410 = CARTESIAN_POINT ( 'NONE',  ( 0.000000000000000000, 0.000000000000000000, 0.000000000000000000 ) ) ;
#411 = AXIS2_PLACEMENT_3D ( 'NONE', #136, #414, #253 ) ;
#412 = DIRECTION ( 'NONE',  ( -1.000000000000000000, 0.000000000000000000, 0.000000000000000000 ) ) ;
#413 = ORIENTED_EDGE ( 'NONE', *, *, #272, .F. ) ;
#414 = DIRECTION ( 'NONE',  ( 0.000000000000000000, -0.000000000000000000, -1.000000000000000000 ) ) ;
#415 = ORIENTED_EDGE ( 'NONE', *, *, #336, .T. ) ;
#416 = CARTESIAN_POINT ( 'NONE',  ( -4.425000000000000711, 0.000000000000000000, 0.000000000000000000 ) ) ;
#417 = DIRECTION ( 'NONE',  ( 1.000000000000000000, 0.000000000000000000, 0.000000000000000000 ) ) ;
#418 = DIRECTION ( 'NONE',  ( -0.000000000000000000, -0.000000000000000000, -1.000000000000000000 ) ) ;
#419 = CARTESIAN_POINT ( 'NONE',  ( 3.167812789541583740, -4.420906657957250019, 1.399999999999999911 ) ) ;
#420 = DIRECTION ( 'NONE',  ( -0.000000000000000000, 0.000000000000000000, 1.000000000000000000 ) ) ;
ENDSEC;
END-ISO-10303-21;
