ISO-10303-21;
HEADER;
/* RV_Disc_D21.5mm_W6.8mm_P10mm.step 3D STEP model for use in ECAD systems
 * Copyright (C) 2018, kicad StepUp
 * 
 * This work is licensed under the [Creative Commons CC-BY-SA 4.0 License](https://creativecommons.org/licenses/by-sa/4.0/legalcode), 
 * with the following exception:
 * To the extent that the creation of electronic designs that use 'Licensed Material' can be considered to be 'Adapted Material', 
 * then the copyright holder waives article 3 of the license with respect to these designs and any generated files which use data provided 
 * as part of the 'Licensed Material'.
 * You are free to use the library data in your own projects without the obligation to share your project files under this or any other license agreement.
 * However, if you wish to redistribute these libraries, or parts thereof (including in modified form) as a collection then the exception above does not apply. 
 * Please refer to https://github.com/KiCad/kicad-packages3D/blob/master/LICENSE.md for further clarification of the exception.
 * Disclaimer of Warranties and Limitation of Liability.
 * These libraries are provided in the hope that they will be useful, but are provided without warranty of any kind, express or implied.
 * *USE 3D CAD DATA AT YOUR OWN RISK*
 * *DO NOT RELY UPON ANY INFORMATION FOUND HERE WITHOUT INDEPENDENT VERIFICATION.*
 * 
 */

FILE_DESCRIPTION(
/* description */ ('model of RV_Disc_D21.5mm_W6.8mm_P10mm'),
/* implementation_level */ '2;1');

FILE_NAME(
/* name */ 'RV_Disc_D21.5mm_W6.8mm_P10mm.step',
/* time_stamp */ '2018-11-11T21:05:52',
/* author */ ('kicad StepUp','ksu'),
/* organization */ ('FreeCAD'),
/* preprocessor_version */ 'OCC',
/* originating_system */ 'kicad StepUp',
/* authorisation */ '');

FILE_SCHEMA(('AUTOMOTIVE_DESIGN { 1 0 10303 214 1 1 1 1 }'));
ENDSEC;

DATA;
#1 = APPLICATION_PROTOCOL_DEFINITION('international standard',
'automotive_design',2000,#2);
#2 = APPLICATION_CONTEXT(
'core data for automotive mechanical design processes');
#3 = SHAPE_DEFINITION_REPRESENTATION(#4,#10);
#4 = PRODUCT_DEFINITION_SHAPE('','',#5);
#5 = PRODUCT_DEFINITION('design','',#6,#9);
#6 = PRODUCT_DEFINITION_FORMATION('','',#7);
#7 = PRODUCT('RV_Disc_D215mm_W68mm_P10mm','RV_Disc_D215mm_W68mm_P10mm',
'',(#8));
#8 = PRODUCT_CONTEXT('',#2,'mechanical');
#9 = PRODUCT_DEFINITION_CONTEXT('part definition',#2,'design');
#10 = ADVANCED_BREP_SHAPE_REPRESENTATION('',(#11,#15),#410);
#11 = AXIS2_PLACEMENT_3D('',#12,#13,#14);
#12 = CARTESIAN_POINT('',(0.E+000,0.E+000,0.E+000));
#13 = DIRECTION('',(0.E+000,0.E+000,1.));
#14 = DIRECTION('',(1.,0.E+000,-0.E+000));
#15 = MANIFOLD_SOLID_BREP('',#16);
#16 = CLOSED_SHELL('',(#17,#50,#165,#270,#279,#305,#314,#340,#366,#392,
#401));
#17 = ADVANCED_FACE('',(#18),#45,.T.);
#18 = FACE_BOUND('',#19,.F.);
#19 = EDGE_LOOP('',(#20,#30,#37,#38));
#20 = ORIENTED_EDGE('',*,*,#21,.T.);
#21 = EDGE_CURVE('',#22,#24,#26,.T.);
#22 = VERTEX_POINT('',#23);
#23 = CARTESIAN_POINT('',(15.75,-1.567073170732,10.78));
#24 = VERTEX_POINT('',#25);
#25 = CARTESIAN_POINT('',(15.75,-1.732926829268,10.78));
#26 = LINE('',#27,#28);
#27 = CARTESIAN_POINT('',(15.75,1.75,10.78));
#28 = VECTOR('',#29,1.);
#29 = DIRECTION('',(0.E+000,-1.,0.E+000));
#30 = ORIENTED_EDGE('',*,*,#31,.T.);
#31 = EDGE_CURVE('',#24,#24,#32,.T.);
#32 = CIRCLE('',#33,10.75);
#33 = AXIS2_PLACEMENT_3D('',#34,#35,#36);
#34 = CARTESIAN_POINT('',(5.,-1.732926829268,10.78));
#35 = DIRECTION('',(0.E+000,-1.,0.E+000));
#36 = DIRECTION('',(1.,0.E+000,0.E+000));
#37 = ORIENTED_EDGE('',*,*,#21,.F.);
#38 = ORIENTED_EDGE('',*,*,#39,.F.);
#39 = EDGE_CURVE('',#22,#22,#40,.T.);
#40 = CIRCLE('',#41,10.75);
#41 = AXIS2_PLACEMENT_3D('',#42,#43,#44);
#42 = CARTESIAN_POINT('',(5.,-1.567073170732,10.78));
#43 = DIRECTION('',(0.E+000,-1.,0.E+000));
#44 = DIRECTION('',(1.,0.E+000,0.E+000));
#45 = CYLINDRICAL_SURFACE('',#46,10.75);
#46 = AXIS2_PLACEMENT_3D('',#47,#48,#49);
#47 = CARTESIAN_POINT('',(5.,1.75,10.78));
#48 = DIRECTION('',(0.E+000,1.,0.E+000));
#49 = DIRECTION('',(1.,0.E+000,0.E+000));
#50 = ADVANCED_FACE('',(#51,#71),#160,.T.);
#51 = FACE_BOUND('',#52,.F.);
#52 = EDGE_LOOP('',(#53,#54,#63,#70));
#53 = ORIENTED_EDGE('',*,*,#39,.T.);
#54 = ORIENTED_EDGE('',*,*,#55,.T.);
#55 = EDGE_CURVE('',#22,#56,#58,.T.);
#56 = VERTEX_POINT('',#57);
#57 = CARTESIAN_POINT('',(12.432926829268,1.75,10.78));
#58 = CIRCLE('',#59,3.317073170732);
#59 = AXIS2_PLACEMENT_3D('',#60,#61,#62);
#60 = CARTESIAN_POINT('',(12.432926829268,-1.567073170732,10.78));
#61 = DIRECTION('',(0.E+000,0.E+000,1.));
#62 = DIRECTION('',(1.,0.E+000,0.E+000));
#63 = ORIENTED_EDGE('',*,*,#64,.F.);
#64 = EDGE_CURVE('',#56,#56,#65,.T.);
#65 = CIRCLE('',#66,7.432926829268);
#66 = AXIS2_PLACEMENT_3D('',#67,#68,#69);
#67 = CARTESIAN_POINT('',(5.,1.75,10.78));
#68 = DIRECTION('',(0.E+000,-1.,0.E+000));
#69 = DIRECTION('',(1.,0.E+000,0.E+000));
#70 = ORIENTED_EDGE('',*,*,#55,.F.);
#71 = FACE_BOUND('',#72,.F.);
#72 = EDGE_LOOP('',(#73,#106));
#73 = ORIENTED_EDGE('',*,*,#74,.T.);
#74 = EDGE_CURVE('',#75,#77,#79,.T.);
#75 = VERTEX_POINT('',#76);
#76 = CARTESIAN_POINT('',(0.45,0.E+000,1.476532513202));
#77 = VERTEX_POINT('',#78);
#78 = CARTESIAN_POINT('',(-0.243608090494,-0.378358425631,1.648794706052
));
#79 = B_SPLINE_CURVE_WITH_KNOTS('',7,(#80,#81,#82,#83,#84,#85,#86,#87,
#88,#89,#90,#91,#92,#93,#94,#95,#96,#97,#98,#99,#100,#101,#102,#103,
#104,#105),.UNSPECIFIED.,.F.,.F.,(8,6,6,6,8),(0.E+000,0.10400382545,
0.307394257064,0.524101368201,1.),.UNSPECIFIED.);
#80 = CARTESIAN_POINT('',(0.45,-5.551115123126E-017,1.476532513202));
#81 = CARTESIAN_POINT('',(0.45,-1.340369843547E-002,1.468534749686));
#82 = CARTESIAN_POINT('',(0.449534214118,-2.687919134532E-002,
1.460826232751));
#83 = CARTESIAN_POINT('',(0.448593671484,-4.040921199445E-002,
1.453421708546));
#84 = CARTESIAN_POINT('',(0.447169870648,-5.397493019432E-002,
1.446335991848));
#85 = CARTESIAN_POINT('',(0.44525511867,-6.755596038943E-002,
1.439583736843));
#86 = CARTESIAN_POINT('',(0.442842870208,-8.113036974382E-002,
1.433179207899));
#87 = CARTESIAN_POINT('',(0.434227861251,-0.121162023243,1.415318019437)
);
#88 = CARTESIAN_POINT('',(0.426605071386,-0.147537229488,1.404880520888)
);
#89 = CARTESIAN_POINT('',(0.417021870171,-0.173621259593,1.3959283906));
#90 = CARTESIAN_POINT('',(0.405464460201,-0.199213600296,1.388554037987)
);
#91 = CARTESIAN_POINT('',(0.391950902751,-0.22410048841,1.382830606518)
);
#92 = CARTESIAN_POINT('',(0.376538947015,-0.248063128804,1.378805134253)
);
#93 = CARTESIAN_POINT('',(0.341002294714,-0.295202983025,1.374026826867)
);
#94 = CARTESIAN_POINT('',(0.32063056315,-0.318232567299,1.373504944563)
);
#95 = CARTESIAN_POINT('',(0.298344730526,-0.339712089898,1.374945202235)
);
#96 = CARTESIAN_POINT('',(0.274318086692,-0.359407585007,1.378321712075)
);
#97 = CARTESIAN_POINT('',(0.248762169084,-0.377120033922,1.383570691252)
);
#98 = CARTESIAN_POINT('',(0.221917786331,-0.392691702674,1.390597589451)
);
#99 = CARTESIAN_POINT('',(0.13283842857,-0.435265509272,1.418360442677)
);
#100 = CARTESIAN_POINT('',(6.637660482672E-002,-0.45380577159,
1.445534284078));
#101 = CARTESIAN_POINT('',(-2.187261409331E-003,-0.460040809337,
1.479543379002));
#102 = CARTESIAN_POINT('',(-6.953110628452E-002,-0.454220850998,
1.518346800554));
#103 = CARTESIAN_POINT('',(-0.133198808128,-0.437634357318,
1.560293914881));
#104 = CARTESIAN_POINT('',(-0.191568643611,-0.411864301083,
1.604079709388));
#105 = CARTESIAN_POINT('',(-0.243608090494,-0.378358425631,
1.648794706052));
#106 = ORIENTED_EDGE('',*,*,#107,.T.);
#107 = EDGE_CURVE('',#77,#75,#108,.T.);
#108 = B_SPLINE_CURVE_WITH_KNOTS('',8,(#109,#110,#111,#112,#113,#114,
#115,#116,#117,#118,#119,#120,#121,#122,#123,#124,#125,#126,#127,
#128,#129,#130,#131,#132,#133,#134,#135,#136,#137,#138,#139,#140,
#141,#142,#143,#144,#145,#146,#147,#148,#149,#150,#151,#152,#153,
#154,#155,#156,#157,#158,#159),.UNSPECIFIED.,.F.,.F.,(9,7,7,7,7,7,7,
9),(0.E+000,9.894446733877E-002,0.351922766669,0.407486092449,
0.501355585952,0.705132837787,0.802947662162,1.),.UNSPECIFIED.);
#109 = CARTESIAN_POINT('',(-0.243608090494,-0.378358425631,
1.648794706052));
#110 = CARTESIAN_POINT('',(-0.262960182384,-0.365898478044,
1.665423028914));
#111 = CARTESIAN_POINT('',(-0.281469938683,-0.352380705787,
1.682190290204));
#112 = CARTESIAN_POINT('',(-0.299087893007,-0.337869982416,
1.699055285986));
#113 = CARTESIAN_POINT('',(-0.315769408106,-0.322430805589,
1.715979667229));
#114 = CARTESIAN_POINT('',(-0.331474110513,-0.306127157647,1.73292732606
));
#115 = CARTESIAN_POINT('',(-0.346165325195,-0.289022366205,
1.749863782014));
#116 = CARTESIAN_POINT('',(-0.359809510212,-0.271178964735,
1.766755568284));
#117 = CARTESIAN_POINT('',(-0.404504533146,-0.205306110413,
1.826559284909));
#118 = CARTESIAN_POINT('',(-0.429548938798,-0.153582939391,
1.868990761901));
#119 = CARTESIAN_POINT('',(-0.447061587255,-9.847678018515E-002,
1.910369857913));
#120 = CARTESIAN_POINT('',(-0.456601457479,-4.09742144458E-002,
1.95014642136));
#121 = CARTESIAN_POINT('',(-0.457761398103,1.785329051072E-002,
1.987653036125));
#122 = CARTESIAN_POINT('',(-0.450197542944,7.681593306848E-002,
2.022038248325));
#123 = CARTESIAN_POINT('',(-0.433670033885,0.134580159958,2.052205104041
));
#124 = CARTESIAN_POINT('',(-0.402489385242,0.201692568675,2.082160204395
));
#125 = CARTESIAN_POINT('',(-0.396440328247,0.213641920141,2.087282211785
));
#126 = CARTESIAN_POINT('',(-0.389957801094,0.225437207075,2.092116854443
));
#127 = CARTESIAN_POINT('',(-0.383043212051,0.23705992779,2.096648437772)
);
#128 = CARTESIAN_POINT('',(-0.375699125533,0.248490774121,2.100860739094
));
#129 = CARTESIAN_POINT('',(-0.367929469402,0.25970976331,2.104737228146)
);
#130 = CARTESIAN_POINT('',(-0.359739742266,0.270696369897,2.108261287578
));
#131 = CARTESIAN_POINT('',(-0.33660399543,0.299562630524,2.116746782956)
);
#132 = CARTESIAN_POINT('',(-0.32089094342,0.316974678421,2.121024827676)
);
#133 = CARTESIAN_POINT('',(-0.304035105343,0.33356177427,2.124170119715)
);
#134 = CARTESIAN_POINT('',(-0.286088914115,0.349217527657,2.126104570436
));
#135 = CARTESIAN_POINT('',(-0.267122828573,0.363836760519,2.126757678155
));
#136 = CARTESIAN_POINT('',(-0.247226846382,0.377319910904,2.126072500871
));
#137 = CARTESIAN_POINT('',(-0.226510896267,0.389578264762,2.12401237405)
);
#138 = CARTESIAN_POINT('',(-0.158633035698,0.424336410271,2.113091940471
));
#139 = CARTESIAN_POINT('',(-0.108686773462,0.442134960588,2.09905834954)
);
#140 = CARTESIAN_POINT('',(-5.690122382435E-002,0.45290877093,
2.078326450988));
#141 = CARTESIAN_POINT('',(-5.007699051501E-003,0.456525004822,
2.051562482974));
#142 = CARTESIAN_POINT('',(4.561751051599E-002,0.453480168033,
2.019998184798));
#143 = CARTESIAN_POINT('',(9.399403032146E-002,0.444481972601,
1.984947758698));
#144 = CARTESIAN_POINT('',(0.13946813654,0.430318302588,1.947608189833)
);
#145 = CARTESIAN_POINT('',(0.201890909657,0.40277751271,1.890407569571)
);
#146 = CARTESIAN_POINT('',(0.221431663864,0.392796928867,1.871503756939)
);
#147 = CARTESIAN_POINT('',(0.240239328057,0.381828160165,1.85233296081)
);
#148 = CARTESIAN_POINT('',(0.258288635365,0.369925603337,1.832973401671)
);
#149 = CARTESIAN_POINT('',(0.275556356577,0.35713841864,1.81349719501));
#150 = CARTESIAN_POINT('',(0.292020228005,0.343511039977,1.793971079005)
);
#151 = CARTESIAN_POINT('',(0.307657879331,0.32908368502,1.774457142222)
);
#152 = CARTESIAN_POINT('',(0.352236611338,0.28329027977,1.715843567946)
);
#153 = CARTESIAN_POINT('',(0.378561567475,0.24960744764,1.676982342862)
);
#154 = CARTESIAN_POINT('',(0.401245109593,0.213136917438,1.638890905705)
);
#155 = CARTESIAN_POINT('',(0.420049021732,0.174147536614,1.602022590459)
);
#156 = CARTESIAN_POINT('',(0.434674826847,0.132931287116,1.566847766543)
);
#157 = CARTESIAN_POINT('',(0.444778862832,8.984398843476E-002,
1.533863201752));
#158 = CARTESIAN_POINT('',(0.45,4.533986815388E-002,1.503586057049));
#159 = CARTESIAN_POINT('',(0.45,-5.551115123126E-017,1.476532513202));
#160 = TOROIDAL_SURFACE('',#161,7.432926829268,3.317073170732);
#161 = AXIS2_PLACEMENT_3D('',#162,#163,#164);
#162 = CARTESIAN_POINT('',(5.,-1.567073170732,10.78));
#163 = DIRECTION('',(0.E+000,1.,0.E+000));
#164 = DIRECTION('',(1.,0.E+000,0.E+000));
#165 = ADVANCED_FACE('',(#166,#186),#265,.T.);
#166 = FACE_BOUND('',#167,.T.);
#167 = EDGE_LOOP('',(#168,#169,#178,#185));
#168 = ORIENTED_EDGE('',*,*,#31,.T.);
#169 = ORIENTED_EDGE('',*,*,#170,.T.);
#170 = EDGE_CURVE('',#24,#171,#173,.T.);
#171 = VERTEX_POINT('',#172);
#172 = CARTESIAN_POINT('',(12.432926829268,-5.05,10.78));
#173 = CIRCLE('',#174,3.317073170732);
#174 = AXIS2_PLACEMENT_3D('',#175,#176,#177);
#175 = CARTESIAN_POINT('',(12.432926829268,-1.732926829268,10.78));
#176 = DIRECTION('',(0.E+000,0.E+000,-1.));
#177 = DIRECTION('',(1.,0.E+000,0.E+000));
#178 = ORIENTED_EDGE('',*,*,#179,.F.);
#179 = EDGE_CURVE('',#171,#171,#180,.T.);
#180 = CIRCLE('',#181,7.432926829268);
#181 = AXIS2_PLACEMENT_3D('',#182,#183,#184);
#182 = CARTESIAN_POINT('',(5.,-5.05,10.78));
#183 = DIRECTION('',(0.E+000,-1.,0.E+000));
#184 = DIRECTION('',(1.,0.E+000,0.E+000));
#185 = ORIENTED_EDGE('',*,*,#170,.F.);
#186 = FACE_BOUND('',#187,.T.);
#187 = EDGE_LOOP('',(#188,#218));
#188 = ORIENTED_EDGE('',*,*,#189,.T.);
#189 = EDGE_CURVE('',#190,#192,#194,.T.);
#190 = VERTEX_POINT('',#191);
#191 = CARTESIAN_POINT('',(10.45,-3.3,1.97349630796));
#192 = VERTEX_POINT('',#193);
#193 = CARTESIAN_POINT('',(9.651045160407,-3.015868833239,1.375385433073
));
#194 = B_SPLINE_CURVE_WITH_KNOTS('',8,(#195,#196,#197,#198,#199,#200,
#201,#202,#203,#204,#205,#206,#207,#208,#209,#210,#211,#212,#213,
#214,#215,#216,#217),.UNSPECIFIED.,.F.,.F.,(9,7,7,9),(0.E+000,
0.254670177572,0.701786131801,1.),.UNSPECIFIED.);
#195 = CARTESIAN_POINT('',(10.45,-3.3,1.97349630796));
#196 = CARTESIAN_POINT('',(10.45,-3.266338840762,1.952277826421));
#197 = CARTESIAN_POINT('',(10.44712236217,-3.232896657344,1.930103315714
));
#198 = CARTESIAN_POINT('',(10.441432545498,-3.199901150048,
1.907139632699));
#199 = CARTESIAN_POINT('',(10.433001593374,-3.167570103273,
1.883532442353));
#200 = CARTESIAN_POINT('',(10.421906732013,-3.136113734179,
1.859410869756));
#201 = CARTESIAN_POINT('',(10.408231968872,-3.105737041341,
1.834892152071));
#202 = CARTESIAN_POINT('',(10.392068691063,-3.076642153411,
1.810086290525));
#203 = CARTESIAN_POINT('',(10.340944384691,-3.000554129045,
1.741234336937));
#204 = CARTESIAN_POINT('',(10.301069011224,-2.956740323671,
1.696895518481));
#205 = CARTESIAN_POINT('',(10.254396348168,-2.918531435059,
1.652560568694));
#206 = CARTESIAN_POINT('',(10.201500277326,-2.887061331021,
1.608797179981));
#207 = CARTESIAN_POINT('',(10.143249583639,-2.86360994756,1.566369138498
));
#208 = CARTESIAN_POINT('',(10.080927002789,-2.849443770642,
1.526252487684));
#209 = CARTESIAN_POINT('',(10.016327405736,-2.845617895029,
1.489727733338));
#210 = CARTESIAN_POINT('',(9.908541341171,-2.857262046925,1.437200599522
));
#211 = CARTESIAN_POINT('',(9.865565049542,-2.866711268521,1.418500868552
));
#212 = CARTESIAN_POINT('',(9.823484361105,-2.881011670567,1.402549844683
));
#213 = CARTESIAN_POINT('',(9.783055309432,-2.900055242479,1.389744388392
));
#214 = CARTESIAN_POINT('',(9.745003551254,-2.923565919025,1.380427056111
));
#215 = CARTESIAN_POINT('',(9.70998317612,-2.951108713133,1.374858783924)
);
#216 = CARTESIAN_POINT('',(9.678535116795,-2.982107125817,1.373183609616
));
#217 = CARTESIAN_POINT('',(9.651045160407,-3.015868833239,1.375385433073
));
#218 = ORIENTED_EDGE('',*,*,#219,.T.);
#219 = EDGE_CURVE('',#192,#190,#220,.T.);
#220 = B_SPLINE_CURVE_WITH_KNOTS('',7,(#221,#222,#223,#224,#225,#226,
#227,#228,#229,#230,#231,#232,#233,#234,#235,#236,#237,#238,#239,
#240,#241,#242,#243,#244,#245,#246,#247,#248,#249,#250,#251,#252,
#253,#254,#255,#256,#257,#258,#259,#260,#261,#262,#263,#264),
.UNSPECIFIED.,.F.,.F.,(8,6,6,6,6,6,6,8),(0.E+000,0.19467906355,
0.389538117707,0.573655890269,0.723668624409,0.813613287821,
0.867171859715,1.),.UNSPECIFIED.);
#221 = CARTESIAN_POINT('',(9.651045160407,-3.015868833239,1.375385433073
));
#222 = CARTESIAN_POINT('',(9.618781232632,-3.055493679291,1.377969630443
));
#223 = CARTESIAN_POINT('',(9.592072437822,-3.099017223457,1.386006625671
));
#224 = CARTESIAN_POINT('',(9.571603451153,-3.145233807475,1.399475690332
));
#225 = CARTESIAN_POINT('',(9.557556225498,-3.192850666448,1.418006921077
));
#226 = CARTESIAN_POINT('',(9.549741322275,-3.240757147943,1.441013233832
));
#227 = CARTESIAN_POINT('',(9.547794965744,-3.288068848616,1.467832357215
));
#228 = CARTESIAN_POINT('',(9.554797056354,-3.380187455269,1.527814172795
));
#229 = CARTESIAN_POINT('',(9.563757179721,-3.425009566288,1.560994195026
));
#230 = CARTESIAN_POINT('',(9.577763825449,-3.467966868701,1.596746787099
));
#231 = CARTESIAN_POINT('',(9.596402665693,-3.508602148082,1.634479624928
));
#232 = CARTESIAN_POINT('',(9.619307188342,-3.546559050691,1.673633644206
));
#233 = CARTESIAN_POINT('',(9.646186185061,-3.581522046482,1.713675120402
));
#234 = CARTESIAN_POINT('',(9.705779805728,-3.643024040166,1.792212763063
));
#235 = CARTESIAN_POINT('',(9.738052472166,-3.669881579465,1.830621931188
));
#236 = CARTESIAN_POINT('',(9.773483356275,-3.693468413441,1.8688599632)
);
#237 = CARTESIAN_POINT('',(9.811921674449,-3.713423769556,1.906408067716
));
#238 = CARTESIAN_POINT('',(9.853167046047,-3.729272402127,1.942595945033
));
#239 = CARTESIAN_POINT('',(9.896897515882,-3.740445127832,1.976599567554
));
#240 = CARTESIAN_POINT('',(9.979812429971,-3.751111025014,2.032665579183
));
#241 = CARTESIAN_POINT('',(10.018388675944,-3.752390784088,
2.055806962816));
#242 = CARTESIAN_POINT('',(10.057748889087,-3.749775341848,2.07621753903
));
#243 = CARTESIAN_POINT('',(10.097227767203,-3.743021425954,
2.093274069452));
#244 = CARTESIAN_POINT('',(10.136088178708,-3.732074525161,
2.106538548005));
#245 = CARTESIAN_POINT('',(10.173580778989,-3.717100344116,
2.115818852009));
#246 = CARTESIAN_POINT('',(10.23029456254,-3.687350850533,2.124397823128
));
#247 = CARTESIAN_POINT('',(10.250832463029,-3.674890486171,
2.126206983239));
#248 = CARTESIAN_POINT('',(10.270513928878,-3.661199895854,
2.126622764455));
#249 = CARTESIAN_POINT('',(10.289226571275,-3.646376279517,
2.125689038496));
#250 = CARTESIAN_POINT('',(10.306880563533,-3.630528378869,
2.123471665674));
#251 = CARTESIAN_POINT('',(10.323407622855,-3.613769777428,
2.120049779692));
#252 = CARTESIAN_POINT('',(10.347901734834,-3.585757341864,
2.112802065807));
#253 = CARTESIAN_POINT('',(10.356627363299,-3.575018699437,
2.109699534839));
#254 = CARTESIAN_POINT('',(10.364927056192,-3.56401939653,2.106217061146
));
#255 = CARTESIAN_POINT('',(10.372793365781,-3.552782227443,
2.102372703723));
#256 = CARTESIAN_POINT('',(10.380220910924,-3.541329409528,
2.098184606034));
#257 = CARTESIAN_POINT('',(10.387206070068,-3.529682335217,
2.093670603093));
#258 = CARTESIAN_POINT('',(10.40996772458,-3.488544580253,2.076887088131
));
#259 = CARTESIAN_POINT('',(10.42345085511,-3.458164524952,2.063029839987
));
#260 = CARTESIAN_POINT('',(10.434170213266,-3.427023331537,
2.047536107665));
#261 = CARTESIAN_POINT('',(10.442139714586,-3.395399135804,
2.030644099283));
#262 = CARTESIAN_POINT('',(10.447398719319,-3.363542286648,2.01256149514
));
#263 = CARTESIAN_POINT('',(10.45,-3.331675797712,1.993463306847));
#264 = CARTESIAN_POINT('',(10.45,-3.3,1.97349630796));
#265 = TOROIDAL_SURFACE('',#266,7.432926829268,3.317073170732);
#266 = AXIS2_PLACEMENT_3D('',#267,#268,#269);
#267 = CARTESIAN_POINT('',(5.,-1.732926829268,10.78));
#268 = DIRECTION('',(0.E+000,-1.,0.E+000));
#269 = DIRECTION('',(1.,0.E+000,0.E+000));
#270 = ADVANCED_FACE('',(#271),#274,.F.);
#271 = FACE_BOUND('',#272,.F.);
#272 = EDGE_LOOP('',(#273));
#273 = ORIENTED_EDGE('',*,*,#64,.T.);
#274 = PLANE('',#275);
#275 = AXIS2_PLACEMENT_3D('',#276,#277,#278);
#276 = CARTESIAN_POINT('',(5.,1.75,10.78));
#277 = DIRECTION('',(-0.E+000,-1.,-0.E+000));
#278 = DIRECTION('',(0.E+000,0.E+000,-1.));
#279 = ADVANCED_FACE('',(#280),#300,.T.);
#280 = FACE_BOUND('',#281,.T.);
#281 = EDGE_LOOP('',(#282,#283,#291,#298,#299));
#282 = ORIENTED_EDGE('',*,*,#107,.T.);
#283 = ORIENTED_EDGE('',*,*,#284,.T.);
#284 = EDGE_CURVE('',#75,#285,#287,.T.);
#285 = VERTEX_POINT('',#286);
#286 = CARTESIAN_POINT('',(0.45,0.E+000,-2.82));
#287 = LINE('',#288,#289);
#288 = CARTESIAN_POINT('',(0.45,0.E+000,10.78));
#289 = VECTOR('',#290,1.);
#290 = DIRECTION('',(-0.E+000,-0.E+000,-1.));
#291 = ORIENTED_EDGE('',*,*,#292,.T.);
#292 = EDGE_CURVE('',#285,#285,#293,.T.);
#293 = CIRCLE('',#294,0.45);
#294 = AXIS2_PLACEMENT_3D('',#295,#296,#297);
#295 = CARTESIAN_POINT('',(0.E+000,0.E+000,-2.82));
#296 = DIRECTION('',(0.E+000,0.E+000,1.));
#297 = DIRECTION('',(1.,0.E+000,0.E+000));
#298 = ORIENTED_EDGE('',*,*,#284,.F.);
#299 = ORIENTED_EDGE('',*,*,#74,.T.);
#300 = CYLINDRICAL_SURFACE('',#301,0.45);
#301 = AXIS2_PLACEMENT_3D('',#302,#303,#304);
#302 = CARTESIAN_POINT('',(0.E+000,0.E+000,10.78));
#303 = DIRECTION('',(0.E+000,0.E+000,1.));
#304 = DIRECTION('',(1.,0.E+000,0.E+000));
#305 = ADVANCED_FACE('',(#306),#309,.T.);
#306 = FACE_BOUND('',#307,.T.);
#307 = EDGE_LOOP('',(#308));
#308 = ORIENTED_EDGE('',*,*,#179,.T.);
#309 = PLANE('',#310);
#310 = AXIS2_PLACEMENT_3D('',#311,#312,#313);
#311 = CARTESIAN_POINT('',(5.,-5.05,10.78));
#312 = DIRECTION('',(-0.E+000,-1.,-0.E+000));
#313 = DIRECTION('',(0.E+000,0.E+000,-1.));
#314 = ADVANCED_FACE('',(#315),#335,.T.);
#315 = FACE_BOUND('',#316,.T.);
#316 = EDGE_LOOP('',(#317,#318,#326,#333,#334));
#317 = ORIENTED_EDGE('',*,*,#189,.F.);
#318 = ORIENTED_EDGE('',*,*,#319,.T.);
#319 = EDGE_CURVE('',#190,#320,#322,.T.);
#320 = VERTEX_POINT('',#321);
#321 = CARTESIAN_POINT('',(10.45,-3.3,-2.82));
#322 = LINE('',#323,#324);
#323 = CARTESIAN_POINT('',(10.45,-3.3,10.78));
#324 = VECTOR('',#325,1.);
#325 = DIRECTION('',(-0.E+000,-0.E+000,-1.));
#326 = ORIENTED_EDGE('',*,*,#327,.T.);
#327 = EDGE_CURVE('',#320,#320,#328,.T.);
#328 = CIRCLE('',#329,0.45);
#329 = AXIS2_PLACEMENT_3D('',#330,#331,#332);
#330 = CARTESIAN_POINT('',(10.,-3.3,-2.82));
#331 = DIRECTION('',(0.E+000,0.E+000,1.));
#332 = DIRECTION('',(1.,0.E+000,0.E+000));
#333 = ORIENTED_EDGE('',*,*,#319,.F.);
#334 = ORIENTED_EDGE('',*,*,#219,.F.);
#335 = CYLINDRICAL_SURFACE('',#336,0.45);
#336 = AXIS2_PLACEMENT_3D('',#337,#338,#339);
#337 = CARTESIAN_POINT('',(10.,-3.3,10.78));
#338 = DIRECTION('',(0.E+000,0.E+000,1.));
#339 = DIRECTION('',(1.,0.E+000,0.E+000));
#340 = ADVANCED_FACE('',(#341),#361,.T.);
#341 = FACE_BOUND('',#342,.F.);
#342 = EDGE_LOOP('',(#343,#352,#353,#354));
#343 = ORIENTED_EDGE('',*,*,#344,.F.);
#344 = EDGE_CURVE('',#285,#345,#347,.T.);
#345 = VERTEX_POINT('',#346);
#346 = CARTESIAN_POINT('',(0.27,0.E+000,-3.));
#347 = CIRCLE('',#348,0.18);
#348 = AXIS2_PLACEMENT_3D('',#349,#350,#351);
#349 = CARTESIAN_POINT('',(0.27,0.E+000,-2.82));
#350 = DIRECTION('',(-0.E+000,1.,0.E+000));
#351 = DIRECTION('',(1.,0.E+000,0.E+000));
#352 = ORIENTED_EDGE('',*,*,#292,.T.);
#353 = ORIENTED_EDGE('',*,*,#344,.T.);
#354 = ORIENTED_EDGE('',*,*,#355,.F.);
#355 = EDGE_CURVE('',#345,#345,#356,.T.);
#356 = CIRCLE('',#357,0.27);
#357 = AXIS2_PLACEMENT_3D('',#358,#359,#360);
#358 = CARTESIAN_POINT('',(0.E+000,0.E+000,-3.));
#359 = DIRECTION('',(0.E+000,0.E+000,1.));
#360 = DIRECTION('',(1.,0.E+000,0.E+000));
#361 = TOROIDAL_SURFACE('',#362,0.27,0.18);
#362 = AXIS2_PLACEMENT_3D('',#363,#364,#365);
#363 = CARTESIAN_POINT('',(0.E+000,0.E+000,-2.82));
#364 = DIRECTION('',(-0.E+000,-0.E+000,-1.));
#365 = DIRECTION('',(1.,0.E+000,0.E+000));
#366 = ADVANCED_FACE('',(#367),#387,.T.);
#367 = FACE_BOUND('',#368,.F.);
#368 = EDGE_LOOP('',(#369,#378,#379,#380));
#369 = ORIENTED_EDGE('',*,*,#370,.F.);
#370 = EDGE_CURVE('',#320,#371,#373,.T.);
#371 = VERTEX_POINT('',#372);
#372 = CARTESIAN_POINT('',(10.27,-3.3,-3.));
#373 = CIRCLE('',#374,0.18);
#374 = AXIS2_PLACEMENT_3D('',#375,#376,#377);
#375 = CARTESIAN_POINT('',(10.27,-3.3,-2.82));
#376 = DIRECTION('',(-0.E+000,1.,0.E+000));
#377 = DIRECTION('',(1.,0.E+000,0.E+000));
#378 = ORIENTED_EDGE('',*,*,#327,.T.);
#379 = ORIENTED_EDGE('',*,*,#370,.T.);
#380 = ORIENTED_EDGE('',*,*,#381,.F.);
#381 = EDGE_CURVE('',#371,#371,#382,.T.);
#382 = CIRCLE('',#383,0.27);
#383 = AXIS2_PLACEMENT_3D('',#384,#385,#386);
#384 = CARTESIAN_POINT('',(10.,-3.3,-3.));
#385 = DIRECTION('',(0.E+000,0.E+000,1.));
#386 = DIRECTION('',(1.,0.E+000,0.E+000));
#387 = TOROIDAL_SURFACE('',#388,0.27,0.18);
#388 = AXIS2_PLACEMENT_3D('',#389,#390,#391);
#389 = CARTESIAN_POINT('',(10.,-3.3,-2.82));
#390 = DIRECTION('',(-0.E+000,-0.E+000,-1.));
#391 = DIRECTION('',(1.,0.E+000,0.E+000));
#392 = ADVANCED_FACE('',(#393),#396,.F.);
#393 = FACE_BOUND('',#394,.F.);
#394 = EDGE_LOOP('',(#395));
#395 = ORIENTED_EDGE('',*,*,#355,.T.);
#396 = PLANE('',#397);
#397 = AXIS2_PLACEMENT_3D('',#398,#399,#400);
#398 = CARTESIAN_POINT('',(-1.18701400394E-017,2.911085817041E-017,-3.)
);
#399 = DIRECTION('',(0.E+000,0.E+000,1.));
#400 = DIRECTION('',(1.,0.E+000,0.E+000));
#401 = ADVANCED_FACE('',(#402),#405,.F.);
#402 = FACE_BOUND('',#403,.F.);
#403 = EDGE_LOOP('',(#404));
#404 = ORIENTED_EDGE('',*,*,#381,.T.);
#405 = PLANE('',#406);
#406 = AXIS2_PLACEMENT_3D('',#407,#408,#409);
#407 = CARTESIAN_POINT('',(10.,-3.3,-3.));
#408 = DIRECTION('',(0.E+000,0.E+000,1.));
#409 = DIRECTION('',(1.,0.E+000,0.E+000));
#410 = ( GEOMETRIC_REPRESENTATION_CONTEXT(3)
GLOBAL_UNCERTAINTY_ASSIGNED_CONTEXT((#414)) GLOBAL_UNIT_ASSIGNED_CONTEXT
((#411,#412,#413)) REPRESENTATION_CONTEXT('Context #1',
'3D Context with UNIT and UNCERTAINTY') );
#411 = ( LENGTH_UNIT() NAMED_UNIT(*) SI_UNIT(.MILLI.,.METRE.) );
#412 = ( NAMED_UNIT(*) PLANE_ANGLE_UNIT() SI_UNIT($,.RADIAN.) );
#413 = ( NAMED_UNIT(*) SI_UNIT($,.STERADIAN.) SOLID_ANGLE_UNIT() );
#414 = UNCERTAINTY_MEASURE_WITH_UNIT(LENGTH_MEASURE(1.E-007),#411,
'distance_accuracy_value','confusion accuracy');
#415 = PRODUCT_RELATED_PRODUCT_CATEGORY('part',$,(#7));
#416 = MECHANICAL_DESIGN_GEOMETRIC_PRESENTATION_REPRESENTATION('',(#417,
#425,#432,#439,#446,#454,#461,#468,#475,#482,#489),#410);
#417 = STYLED_ITEM('color',(#418),#17);
#418 = PRESENTATION_STYLE_ASSIGNMENT((#419));
#419 = SURFACE_STYLE_USAGE(.BOTH.,#420);
#420 = SURFACE_SIDE_STYLE('',(#421));
#421 = SURFACE_STYLE_FILL_AREA(#422);
#422 = FILL_AREA_STYLE('',(#423));
#423 = FILL_AREA_STYLE_COLOUR('',#424);
#424 = COLOUR_RGB('',0.136999994516,0.402000010014,0.726999998093);
#425 = STYLED_ITEM('color',(#426),#50);
#426 = PRESENTATION_STYLE_ASSIGNMENT((#427));
#427 = SURFACE_STYLE_USAGE(.BOTH.,#428);
#428 = SURFACE_SIDE_STYLE('',(#429));
#429 = SURFACE_STYLE_FILL_AREA(#430);
#430 = FILL_AREA_STYLE('',(#431));
#431 = FILL_AREA_STYLE_COLOUR('',#424);
#432 = STYLED_ITEM('color',(#433),#165);
#433 = PRESENTATION_STYLE_ASSIGNMENT((#434));
#434 = SURFACE_STYLE_USAGE(.BOTH.,#435);
#435 = SURFACE_SIDE_STYLE('',(#436));
#436 = SURFACE_STYLE_FILL_AREA(#437);
#437 = FILL_AREA_STYLE('',(#438));
#438 = FILL_AREA_STYLE_COLOUR('',#424);
#439 = STYLED_ITEM('color',(#440),#270);
#440 = PRESENTATION_STYLE_ASSIGNMENT((#441));
#441 = SURFACE_STYLE_USAGE(.BOTH.,#442);
#442 = SURFACE_SIDE_STYLE('',(#443));
#443 = SURFACE_STYLE_FILL_AREA(#444);
#444 = FILL_AREA_STYLE('',(#445));
#445 = FILL_AREA_STYLE_COLOUR('',#424);
#446 = STYLED_ITEM('color',(#447),#279);
#447 = PRESENTATION_STYLE_ASSIGNMENT((#448));
#448 = SURFACE_STYLE_USAGE(.BOTH.,#449);
#449 = SURFACE_SIDE_STYLE('',(#450));
#450 = SURFACE_STYLE_FILL_AREA(#451);
#451 = FILL_AREA_STYLE('',(#452));
#452 = FILL_AREA_STYLE_COLOUR('',#453);
#453 = COLOUR_RGB('',0.824000000954,0.819999992847,0.78100001812);
#454 = STYLED_ITEM('color',(#455),#305);
#455 = PRESENTATION_STYLE_ASSIGNMENT((#456));
#456 = SURFACE_STYLE_USAGE(.BOTH.,#457);
#457 = SURFACE_SIDE_STYLE('',(#458));
#458 = SURFACE_STYLE_FILL_AREA(#459);
#459 = FILL_AREA_STYLE('',(#460));
#460 = FILL_AREA_STYLE_COLOUR('',#424);
#461 = STYLED_ITEM('color',(#462),#314);
#462 = PRESENTATION_STYLE_ASSIGNMENT((#463));
#463 = SURFACE_STYLE_USAGE(.BOTH.,#464);
#464 = SURFACE_SIDE_STYLE('',(#465));
#465 = SURFACE_STYLE_FILL_AREA(#466);
#466 = FILL_AREA_STYLE('',(#467));
#467 = FILL_AREA_STYLE_COLOUR('',#453);
#468 = STYLED_ITEM('color',(#469),#340);
#469 = PRESENTATION_STYLE_ASSIGNMENT((#470));
#470 = SURFACE_STYLE_USAGE(.BOTH.,#471);
#471 = SURFACE_SIDE_STYLE('',(#472));
#472 = SURFACE_STYLE_FILL_AREA(#473);
#473 = FILL_AREA_STYLE('',(#474));
#474 = FILL_AREA_STYLE_COLOUR('',#453);
#475 = STYLED_ITEM('color',(#476),#366);
#476 = PRESENTATION_STYLE_ASSIGNMENT((#477));
#477 = SURFACE_STYLE_USAGE(.BOTH.,#478);
#478 = SURFACE_SIDE_STYLE('',(#479));
#479 = SURFACE_STYLE_FILL_AREA(#480);
#480 = FILL_AREA_STYLE('',(#481));
#481 = FILL_AREA_STYLE_COLOUR('',#453);
#482 = STYLED_ITEM('color',(#483),#392);
#483 = PRESENTATION_STYLE_ASSIGNMENT((#484));
#484 = SURFACE_STYLE_USAGE(.BOTH.,#485);
#485 = SURFACE_SIDE_STYLE('',(#486));
#486 = SURFACE_STYLE_FILL_AREA(#487);
#487 = FILL_AREA_STYLE('',(#488));
#488 = FILL_AREA_STYLE_COLOUR('',#453);
#489 = STYLED_ITEM('color',(#490),#401);
#490 = PRESENTATION_STYLE_ASSIGNMENT((#491));
#491 = SURFACE_STYLE_USAGE(.BOTH.,#492);
#492 = SURFACE_SIDE_STYLE('',(#493));
#493 = SURFACE_STYLE_FILL_AREA(#494);
#494 = FILL_AREA_STYLE('',(#495));
#495 = FILL_AREA_STYLE_COLOUR('',#453);
ENDSEC;
END-ISO-10303-21;
