ISO-10303-21;
HEADER;
/* RV_Disc_D7mm_W4.2mm_P5mm.step 3D STEP model for use in ECAD systems
 * Copyright (C) 2018, kicad StepUp
 * 
 * This work is licensed under the [Creative Commons CC-BY-SA 4.0 License](https://creativecommons.org/licenses/by-sa/4.0/legalcode), 
 * with the following exception:
 * To the extent that the creation of electronic designs that use 'Licensed Material' can be considered to be 'Adapted Material', 
 * then the copyright holder waives article 3 of the license with respect to these designs and any generated files which use data provided 
 * as part of the 'Licensed Material'.
 * You are free to use the library data in your own projects without the obligation to share your project files under this or any other license agreement.
 * However, if you wish to redistribute these libraries, or parts thereof (including in modified form) as a collection then the exception above does not apply. 
 * Please refer to https://github.com/KiCad/kicad-packages3D/blob/master/LICENSE.md for further clarification of the exception.
 * Disclaimer of Warranties and Limitation of Liability.
 * These libraries are provided in the hope that they will be useful, but are provided without warranty of any kind, express or implied.
 * *USE 3D CAD DATA AT YOUR OWN RISK*
 * *DO NOT RELY UPON ANY INFORMATION FOUND HERE WITHOUT INDEPENDENT VERIFICATION.*
 * 
 */

FILE_DESCRIPTION(
/* description */ ('model of RV_Disc_D7mm_W4.2mm_P5mm'),
/* implementation_level */ '2;1');

FILE_NAME(
/* name */ 'RV_Disc_D7mm_W4.2mm_P5mm.step',
/* time_stamp */ '2018-11-11T21:07:51',
/* author */ ('kicad StepUp','ksu'),
/* organization */ ('FreeCAD'),
/* preprocessor_version */ 'OCC',
/* originating_system */ 'kicad StepUp',
/* authorisation */ '');

FILE_SCHEMA(('AUTOMOTIVE_DESIGN { 1 0 10303 214 1 1 1 1 }'));
ENDSEC;

DATA;
#1 = APPLICATION_PROTOCOL_DEFINITION('international standard',
'automotive_design',2000,#2);
#2 = APPLICATION_CONTEXT(
'core data for automotive mechanical design processes');
#3 = SHAPE_DEFINITION_REPRESENTATION(#4,#10);
#4 = PRODUCT_DEFINITION_SHAPE('','',#5);
#5 = PRODUCT_DEFINITION('design','',#6,#9);
#6 = PRODUCT_DEFINITION_FORMATION('','',#7);
#7 = PRODUCT('RV_Disc_D7mm_W42mm_P5mm','RV_Disc_D7mm_W42mm_P5mm','',(#8)
);
#8 = PRODUCT_CONTEXT('',#2,'mechanical');
#9 = PRODUCT_DEFINITION_CONTEXT('part definition',#2,'design');
#10 = ADVANCED_BREP_SHAPE_REPRESENTATION('',(#11,#15),#418);
#11 = AXIS2_PLACEMENT_3D('',#12,#13,#14);
#12 = CARTESIAN_POINT('',(0.E+000,0.E+000,0.E+000));
#13 = DIRECTION('',(0.E+000,0.E+000,1.));
#14 = DIRECTION('',(1.,0.E+000,-0.E+000));
#15 = MANIFOLD_SOLID_BREP('',#16);
#16 = CLOSED_SHELL('',(#17,#50,#160,#278,#287,#313,#322,#348,#374,#400,
#409));
#17 = ADVANCED_FACE('',(#18),#45,.T.);
#18 = FACE_BOUND('',#19,.F.);
#19 = EDGE_LOOP('',(#20,#30,#37,#38));
#20 = ORIENTED_EDGE('',*,*,#21,.T.);
#21 = EDGE_CURVE('',#22,#24,#26,.T.);
#22 = VERTEX_POINT('',#23);
#23 = CARTESIAN_POINT('',(6.,-0.848780487805,3.53));
#24 = VERTEX_POINT('',#25);
#25 = CARTESIAN_POINT('',(6.,-0.951219512195,3.53));
#26 = LINE('',#27,#28);
#27 = CARTESIAN_POINT('',(6.,1.2,3.53));
#28 = VECTOR('',#29,1.);
#29 = DIRECTION('',(0.E+000,-1.,0.E+000));
#30 = ORIENTED_EDGE('',*,*,#31,.T.);
#31 = EDGE_CURVE('',#24,#24,#32,.T.);
#32 = CIRCLE('',#33,3.5);
#33 = AXIS2_PLACEMENT_3D('',#34,#35,#36);
#34 = CARTESIAN_POINT('',(2.5,-0.951219512195,3.53));
#35 = DIRECTION('',(0.E+000,-1.,0.E+000));
#36 = DIRECTION('',(1.,0.E+000,0.E+000));
#37 = ORIENTED_EDGE('',*,*,#21,.F.);
#38 = ORIENTED_EDGE('',*,*,#39,.F.);
#39 = EDGE_CURVE('',#22,#22,#40,.T.);
#40 = CIRCLE('',#41,3.5);
#41 = AXIS2_PLACEMENT_3D('',#42,#43,#44);
#42 = CARTESIAN_POINT('',(2.5,-0.848780487805,3.53));
#43 = DIRECTION('',(0.E+000,-1.,0.E+000));
#44 = DIRECTION('',(1.,0.E+000,0.E+000));
#45 = CYLINDRICAL_SURFACE('',#46,3.5);
#46 = AXIS2_PLACEMENT_3D('',#47,#48,#49);
#47 = CARTESIAN_POINT('',(2.5,1.2,3.53));
#48 = DIRECTION('',(0.E+000,1.,0.E+000));
#49 = DIRECTION('',(1.,0.E+000,0.E+000));
#50 = ADVANCED_FACE('',(#51,#71),#143,.T.);
#51 = FACE_BOUND('',#52,.F.);
#52 = EDGE_LOOP('',(#53,#54,#63,#70));
#53 = ORIENTED_EDGE('',*,*,#39,.T.);
#54 = ORIENTED_EDGE('',*,*,#55,.T.);
#55 = EDGE_CURVE('',#22,#56,#58,.T.);
#56 = VERTEX_POINT('',#57);
#57 = CARTESIAN_POINT('',(3.951219512195,1.2,3.53));
#58 = CIRCLE('',#59,2.048780487805);
#59 = AXIS2_PLACEMENT_3D('',#60,#61,#62);
#60 = CARTESIAN_POINT('',(3.951219512195,-0.848780487805,3.53));
#61 = DIRECTION('',(0.E+000,0.E+000,1.));
#62 = DIRECTION('',(1.,0.E+000,0.E+000));
#63 = ORIENTED_EDGE('',*,*,#64,.F.);
#64 = EDGE_CURVE('',#56,#56,#65,.T.);
#65 = CIRCLE('',#66,1.451219512195);
#66 = AXIS2_PLACEMENT_3D('',#67,#68,#69);
#67 = CARTESIAN_POINT('',(2.5,1.2,3.53));
#68 = DIRECTION('',(0.E+000,-1.,0.E+000));
#69 = DIRECTION('',(1.,0.E+000,0.E+000));
#70 = ORIENTED_EDGE('',*,*,#55,.F.);
#71 = FACE_BOUND('',#72,.F.);
#72 = EDGE_LOOP('',(#73,#110));
#73 = ORIENTED_EDGE('',*,*,#74,.T.);
#74 = EDGE_CURVE('',#75,#77,#79,.T.);
#75 = VERTEX_POINT('',#76);
#76 = CARTESIAN_POINT('',(0.27,0.E+000,1.075949537538));
#77 = VERTEX_POINT('',#78);
#78 = CARTESIAN_POINT('',(-0.264315859925,5.511012785262E-002,
1.746315666584));
#79 = B_SPLINE_CURVE_WITH_KNOTS('',8,(#80,#81,#82,#83,#84,#85,#86,#87,
#88,#89,#90,#91,#92,#93,#94,#95,#96,#97,#98,#99,#100,#101,#102,#103,
#104,#105,#106,#107,#108,#109),.UNSPECIFIED.,.F.,.F.,(9,7,7,7,9),(
0.E+000,0.129119283217,0.280332305805,0.670624510309,1.),
.UNSPECIFIED.);
#80 = CARTESIAN_POINT('',(0.27,-5.551115123126E-017,1.075949537538));
#81 = CARTESIAN_POINT('',(0.27,-1.509796811086E-002,1.066663588169));
#82 = CARTESIAN_POINT('',(0.269035111579,-3.03633963644E-002,
1.05839748223));
#83 = CARTESIAN_POINT('',(0.267067997973,-4.571871729538E-002,
1.051223963566));
#84 = CARTESIAN_POINT('',(0.264068873889,-6.107474771354E-002,
1.045212890476));
#85 = CARTESIAN_POINT('',(0.260020218664,-7.633127243961E-002,
1.040426533489));
#86 = CARTESIAN_POINT('',(0.254920976004,-9.137935729848E-002,
1.036914671071));
#87 = CARTESIAN_POINT('',(0.248790240286,-0.10610539137,1.034709483267)
);
#88 = CARTESIAN_POINT('',(0.233332340101,-0.137133753924,1.032778844482)
);
#89 = CARTESIAN_POINT('',(0.223633916168,-0.153282349496,1.033541769037)
);
#90 = CARTESIAN_POINT('',(0.212643446656,-0.1686552705,1.036127523574));
#91 = CARTESIAN_POINT('',(0.200465849855,-0.183088059283,1.04050672959)
);
#92 = CARTESIAN_POINT('',(0.187232494225,-0.196445728628,1.046611541547)
);
#93 = CARTESIAN_POINT('',(0.173091563572,-0.20862592077,1.054344851287)
);
#94 = CARTESIAN_POINT('',(0.158198966478,-0.219558672052,1.063589278775)
);
#95 = CARTESIAN_POINT('',(0.102731058504,-0.254094960783,1.101644186102)
);
#96 = CARTESIAN_POINT('',(5.8901692362E-002,-0.270325698621,
1.13819592353));
#97 = CARTESIAN_POINT('',(1.360718870177E-002,-0.277485249233,
1.181777130655));
#98 = CARTESIAN_POINT('',(-3.100355923842E-002,-0.276065729286,
1.230226823641));
#99 = CARTESIAN_POINT('',(-7.339913623597E-002,-0.266990923518,
1.281805743923));
#100 = CARTESIAN_POINT('',(-0.112530008131,-0.251239991119,
1.335107750353));
#101 = CARTESIAN_POINT('',(-0.147694304368,-0.229648283343,
1.389089867222));
#102 = CARTESIAN_POINT('',(-0.203991286301,-0.18017788479,1.488064887658
));
#103 = CARTESIAN_POINT('',(-0.226333378414,-0.153915559971,
1.532927751682));
#104 = CARTESIAN_POINT('',(-0.244925135457,-0.124441976064,
1.576798052244));
#105 = CARTESIAN_POINT('',(-0.259359567423,-9.211126605986E-002,
1.61899424034));
#106 = CARTESIAN_POINT('',(-0.269118678818,-5.733600926523E-002,
1.658558922403));
#107 = CARTESIAN_POINT('',(-0.273624236097,-2.065861029067E-002,
1.694217913567));
#108 = CARTESIAN_POINT('',(-0.272223294216,1.718497006697E-002,
1.724182262585));
#109 = CARTESIAN_POINT('',(-0.264315859925,5.511012785262E-002,
1.746315666584));
#110 = ORIENTED_EDGE('',*,*,#111,.T.);
#111 = EDGE_CURVE('',#77,#75,#112,.T.);
#112 = B_SPLINE_CURVE_WITH_KNOTS('',8,(#113,#114,#115,#116,#117,#118,
#119,#120,#121,#122,#123,#124,#125,#126,#127,#128,#129,#130,#131,
#132,#133,#134,#135,#136,#137,#138,#139,#140,#141,#142),
.UNSPECIFIED.,.F.,.F.,(9,7,7,7,9),(0.E+000,0.134997653011,
0.258790694123,0.596647454582,1.),.UNSPECIFIED.);
#113 = CARTESIAN_POINT('',(-0.264315859925,5.511012785262E-002,
1.746315666584));
#114 = CARTESIAN_POINT('',(-0.261416410977,6.901628942114E-002,
1.754431405846));
#115 = CARTESIAN_POINT('',(-0.257646235666,8.291376443296E-002,
1.761482725592));
#116 = CARTESIAN_POINT('',(-0.252983940699,9.673154875594E-002,
1.767359817757));
#117 = CARTESIAN_POINT('',(-0.247416826206,0.110385069536,1.771949645566
));
#118 = CARTESIAN_POINT('',(-0.240947520499,0.123777751316,1.775148000748
));
#119 = CARTESIAN_POINT('',(-0.233599549872,0.136804861679,1.776872565989
));
#120 = CARTESIAN_POINT('',(-0.225421843431,0.149359636407,1.77707698263)
);
#121 = CARTESIAN_POINT('',(-0.208303652349,0.172329239108,1.774563680605
));
#122 = CARTESIAN_POINT('',(-0.199478935732,0.182840374505,1.772086483266
));
#123 = CARTESIAN_POINT('',(-0.190076461263,0.192797129158,1.768335054601
));
#124 = CARTESIAN_POINT('',(-0.180164670678,0.202139623469,1.763344164151
));
#125 = CARTESIAN_POINT('',(-0.169816293768,0.210825564079,1.757174841732
));
#126 = CARTESIAN_POINT('',(-0.159103753147,0.218828738826,1.749906429202
));
#127 = CARTESIAN_POINT('',(-0.148095689292,0.226136502001,1.741628470247
));
#128 = CARTESIAN_POINT('',(-0.106175369035,0.250785616257,1.707334568562
));
#129 = CARTESIAN_POINT('',(-7.387678623637E-002,0.263557065686,
1.675493458114));
#130 = CARTESIAN_POINT('',(-4.098328860237E-002,0.271241133642,
1.638647732736));
#131 = CARTESIAN_POINT('',(-8.246701551202E-003,0.274207902497,
1.598428505764));
#132 = CARTESIAN_POINT('',(2.379502798951E-002,0.272838341258,
1.556111152405));
#133 = CARTESIAN_POINT('',(5.476016088806E-002,0.267459269106,
1.512623511521));
#134 = CARTESIAN_POINT('',(8.43590083905E-002,0.258318958334,
1.46865780988));
#135 = CARTESIAN_POINT('',(0.145692080766,0.230262677237,1.372294397998)
);
#136 = CARTESIAN_POINT('',(0.176565166073,0.209869806744,1.320170542377)
);
#137 = CARTESIAN_POINT('',(0.204425539395,0.184671552312,1.269374575537)
);
#138 = CARTESIAN_POINT('',(0.228623320094,0.15487867559,1.220889601317)
);
#139 = CARTESIAN_POINT('',(0.248310613736,0.120789603445,1.175883245606)
);
#140 = CARTESIAN_POINT('',(0.262473326675,8.291114144928E-002,
1.13570259097));
#141 = CARTESIAN_POINT('',(0.27,4.21684712334E-002,1.101885099591));
#142 = CARTESIAN_POINT('',(0.27,-3.306546357698E-017,1.075949537538));
#143 = SURFACE_OF_REVOLUTION('',#144,#157);
#144 = B_SPLINE_CURVE_WITH_KNOTS('',6,(#145,#146,#147,#148,#149,#150,
#151,#152,#153,#154,#155,#156),.UNSPECIFIED.,.F.,.F.,(7,5,7),(
0.E+000,0.785398163397,1.570796326795),.UNSPECIFIED.);
#145 = CARTESIAN_POINT('',(6.,-0.848780487805,3.53));
#146 = CARTESIAN_POINT('',(6.,-0.580595749084,3.53));
#147 = CARTESIAN_POINT('',(5.957873804994,-0.312411458305,3.53));
#148 = CARTESIAN_POINT('',(5.873620317521,-5.249600192192E-002,3.53));
#149 = CARTESIAN_POINT('',(5.749408548108,0.190868192152,3.53));
#150 = CARTESIAN_POINT('',(5.589561335645,0.410290840924,3.53));
#151 = CARTESIAN_POINT('',(5.210290840924,0.789561335645,3.53));
#152 = CARTESIAN_POINT('',(4.990868192152,0.949408548108,3.53));
#153 = CARTESIAN_POINT('',(4.747503998078,1.073620317521,3.53));
#154 = CARTESIAN_POINT('',(4.487588541695,1.157873804994,3.53));
#155 = CARTESIAN_POINT('',(4.219404250916,1.2,3.53));
#156 = CARTESIAN_POINT('',(3.951219512195,1.2,3.53));
#157 = AXIS1_PLACEMENT('',#158,#159);
#158 = CARTESIAN_POINT('',(2.5,-0.848780487805,3.53));
#159 = DIRECTION('',(0.E+000,1.,0.E+000));
#160 = ADVANCED_FACE('',(#161,#181),#261,.T.);
#161 = FACE_BOUND('',#162,.T.);
#162 = EDGE_LOOP('',(#163,#164,#173,#180));
#163 = ORIENTED_EDGE('',*,*,#31,.T.);
#164 = ORIENTED_EDGE('',*,*,#165,.T.);
#165 = EDGE_CURVE('',#24,#166,#168,.T.);
#166 = VERTEX_POINT('',#167);
#167 = CARTESIAN_POINT('',(3.951219512195,-3.,3.53));
#168 = CIRCLE('',#169,2.048780487805);
#169 = AXIS2_PLACEMENT_3D('',#170,#171,#172);
#170 = CARTESIAN_POINT('',(3.951219512195,-0.951219512195,3.53));
#171 = DIRECTION('',(0.E+000,0.E+000,-1.));
#172 = DIRECTION('',(1.,0.E+000,0.E+000));
#173 = ORIENTED_EDGE('',*,*,#174,.F.);
#174 = EDGE_CURVE('',#166,#166,#175,.T.);
#175 = CIRCLE('',#176,1.451219512195);
#176 = AXIS2_PLACEMENT_3D('',#177,#178,#179);
#177 = CARTESIAN_POINT('',(2.5,-3.,3.53));
#178 = DIRECTION('',(0.E+000,-1.,0.E+000));
#179 = DIRECTION('',(1.,0.E+000,0.E+000));
#180 = ORIENTED_EDGE('',*,*,#165,.F.);
#181 = FACE_BOUND('',#182,.T.);
#182 = EDGE_LOOP('',(#183,#202));
#183 = ORIENTED_EDGE('',*,*,#184,.T.);
#184 = EDGE_CURVE('',#185,#187,#189,.T.);
#185 = VERTEX_POINT('',#186);
#186 = CARTESIAN_POINT('',(5.27,-1.8,1.70726478272));
#187 = VERTEX_POINT('',#188);
#188 = CARTESIAN_POINT('',(5.01950259755,-1.530705275416,1.222732292103)
);
#189 = B_SPLINE_CURVE_WITH_KNOTS('',6,(#190,#191,#192,#193,#194,#195,
#196,#197,#198,#199,#200,#201),.UNSPECIFIED.,.F.,.F.,(7,5,7),(
0.E+000,0.568207351141,1.),.UNSPECIFIED.);
#190 = CARTESIAN_POINT('',(5.27,-1.8,1.70726478272));
#191 = CARTESIAN_POINT('',(5.27,-1.759395614387,1.673641457967));
#192 = CARTESIAN_POINT('',(5.262672351392,-1.720270543522,1.632955782099
));
#193 = CARTESIAN_POINT('',(5.249017965413,-1.683767483868,1.587936016271
));
#194 = CARTESIAN_POINT('',(5.229864367754,-1.650595187024,1.540319761123
));
#195 = CARTESIAN_POINT('',(5.205888953115,-1.621359551161,1.491291581461
));
#196 = CARTESIAN_POINT('',(5.156261776385,-1.577981371533,1.404237346761
));
#197 = CARTESIAN_POINT('',(5.132418707636,-1.561922039017,1.366438391901
));
#198 = CARTESIAN_POINT('',(5.106454208176,-1.548827856005,1.328892935782
));
#199 = CARTESIAN_POINT('',(5.078686519489,-1.539028460173,1.292059307695
));
#200 = CARTESIAN_POINT('',(5.049523029722,-1.532879385614,1.256463453624
));
#201 = CARTESIAN_POINT('',(5.01950259755,-1.530705275416,1.222732292103)
);
#202 = ORIENTED_EDGE('',*,*,#203,.T.);
#203 = EDGE_CURVE('',#187,#185,#204,.T.);
#204 = B_SPLINE_CURVE_WITH_KNOTS('',7,(#205,#206,#207,#208,#209,#210,
#211,#212,#213,#214,#215,#216,#217,#218,#219,#220,#221,#222,#223,
#224,#225,#226,#227,#228,#229,#230,#231,#232,#233,#234,#235,#236,
#237,#238,#239,#240,#241,#242,#243,#244,#245,#246,#247,#248,#249,
#250,#251,#252,#253,#254,#255,#256,#257,#258,#259,#260),
.UNSPECIFIED.,.F.,.F.,(8,6,6,6,6,6,6,6,6,8),(0.E+000,0.145892890127,
0.23741224047,0.346513340535,0.404753673133,0.578000030375,
0.747833755916,0.871502123762,0.951136052835,1.),.UNSPECIFIED.);
#205 = CARTESIAN_POINT('',(5.01950259755,-1.530705275416,1.222732292103)
);
#206 = CARTESIAN_POINT('',(4.993519126064,-1.528823526012,1.193537087031
));
#207 = CARTESIAN_POINT('',(4.966922844622,-1.529837897575,1.1657127802)
);
#208 = CARTESIAN_POINT('',(4.940030290456,-1.533933264357,1.139624330027
));
#209 = CARTESIAN_POINT('',(4.913244415721,-1.541287793227,1.115715562399
));
#210 = CARTESIAN_POINT('',(4.887081700936,-1.552009162066,1.094508198005
));
#211 = CARTESIAN_POINT('',(4.862143898132,-1.566067929141,1.076550151572
));
#212 = CARTESIAN_POINT('',(4.824537700589,-1.593992686509,1.053382130226
));
#213 = CARTESIAN_POINT('',(4.810760808173,-1.605977546698,1.045915604002
));
#214 = CARTESIAN_POINT('',(4.797861702928,-1.619117517398,1.040035271529
));
#215 = CARTESIAN_POINT('',(4.785992411903,-1.633314050679,1.035843075883
));
#216 = CARTESIAN_POINT('',(4.775287688214,-1.648433459281,1.033410408992
));
#217 = CARTESIAN_POINT('',(4.765853879469,-1.664310515347,1.0327678988)
);
#218 = CARTESIAN_POINT('',(4.74810680018,-1.700363793159,1.035240229843)
);
#219 = CARTESIAN_POINT('',(4.740352651618,-1.720788571139,1.039101152722
));
#220 = CARTESIAN_POINT('',(4.734609691446,-1.741721275783,1.045449980852
));
#221 = CARTESIAN_POINT('',(4.73089458996,-1.762849120869,1.054163671974)
);
#222 = CARTESIAN_POINT('',(4.729150638534,-1.783894086547,1.065061962163
));
#223 = CARTESIAN_POINT('',(4.729274924531,-1.804629778311,1.077940014866
));
#224 = CARTESIAN_POINT('',(4.732148778013,-1.835686912467,1.100420295041
));
#225 = CARTESIAN_POINT('',(4.733647532458,-1.846357688503,1.10875148284)
);
#226 = CARTESIAN_POINT('',(4.735626812922,-1.856863814621,1.117559820195
));
#227 = CARTESIAN_POINT('',(4.738067347834,-1.867182180085,1.126815180596
));
#228 = CARTESIAN_POINT('',(4.740949260497,-1.877292808915,1.136487977881
));
#229 = CARTESIAN_POINT('',(4.74425270282,-1.88717858547,1.1465496731));
#230 = CARTESIAN_POINT('',(4.758982017533,-1.925519917782,1.18798018125)
);
#231 = CARTESIAN_POINT('',(4.773560480986,-1.952082692398,1.222174462211
));
#232 = CARTESIAN_POINT('',(4.791187736495,-1.976151831108,1.258858612882
));
#233 = CARTESIAN_POINT('',(4.811397900088,-1.997498955026,1.297401340026
));
#234 = CARTESIAN_POINT('',(4.833790268017,-2.015970116177,1.337236778724
));
#235 = CARTESIAN_POINT('',(4.85803009601,-2.031432740549,1.377835772575)
);
#236 = CARTESIAN_POINT('',(4.909112260695,-2.055781416472,1.458658725941
));
#237 = CARTESIAN_POINT('',(4.935862520889,-2.064776216866,1.498825056472
));
#238 = CARTESIAN_POINT('',(4.963815881768,-2.070584347824,1.538659193444
));
#239 = CARTESIAN_POINT('',(4.992708349644,-2.073018459786,1.577583789289
));
#240 = CARTESIAN_POINT('',(5.022233172703,-2.071832652226,1.614854760755
));
#241 = CARTESIAN_POINT('',(5.051987908845,-2.06673829307,1.649506082361)
);
#242 = CARTESIAN_POINT('',(5.102829990773,-2.050660745838,1.702754038509
));
#243 = CARTESIAN_POINT('',(5.124062590255,-2.041658777869,1.723142212779
));
#244 = CARTESIAN_POINT('',(5.144862230936,-2.030325618147,1.740989474466
));
#245 = CARTESIAN_POINT('',(5.164878987851,-2.016594270435,1.755691674605
));
#246 = CARTESIAN_POINT('',(5.183658127147,-2.000501954262,1.766592630787
));
#247 = CARTESIAN_POINT('',(5.200705224028,-1.982300771772,1.773248835746
));
#248 = CARTESIAN_POINT('',(5.225261032576,-1.949709571189,1.777172580525
));
#249 = CARTESIAN_POINT('',(5.23400746599,-1.936266552761,1.776939689626)
);
#250 = CARTESIAN_POINT('',(5.241778152112,-1.922277193552,1.774927351206
));
#251 = CARTESIAN_POINT('',(5.248513093979,-1.907882876971,1.771204222992
));
#252 = CARTESIAN_POINT('',(5.254190247284,-1.893219631778,1.765889992055
));
#253 = CARTESIAN_POINT('',(5.258816451577,-1.87840791898,1.759129440355)
);
#254 = CARTESIAN_POINT('',(5.264623035074,-1.854430342302,1.746121155316
));
#255 = CARTESIAN_POINT('',(5.266444456524,-1.845293160265,1.740683987003
));
#256 = CARTESIAN_POINT('',(5.267884848976,-1.83615855078,1.734789072697)
);
#257 = CARTESIAN_POINT('',(5.268951681001,-1.827045956843,1.728469059932
));
#258 = CARTESIAN_POINT('',(5.269653639297,-1.817972498474,1.721755607073
));
#259 = CARTESIAN_POINT('',(5.27,-1.808952997112,1.714678502319));
#260 = CARTESIAN_POINT('',(5.27,-1.8,1.70726478272));
#261 = SURFACE_OF_REVOLUTION('',#262,#275);
#262 = B_SPLINE_CURVE_WITH_KNOTS('',6,(#263,#264,#265,#266,#267,#268,
#269,#270,#271,#272,#273,#274),.UNSPECIFIED.,.F.,.F.,(7,5,7),(
0.E+000,0.785398163397,1.570796326795),.UNSPECIFIED.);
#263 = CARTESIAN_POINT('',(6.,-0.951219512195,3.53));
#264 = CARTESIAN_POINT('',(6.,-1.219404250916,3.53));
#265 = CARTESIAN_POINT('',(5.957873804994,-1.487588541695,3.53));
#266 = CARTESIAN_POINT('',(5.873620317521,-1.747503998078,3.53));
#267 = CARTESIAN_POINT('',(5.749408548108,-1.990868192152,3.53));
#268 = CARTESIAN_POINT('',(5.589561335645,-2.210290840924,3.53));
#269 = CARTESIAN_POINT('',(5.210290840924,-2.589561335645,3.53));
#270 = CARTESIAN_POINT('',(4.990868192152,-2.749408548108,3.53));
#271 = CARTESIAN_POINT('',(4.747503998078,-2.873620317521,3.53));
#272 = CARTESIAN_POINT('',(4.487588541695,-2.957873804994,3.53));
#273 = CARTESIAN_POINT('',(4.219404250916,-3.,3.53));
#274 = CARTESIAN_POINT('',(3.951219512195,-3.,3.53));
#275 = AXIS1_PLACEMENT('',#276,#277);
#276 = CARTESIAN_POINT('',(2.5,-0.951219512195,3.53));
#277 = DIRECTION('',(0.E+000,-1.,0.E+000));
#278 = ADVANCED_FACE('',(#279),#282,.F.);
#279 = FACE_BOUND('',#280,.F.);
#280 = EDGE_LOOP('',(#281));
#281 = ORIENTED_EDGE('',*,*,#64,.T.);
#282 = PLANE('',#283);
#283 = AXIS2_PLACEMENT_3D('',#284,#285,#286);
#284 = CARTESIAN_POINT('',(2.5,1.2,3.53));
#285 = DIRECTION('',(-0.E+000,-1.,-0.E+000));
#286 = DIRECTION('',(0.E+000,0.E+000,-1.));
#287 = ADVANCED_FACE('',(#288),#308,.T.);
#288 = FACE_BOUND('',#289,.T.);
#289 = EDGE_LOOP('',(#290,#291,#299,#306,#307));
#290 = ORIENTED_EDGE('',*,*,#111,.T.);
#291 = ORIENTED_EDGE('',*,*,#292,.T.);
#292 = EDGE_CURVE('',#75,#293,#295,.T.);
#293 = VERTEX_POINT('',#294);
#294 = CARTESIAN_POINT('',(0.27,-8.589033614938E-033,-2.892));
#295 = LINE('',#296,#297);
#296 = CARTESIAN_POINT('',(0.27,0.E+000,3.53));
#297 = VECTOR('',#298,1.);
#298 = DIRECTION('',(-0.E+000,-0.E+000,-1.));
#299 = ORIENTED_EDGE('',*,*,#300,.T.);
#300 = EDGE_CURVE('',#293,#293,#301,.T.);
#301 = CIRCLE('',#302,0.27);
#302 = AXIS2_PLACEMENT_3D('',#303,#304,#305);
#303 = CARTESIAN_POINT('',(-7.243018313321E-031,5.152639112584E-031,
-2.892));
#304 = DIRECTION('',(1.127201796441E-031,-7.952808902721E-032,1.));
#305 = DIRECTION('',(1.,-1.940196092123E-030,-1.127201796441E-031));
#306 = ORIENTED_EDGE('',*,*,#292,.F.);
#307 = ORIENTED_EDGE('',*,*,#74,.T.);
#308 = CYLINDRICAL_SURFACE('',#309,0.27);
#309 = AXIS2_PLACEMENT_3D('',#310,#311,#312);
#310 = CARTESIAN_POINT('',(0.E+000,0.E+000,3.53));
#311 = DIRECTION('',(0.E+000,0.E+000,1.));
#312 = DIRECTION('',(1.,0.E+000,0.E+000));
#313 = ADVANCED_FACE('',(#314),#317,.T.);
#314 = FACE_BOUND('',#315,.T.);
#315 = EDGE_LOOP('',(#316));
#316 = ORIENTED_EDGE('',*,*,#174,.T.);
#317 = PLANE('',#318);
#318 = AXIS2_PLACEMENT_3D('',#319,#320,#321);
#319 = CARTESIAN_POINT('',(2.5,-3.,3.53));
#320 = DIRECTION('',(-0.E+000,-1.,-0.E+000));
#321 = DIRECTION('',(0.E+000,0.E+000,-1.));
#322 = ADVANCED_FACE('',(#323),#343,.T.);
#323 = FACE_BOUND('',#324,.T.);
#324 = EDGE_LOOP('',(#325,#326,#334,#341,#342));
#325 = ORIENTED_EDGE('',*,*,#184,.F.);
#326 = ORIENTED_EDGE('',*,*,#327,.T.);
#327 = EDGE_CURVE('',#185,#328,#330,.T.);
#328 = VERTEX_POINT('',#329);
#329 = CARTESIAN_POINT('',(5.27,-1.8,-2.892));
#330 = LINE('',#331,#332);
#331 = CARTESIAN_POINT('',(5.27,-1.8,3.53));
#332 = VECTOR('',#333,1.);
#333 = DIRECTION('',(-0.E+000,-0.E+000,-1.));
#334 = ORIENTED_EDGE('',*,*,#335,.T.);
#335 = EDGE_CURVE('',#328,#328,#336,.T.);
#336 = CIRCLE('',#337,0.27);
#337 = AXIS2_PLACEMENT_3D('',#338,#339,#340);
#338 = CARTESIAN_POINT('',(5.,-1.8,-2.892));
#339 = DIRECTION('',(0.E+000,0.E+000,1.));
#340 = DIRECTION('',(1.,0.E+000,0.E+000));
#341 = ORIENTED_EDGE('',*,*,#327,.F.);
#342 = ORIENTED_EDGE('',*,*,#203,.F.);
#343 = CYLINDRICAL_SURFACE('',#344,0.27);
#344 = AXIS2_PLACEMENT_3D('',#345,#346,#347);
#345 = CARTESIAN_POINT('',(5.,-1.8,3.53));
#346 = DIRECTION('',(0.E+000,0.E+000,1.));
#347 = DIRECTION('',(1.,0.E+000,0.E+000));
#348 = ADVANCED_FACE('',(#349),#369,.T.);
#349 = FACE_BOUND('',#350,.F.);
#350 = EDGE_LOOP('',(#351,#360,#361,#362));
#351 = ORIENTED_EDGE('',*,*,#352,.F.);
#352 = EDGE_CURVE('',#293,#353,#355,.T.);
#353 = VERTEX_POINT('',#354);
#354 = CARTESIAN_POINT('',(0.162,2.095411779493E-031,-3.));
#355 = CIRCLE('',#356,0.108);
#356 = AXIS2_PLACEMENT_3D('',#357,#358,#359);
#357 = CARTESIAN_POINT('',(0.162,2.009521443344E-031,-2.892));
#358 = DIRECTION('',(1.940196092123E-030,1.,7.952808902721E-032));
#359 = DIRECTION('',(1.,-1.940196092123E-030,-1.127201796441E-031));
#360 = ORIENTED_EDGE('',*,*,#300,.T.);
#361 = ORIENTED_EDGE('',*,*,#352,.T.);
#362 = ORIENTED_EDGE('',*,*,#363,.F.);
#363 = EDGE_CURVE('',#353,#353,#364,.T.);
#364 = CIRCLE('',#365,0.162);
#365 = AXIS2_PLACEMENT_3D('',#366,#367,#368);
#366 = CARTESIAN_POINT('',(-7.364756107337E-031,5.238529448733E-031,-3.)
);
#367 = DIRECTION('',(1.127201796441E-031,-7.952808902721E-032,1.));
#368 = DIRECTION('',(1.,-1.940196092123E-030,-1.127201796441E-031));
#369 = TOROIDAL_SURFACE('',#370,0.162,0.108);
#370 = AXIS2_PLACEMENT_3D('',#371,#372,#373);
#371 = CARTESIAN_POINT('',(-7.243018313321E-031,5.152639112584E-031,
-2.892));
#372 = DIRECTION('',(-1.127201796441E-031,7.952808902721E-032,-1.));
#373 = DIRECTION('',(1.,-1.940196092123E-030,-1.127201796441E-031));
#374 = ADVANCED_FACE('',(#375),#395,.T.);
#375 = FACE_BOUND('',#376,.F.);
#376 = EDGE_LOOP('',(#377,#386,#387,#388));
#377 = ORIENTED_EDGE('',*,*,#378,.F.);
#378 = EDGE_CURVE('',#328,#379,#381,.T.);
#379 = VERTEX_POINT('',#380);
#380 = CARTESIAN_POINT('',(5.162,-1.8,-3.));
#381 = CIRCLE('',#382,0.108);
#382 = AXIS2_PLACEMENT_3D('',#383,#384,#385);
#383 = CARTESIAN_POINT('',(5.162,-1.8,-2.892));
#384 = DIRECTION('',(-0.E+000,1.,0.E+000));
#385 = DIRECTION('',(1.,0.E+000,0.E+000));
#386 = ORIENTED_EDGE('',*,*,#335,.T.);
#387 = ORIENTED_EDGE('',*,*,#378,.T.);
#388 = ORIENTED_EDGE('',*,*,#389,.F.);
#389 = EDGE_CURVE('',#379,#379,#390,.T.);
#390 = CIRCLE('',#391,0.162);
#391 = AXIS2_PLACEMENT_3D('',#392,#393,#394);
#392 = CARTESIAN_POINT('',(5.,-1.8,-3.));
#393 = DIRECTION('',(0.E+000,0.E+000,1.));
#394 = DIRECTION('',(1.,0.E+000,0.E+000));
#395 = TOROIDAL_SURFACE('',#396,0.162,0.108);
#396 = AXIS2_PLACEMENT_3D('',#397,#398,#399);
#397 = CARTESIAN_POINT('',(5.,-1.8,-2.892));
#398 = DIRECTION('',(-0.E+000,-0.E+000,-1.));
#399 = DIRECTION('',(1.,0.E+000,0.E+000));
#400 = ADVANCED_FACE('',(#401),#404,.F.);
#401 = FACE_BOUND('',#402,.F.);
#402 = EDGE_LOOP('',(#403));
#403 = ORIENTED_EDGE('',*,*,#363,.T.);
#404 = PLANE('',#405);
#405 = AXIS2_PLACEMENT_3D('',#406,#407,#408);
#406 = CARTESIAN_POINT('',(-1.978356673234E-017,2.854531227236E-017,-3.)
);
#407 = DIRECTION('',(1.127201796441E-031,-7.952808902721E-032,1.));
#408 = DIRECTION('',(1.,0.E+000,-1.127201796441E-031));
#409 = ADVANCED_FACE('',(#410),#413,.F.);
#410 = FACE_BOUND('',#411,.F.);
#411 = EDGE_LOOP('',(#412));
#412 = ORIENTED_EDGE('',*,*,#389,.T.);
#413 = PLANE('',#414);
#414 = AXIS2_PLACEMENT_3D('',#415,#416,#417);
#415 = CARTESIAN_POINT('',(5.,-1.8,-3.));
#416 = DIRECTION('',(0.E+000,0.E+000,1.));
#417 = DIRECTION('',(1.,0.E+000,0.E+000));
#418 = ( GEOMETRIC_REPRESENTATION_CONTEXT(3)
GLOBAL_UNCERTAINTY_ASSIGNED_CONTEXT((#422)) GLOBAL_UNIT_ASSIGNED_CONTEXT
((#419,#420,#421)) REPRESENTATION_CONTEXT('Context #1',
'3D Context with UNIT and UNCERTAINTY') );
#419 = ( LENGTH_UNIT() NAMED_UNIT(*) SI_UNIT(.MILLI.,.METRE.) );
#420 = ( NAMED_UNIT(*) PLANE_ANGLE_UNIT() SI_UNIT($,.RADIAN.) );
#421 = ( NAMED_UNIT(*) SI_UNIT($,.STERADIAN.) SOLID_ANGLE_UNIT() );
#422 = UNCERTAINTY_MEASURE_WITH_UNIT(LENGTH_MEASURE(1.E-007),#419,
'distance_accuracy_value','confusion accuracy');
#423 = PRODUCT_RELATED_PRODUCT_CATEGORY('part',$,(#7));
#424 = MECHANICAL_DESIGN_GEOMETRIC_PRESENTATION_REPRESENTATION('',(#425,
#433,#440,#447,#454,#462,#469,#476,#483,#490,#497),#418);
#425 = STYLED_ITEM('color',(#426),#17);
#426 = PRESENTATION_STYLE_ASSIGNMENT((#427));
#427 = SURFACE_STYLE_USAGE(.BOTH.,#428);
#428 = SURFACE_SIDE_STYLE('',(#429));
#429 = SURFACE_STYLE_FILL_AREA(#430);
#430 = FILL_AREA_STYLE('',(#431));
#431 = FILL_AREA_STYLE_COLOUR('',#432);
#432 = COLOUR_RGB('',0.136999994516,0.402000010014,0.726999998093);
#433 = STYLED_ITEM('color',(#434),#50);
#434 = PRESENTATION_STYLE_ASSIGNMENT((#435));
#435 = SURFACE_STYLE_USAGE(.BOTH.,#436);
#436 = SURFACE_SIDE_STYLE('',(#437));
#437 = SURFACE_STYLE_FILL_AREA(#438);
#438 = FILL_AREA_STYLE('',(#439));
#439 = FILL_AREA_STYLE_COLOUR('',#432);
#440 = STYLED_ITEM('color',(#441),#160);
#441 = PRESENTATION_STYLE_ASSIGNMENT((#442));
#442 = SURFACE_STYLE_USAGE(.BOTH.,#443);
#443 = SURFACE_SIDE_STYLE('',(#444));
#444 = SURFACE_STYLE_FILL_AREA(#445);
#445 = FILL_AREA_STYLE('',(#446));
#446 = FILL_AREA_STYLE_COLOUR('',#432);
#447 = STYLED_ITEM('color',(#448),#278);
#448 = PRESENTATION_STYLE_ASSIGNMENT((#449));
#449 = SURFACE_STYLE_USAGE(.BOTH.,#450);
#450 = SURFACE_SIDE_STYLE('',(#451));
#451 = SURFACE_STYLE_FILL_AREA(#452);
#452 = FILL_AREA_STYLE('',(#453));
#453 = FILL_AREA_STYLE_COLOUR('',#432);
#454 = STYLED_ITEM('color',(#455),#287);
#455 = PRESENTATION_STYLE_ASSIGNMENT((#456));
#456 = SURFACE_STYLE_USAGE(.BOTH.,#457);
#457 = SURFACE_SIDE_STYLE('',(#458));
#458 = SURFACE_STYLE_FILL_AREA(#459);
#459 = FILL_AREA_STYLE('',(#460));
#460 = FILL_AREA_STYLE_COLOUR('',#461);
#461 = COLOUR_RGB('',0.824000000954,0.819999992847,0.78100001812);
#462 = STYLED_ITEM('color',(#463),#313);
#463 = PRESENTATION_STYLE_ASSIGNMENT((#464));
#464 = SURFACE_STYLE_USAGE(.BOTH.,#465);
#465 = SURFACE_SIDE_STYLE('',(#466));
#466 = SURFACE_STYLE_FILL_AREA(#467);
#467 = FILL_AREA_STYLE('',(#468));
#468 = FILL_AREA_STYLE_COLOUR('',#432);
#469 = STYLED_ITEM('color',(#470),#322);
#470 = PRESENTATION_STYLE_ASSIGNMENT((#471));
#471 = SURFACE_STYLE_USAGE(.BOTH.,#472);
#472 = SURFACE_SIDE_STYLE('',(#473));
#473 = SURFACE_STYLE_FILL_AREA(#474);
#474 = FILL_AREA_STYLE('',(#475));
#475 = FILL_AREA_STYLE_COLOUR('',#461);
#476 = STYLED_ITEM('color',(#477),#348);
#477 = PRESENTATION_STYLE_ASSIGNMENT((#478));
#478 = SURFACE_STYLE_USAGE(.BOTH.,#479);
#479 = SURFACE_SIDE_STYLE('',(#480));
#480 = SURFACE_STYLE_FILL_AREA(#481);
#481 = FILL_AREA_STYLE('',(#482));
#482 = FILL_AREA_STYLE_COLOUR('',#461);
#483 = STYLED_ITEM('color',(#484),#374);
#484 = PRESENTATION_STYLE_ASSIGNMENT((#485));
#485 = SURFACE_STYLE_USAGE(.BOTH.,#486);
#486 = SURFACE_SIDE_STYLE('',(#487));
#487 = SURFACE_STYLE_FILL_AREA(#488);
#488 = FILL_AREA_STYLE('',(#489));
#489 = FILL_AREA_STYLE_COLOUR('',#461);
#490 = STYLED_ITEM('color',(#491),#400);
#491 = PRESENTATION_STYLE_ASSIGNMENT((#492));
#492 = SURFACE_STYLE_USAGE(.BOTH.,#493);
#493 = SURFACE_SIDE_STYLE('',(#494));
#494 = SURFACE_STYLE_FILL_AREA(#495);
#495 = FILL_AREA_STYLE('',(#496));
#496 = FILL_AREA_STYLE_COLOUR('',#461);
#497 = STYLED_ITEM('color',(#498),#409);
#498 = PRESENTATION_STYLE_ASSIGNMENT((#499));
#499 = SURFACE_STYLE_USAGE(.BOTH.,#500);
#500 = SURFACE_SIDE_STYLE('',(#501));
#501 = SURFACE_STYLE_FILL_AREA(#502);
#502 = FILL_AREA_STYLE('',(#503));
#503 = FILL_AREA_STYLE_COLOUR('',#461);
ENDSEC;
END-ISO-10303-21;
