ISO-10303-21;
HEADER;
FILE_DESCRIPTION(('FreeCAD Model'),'2;1');
FILE_NAME(
'D:/KiCAD/packages3D-source/Inductor_THT.3dshapes\\
L_Radial_D21.0mm_P19.00mm.step','2018-01-10T12:21:13',('kicad StepUp'),(
    'ksu MCAD'),'Open CASCADE STEP processor 6.8','FreeCAD','Unknown');
FILE_SCHEMA(('AUTOMOTIVE_DESIGN_CC2 { 1 2 10303 214 -1 1 5 4 }'));
ENDSEC;
DATA;
#1 = APPLICATION_PROTOCOL_DEFINITION('committee draft',
  'automotive_design',1997,#2);
#2 = APPLICATION_CONTEXT(
  'core data for automotive mechanical design processes');
#3 = SHAPE_DEFINITION_REPRESENTATION(#4,#10);
#4 = PRODUCT_DEFINITION_SHAPE('','',#5);
#5 = PRODUCT_DEFINITION('design','',#6,#9);
#6 = PRODUCT_DEFINITION_FORMATION('','',#7);
#7 = PRODUCT('L_Radial_D21.0mm_P19.00mm','L_Radial_D21.0mm_P19.00mm','',
  (#8));
#8 = MECHANICAL_CONTEXT('',#2,'mechanical');
#9 = PRODUCT_DEFINITION_CONTEXT('part definition',#2,'design');
#10 = ADVANCED_BREP_SHAPE_REPRESENTATION('',(#11,#15),#210);
#11 = AXIS2_PLACEMENT_3D('',#12,#13,#14);
#12 = CARTESIAN_POINT('',(0.E+000,0.E+000,0.E+000));
#13 = DIRECTION('',(0.E+000,0.E+000,1.));
#14 = DIRECTION('',(1.,0.E+000,-0.E+000));
#15 = MANIFOLD_SOLID_BREP('',#16);
#16 = CLOSED_SHELL('',(#17,#50,#76,#102,#133,#142,#167,#192,#201));
#17 = ADVANCED_FACE('',(#18),#45,.T.);
#18 = FACE_BOUND('',#19,.F.);
#19 = EDGE_LOOP('',(#20,#30,#37,#38));
#20 = ORIENTED_EDGE('',*,*,#21,.T.);
#21 = EDGE_CURVE('',#22,#24,#26,.T.);
#22 = VERTEX_POINT('',#23);
#23 = CARTESIAN_POINT('',(20.,0.E+000,0.6));
#24 = VERTEX_POINT('',#25);
#25 = CARTESIAN_POINT('',(20.,0.E+000,20.6));
#26 = LINE('',#27,#28);
#27 = CARTESIAN_POINT('',(20.,0.E+000,0.1));
#28 = VECTOR('',#29,1.);
#29 = DIRECTION('',(0.E+000,0.E+000,1.));
#30 = ORIENTED_EDGE('',*,*,#31,.T.);
#31 = EDGE_CURVE('',#24,#24,#32,.T.);
#32 = CIRCLE('',#33,10.5);
#33 = AXIS2_PLACEMENT_3D('',#34,#35,#36);
#34 = CARTESIAN_POINT('',(9.5,0.E+000,20.6));
#35 = DIRECTION('',(0.E+000,0.E+000,1.));
#36 = DIRECTION('',(1.,0.E+000,0.E+000));
#37 = ORIENTED_EDGE('',*,*,#21,.F.);
#38 = ORIENTED_EDGE('',*,*,#39,.F.);
#39 = EDGE_CURVE('',#22,#22,#40,.T.);
#40 = CIRCLE('',#41,10.5);
#41 = AXIS2_PLACEMENT_3D('',#42,#43,#44);
#42 = CARTESIAN_POINT('',(9.5,0.E+000,0.6));
#43 = DIRECTION('',(0.E+000,0.E+000,1.));
#44 = DIRECTION('',(1.,0.E+000,0.E+000));
#45 = CYLINDRICAL_SURFACE('',#46,10.5);
#46 = AXIS2_PLACEMENT_3D('',#47,#48,#49);
#47 = CARTESIAN_POINT('',(9.5,0.E+000,0.1));
#48 = DIRECTION('',(-0.E+000,-0.E+000,-1.));
#49 = DIRECTION('',(1.,0.E+000,0.E+000));
#50 = ADVANCED_FACE('',(#51),#71,.T.);
#51 = FACE_BOUND('',#52,.F.);
#52 = EDGE_LOOP('',(#53,#62,#63,#64));
#53 = ORIENTED_EDGE('',*,*,#54,.F.);
#54 = EDGE_CURVE('',#22,#55,#57,.T.);
#55 = VERTEX_POINT('',#56);
#56 = CARTESIAN_POINT('',(19.5,0.E+000,0.1));
#57 = CIRCLE('',#58,0.5);
#58 = AXIS2_PLACEMENT_3D('',#59,#60,#61);
#59 = CARTESIAN_POINT('',(19.5,0.E+000,0.6));
#60 = DIRECTION('',(-0.E+000,1.,0.E+000));
#61 = DIRECTION('',(1.,0.E+000,0.E+000));
#62 = ORIENTED_EDGE('',*,*,#39,.T.);
#63 = ORIENTED_EDGE('',*,*,#54,.T.);
#64 = ORIENTED_EDGE('',*,*,#65,.F.);
#65 = EDGE_CURVE('',#55,#55,#66,.T.);
#66 = CIRCLE('',#67,10.);
#67 = AXIS2_PLACEMENT_3D('',#68,#69,#70);
#68 = CARTESIAN_POINT('',(9.5,0.E+000,0.1));
#69 = DIRECTION('',(0.E+000,0.E+000,1.));
#70 = DIRECTION('',(1.,0.E+000,0.E+000));
#71 = TOROIDAL_SURFACE('',#72,10.,0.5);
#72 = AXIS2_PLACEMENT_3D('',#73,#74,#75);
#73 = CARTESIAN_POINT('',(9.5,0.E+000,0.6));
#74 = DIRECTION('',(0.E+000,0.E+000,-1.));
#75 = DIRECTION('',(1.,0.E+000,0.E+000));
#76 = ADVANCED_FACE('',(#77),#97,.T.);
#77 = FACE_BOUND('',#78,.T.);
#78 = EDGE_LOOP('',(#79,#88,#89,#90));
#79 = ORIENTED_EDGE('',*,*,#80,.F.);
#80 = EDGE_CURVE('',#24,#81,#83,.T.);
#81 = VERTEX_POINT('',#82);
#82 = CARTESIAN_POINT('',(19.5,0.E+000,21.1));
#83 = CIRCLE('',#84,0.5);
#84 = AXIS2_PLACEMENT_3D('',#85,#86,#87);
#85 = CARTESIAN_POINT('',(19.5,0.E+000,20.6));
#86 = DIRECTION('',(0.E+000,-1.,0.E+000));
#87 = DIRECTION('',(1.,0.E+000,0.E+000));
#88 = ORIENTED_EDGE('',*,*,#31,.T.);
#89 = ORIENTED_EDGE('',*,*,#80,.T.);
#90 = ORIENTED_EDGE('',*,*,#91,.F.);
#91 = EDGE_CURVE('',#81,#81,#92,.T.);
#92 = CIRCLE('',#93,10.);
#93 = AXIS2_PLACEMENT_3D('',#94,#95,#96);
#94 = CARTESIAN_POINT('',(9.5,0.E+000,21.1));
#95 = DIRECTION('',(0.E+000,0.E+000,1.));
#96 = DIRECTION('',(1.,0.E+000,0.E+000));
#97 = TOROIDAL_SURFACE('',#98,10.,0.5);
#98 = AXIS2_PLACEMENT_3D('',#99,#100,#101);
#99 = CARTESIAN_POINT('',(9.5,0.E+000,20.6));
#100 = DIRECTION('',(0.E+000,0.E+000,1.));
#101 = DIRECTION('',(1.,0.E+000,0.E+000));
#102 = ADVANCED_FACE('',(#103,#106,#117),#128,.T.);
#103 = FACE_BOUND('',#104,.T.);
#104 = EDGE_LOOP('',(#105));
#105 = ORIENTED_EDGE('',*,*,#65,.F.);
#106 = FACE_BOUND('',#107,.T.);
#107 = EDGE_LOOP('',(#108));
#108 = ORIENTED_EDGE('',*,*,#109,.F.);
#109 = EDGE_CURVE('',#110,#110,#112,.T.);
#110 = VERTEX_POINT('',#111);
#111 = CARTESIAN_POINT('',(0.35,0.E+000,0.1));
#112 = CIRCLE('',#113,0.35);
#113 = AXIS2_PLACEMENT_3D('',#114,#115,#116);
#114 = CARTESIAN_POINT('',(0.E+000,0.E+000,0.1));
#115 = DIRECTION('',(0.E+000,0.E+000,-1.));
#116 = DIRECTION('',(1.,0.E+000,0.E+000));
#117 = FACE_BOUND('',#118,.T.);
#118 = EDGE_LOOP('',(#119));
#119 = ORIENTED_EDGE('',*,*,#120,.F.);
#120 = EDGE_CURVE('',#121,#121,#123,.T.);
#121 = VERTEX_POINT('',#122);
#122 = CARTESIAN_POINT('',(19.35,0.E+000,0.1));
#123 = CIRCLE('',#124,0.35);
#124 = AXIS2_PLACEMENT_3D('',#125,#126,#127);
#125 = CARTESIAN_POINT('',(19.,0.E+000,0.1));
#126 = DIRECTION('',(0.E+000,0.E+000,-1.));
#127 = DIRECTION('',(1.,0.E+000,0.E+000));
#128 = PLANE('',#129);
#129 = AXIS2_PLACEMENT_3D('',#130,#131,#132);
#130 = CARTESIAN_POINT('',(20.,0.E+000,0.1));
#131 = DIRECTION('',(0.E+000,0.E+000,-1.));
#132 = DIRECTION('',(-1.,0.E+000,0.E+000));
#133 = ADVANCED_FACE('',(#134),#137,.F.);
#134 = FACE_BOUND('',#135,.F.);
#135 = EDGE_LOOP('',(#136));
#136 = ORIENTED_EDGE('',*,*,#91,.F.);
#137 = PLANE('',#138);
#138 = AXIS2_PLACEMENT_3D('',#139,#140,#141);
#139 = CARTESIAN_POINT('',(20.,0.E+000,21.1));
#140 = DIRECTION('',(0.E+000,0.E+000,-1.));
#141 = DIRECTION('',(-1.,0.E+000,0.E+000));
#142 = ADVANCED_FACE('',(#143),#162,.T.);
#143 = FACE_BOUND('',#144,.F.);
#144 = EDGE_LOOP('',(#145,#154,#160,#161));
#145 = ORIENTED_EDGE('',*,*,#146,.F.);
#146 = EDGE_CURVE('',#147,#147,#149,.T.);
#147 = VERTEX_POINT('',#148);
#148 = CARTESIAN_POINT('',(0.35,0.E+000,-3.));
#149 = CIRCLE('',#150,0.35);
#150 = AXIS2_PLACEMENT_3D('',#151,#152,#153);
#151 = CARTESIAN_POINT('',(0.E+000,0.E+000,-3.));
#152 = DIRECTION('',(0.E+000,0.E+000,1.));
#153 = DIRECTION('',(1.,0.E+000,0.E+000));
#154 = ORIENTED_EDGE('',*,*,#155,.T.);
#155 = EDGE_CURVE('',#147,#110,#156,.T.);
#156 = LINE('',#157,#158);
#157 = CARTESIAN_POINT('',(0.35,0.E+000,-3.));
#158 = VECTOR('',#159,1.);
#159 = DIRECTION('',(0.E+000,0.E+000,1.));
#160 = ORIENTED_EDGE('',*,*,#109,.F.);
#161 = ORIENTED_EDGE('',*,*,#155,.F.);
#162 = CYLINDRICAL_SURFACE('',#163,0.35);
#163 = AXIS2_PLACEMENT_3D('',#164,#165,#166);
#164 = CARTESIAN_POINT('',(0.E+000,0.E+000,-3.));
#165 = DIRECTION('',(-0.E+000,-0.E+000,-1.));
#166 = DIRECTION('',(1.,0.E+000,0.E+000));
#167 = ADVANCED_FACE('',(#168),#187,.T.);
#168 = FACE_BOUND('',#169,.F.);
#169 = EDGE_LOOP('',(#170,#179,#185,#186));
#170 = ORIENTED_EDGE('',*,*,#171,.F.);
#171 = EDGE_CURVE('',#172,#172,#174,.T.);
#172 = VERTEX_POINT('',#173);
#173 = CARTESIAN_POINT('',(19.35,0.E+000,-3.));
#174 = CIRCLE('',#175,0.35);
#175 = AXIS2_PLACEMENT_3D('',#176,#177,#178);
#176 = CARTESIAN_POINT('',(19.,0.E+000,-3.));
#177 = DIRECTION('',(0.E+000,0.E+000,1.));
#178 = DIRECTION('',(1.,0.E+000,0.E+000));
#179 = ORIENTED_EDGE('',*,*,#180,.T.);
#180 = EDGE_CURVE('',#172,#121,#181,.T.);
#181 = LINE('',#182,#183);
#182 = CARTESIAN_POINT('',(19.35,0.E+000,-3.));
#183 = VECTOR('',#184,1.);
#184 = DIRECTION('',(0.E+000,0.E+000,1.));
#185 = ORIENTED_EDGE('',*,*,#120,.F.);
#186 = ORIENTED_EDGE('',*,*,#180,.F.);
#187 = CYLINDRICAL_SURFACE('',#188,0.35);
#188 = AXIS2_PLACEMENT_3D('',#189,#190,#191);
#189 = CARTESIAN_POINT('',(19.,0.E+000,-3.));
#190 = DIRECTION('',(-0.E+000,-0.E+000,-1.));
#191 = DIRECTION('',(1.,0.E+000,0.E+000));
#192 = ADVANCED_FACE('',(#193),#196,.T.);
#193 = FACE_BOUND('',#194,.F.);
#194 = EDGE_LOOP('',(#195));
#195 = ORIENTED_EDGE('',*,*,#146,.T.);
#196 = PLANE('',#197);
#197 = AXIS2_PLACEMENT_3D('',#198,#199,#200);
#198 = CARTESIAN_POINT('',(0.35,0.E+000,-3.));
#199 = DIRECTION('',(0.E+000,0.E+000,-1.));
#200 = DIRECTION('',(-1.,0.E+000,0.E+000));
#201 = ADVANCED_FACE('',(#202),#205,.T.);
#202 = FACE_BOUND('',#203,.F.);
#203 = EDGE_LOOP('',(#204));
#204 = ORIENTED_EDGE('',*,*,#171,.T.);
#205 = PLANE('',#206);
#206 = AXIS2_PLACEMENT_3D('',#207,#208,#209);
#207 = CARTESIAN_POINT('',(19.35,0.E+000,-3.));
#208 = DIRECTION('',(0.E+000,0.E+000,-1.));
#209 = DIRECTION('',(-1.,0.E+000,0.E+000));
#210 = ( GEOMETRIC_REPRESENTATION_CONTEXT(3) 
GLOBAL_UNCERTAINTY_ASSIGNED_CONTEXT((#214)) GLOBAL_UNIT_ASSIGNED_CONTEXT
((#211,#212,#213)) REPRESENTATION_CONTEXT('Context #1',
  '3D Context with UNIT and UNCERTAINTY') );
#211 = ( LENGTH_UNIT() NAMED_UNIT(*) SI_UNIT(.MILLI.,.METRE.) );
#212 = ( NAMED_UNIT(*) PLANE_ANGLE_UNIT() SI_UNIT($,.RADIAN.) );
#213 = ( NAMED_UNIT(*) SI_UNIT($,.STERADIAN.) SOLID_ANGLE_UNIT() );
#214 = UNCERTAINTY_MEASURE_WITH_UNIT(LENGTH_MEASURE(1.E-007),#211,
  'distance_accuracy_value','confusion accuracy');
#215 = PRODUCT_TYPE('part',$,(#7));
#216 = MECHANICAL_DESIGN_GEOMETRIC_PRESENTATION_REPRESENTATION('',(#217,
    #225,#232,#239,#246,#253,#261,#268,#275),#210);
#217 = STYLED_ITEM('color',(#218),#17);
#218 = PRESENTATION_STYLE_ASSIGNMENT((#219));
#219 = SURFACE_STYLE_USAGE(.BOTH.,#220);
#220 = SURFACE_SIDE_STYLE('',(#221));
#221 = SURFACE_STYLE_FILL_AREA(#222);
#222 = FILL_AREA_STYLE('',(#223));
#223 = FILL_AREA_STYLE_COLOUR('',#224);
#224 = COLOUR_RGB('',0.148000001907,0.144999995828,0.144999995828);
#225 = STYLED_ITEM('color',(#226),#50);
#226 = PRESENTATION_STYLE_ASSIGNMENT((#227));
#227 = SURFACE_STYLE_USAGE(.BOTH.,#228);
#228 = SURFACE_SIDE_STYLE('',(#229));
#229 = SURFACE_STYLE_FILL_AREA(#230);
#230 = FILL_AREA_STYLE('',(#231));
#231 = FILL_AREA_STYLE_COLOUR('',#224);
#232 = STYLED_ITEM('color',(#233),#76);
#233 = PRESENTATION_STYLE_ASSIGNMENT((#234));
#234 = SURFACE_STYLE_USAGE(.BOTH.,#235);
#235 = SURFACE_SIDE_STYLE('',(#236));
#236 = SURFACE_STYLE_FILL_AREA(#237);
#237 = FILL_AREA_STYLE('',(#238));
#238 = FILL_AREA_STYLE_COLOUR('',#224);
#239 = STYLED_ITEM('color',(#240),#102);
#240 = PRESENTATION_STYLE_ASSIGNMENT((#241));
#241 = SURFACE_STYLE_USAGE(.BOTH.,#242);
#242 = SURFACE_SIDE_STYLE('',(#243));
#243 = SURFACE_STYLE_FILL_AREA(#244);
#244 = FILL_AREA_STYLE('',(#245));
#245 = FILL_AREA_STYLE_COLOUR('',#224);
#246 = STYLED_ITEM('color',(#247),#133);
#247 = PRESENTATION_STYLE_ASSIGNMENT((#248));
#248 = SURFACE_STYLE_USAGE(.BOTH.,#249);
#249 = SURFACE_SIDE_STYLE('',(#250));
#250 = SURFACE_STYLE_FILL_AREA(#251);
#251 = FILL_AREA_STYLE('',(#252));
#252 = FILL_AREA_STYLE_COLOUR('',#224);
#253 = STYLED_ITEM('color',(#254),#142);
#254 = PRESENTATION_STYLE_ASSIGNMENT((#255));
#255 = SURFACE_STYLE_USAGE(.BOTH.,#256);
#256 = SURFACE_SIDE_STYLE('',(#257));
#257 = SURFACE_STYLE_FILL_AREA(#258);
#258 = FILL_AREA_STYLE('',(#259));
#259 = FILL_AREA_STYLE_COLOUR('',#260);
#260 = COLOUR_RGB('',0.824000000954,0.819999992847,0.78100001812);
#261 = STYLED_ITEM('color',(#262),#167);
#262 = PRESENTATION_STYLE_ASSIGNMENT((#263));
#263 = SURFACE_STYLE_USAGE(.BOTH.,#264);
#264 = SURFACE_SIDE_STYLE('',(#265));
#265 = SURFACE_STYLE_FILL_AREA(#266);
#266 = FILL_AREA_STYLE('',(#267));
#267 = FILL_AREA_STYLE_COLOUR('',#260);
#268 = STYLED_ITEM('color',(#269),#192);
#269 = PRESENTATION_STYLE_ASSIGNMENT((#270));
#270 = SURFACE_STYLE_USAGE(.BOTH.,#271);
#271 = SURFACE_SIDE_STYLE('',(#272));
#272 = SURFACE_STYLE_FILL_AREA(#273);
#273 = FILL_AREA_STYLE('',(#274));
#274 = FILL_AREA_STYLE_COLOUR('',#260);
#275 = STYLED_ITEM('color',(#276),#201);
#276 = PRESENTATION_STYLE_ASSIGNMENT((#277));
#277 = SURFACE_STYLE_USAGE(.BOTH.,#278);
#278 = SURFACE_SIDE_STYLE('',(#279));
#279 = SURFACE_STYLE_FILL_AREA(#280);
#280 = FILL_AREA_STYLE('',(#281));
#281 = FILL_AREA_STYLE_COLOUR('',#260);
ENDSEC;
END-ISO-10303-21;
