ISO-10303-21;
HEADER;
/* RV_Disc_D12mm_W4.8mm_P7.5mm.step 3D STEP model for use in ECAD systems
 * Copyright (C) 2018, kicad StepUp
 * 
 * This work is licensed under the [Creative Commons CC-BY-SA 4.0 License](https://creativecommons.org/licenses/by-sa/4.0/legalcode), 
 * with the following exception:
 * To the extent that the creation of electronic designs that use 'Licensed Material' can be considered to be 'Adapted Material', 
 * then the copyright holder waives article 3 of the license with respect to these designs and any generated files which use data provided 
 * as part of the 'Licensed Material'.
 * You are free to use the library data in your own projects without the obligation to share your project files under this or any other license agreement.
 * However, if you wish to redistribute these libraries, or parts thereof (including in modified form) as a collection then the exception above does not apply. 
 * Please refer to https://github.com/KiCad/kicad-packages3D/blob/master/LICENSE.md for further clarification of the exception.
 * Disclaimer of Warranties and Limitation of Liability.
 * These libraries are provided in the hope that they will be useful, but are provided without warranty of any kind, express or implied.
 * *USE 3D CAD DATA AT YOUR OWN RISK*
 * *DO NOT RELY UPON ANY INFORMATION FOUND HERE WITHOUT INDEPENDENT VERIFICATION.*
 * 
 */

FILE_DESCRIPTION(
/* description */ ('model of RV_Disc_D12mm_W4.8mm_P7.5mm'),
/* implementation_level */ '2;1');

FILE_NAME(
/* name */ 'RV_Disc_D12mm_W4.8mm_P7.5mm.step',
/* time_stamp */ '2018-11-11T20:34:48',
/* author */ ('kicad StepUp','ksu'),
/* organization */ ('FreeCAD'),
/* preprocessor_version */ 'OCC',
/* originating_system */ 'kicad StepUp',
/* authorisation */ '');

FILE_SCHEMA(('AUTOMOTIVE_DESIGN { 1 0 10303 214 1 1 1 1 }'));
ENDSEC;

DATA;
#1 = APPLICATION_PROTOCOL_DEFINITION('international standard',
'automotive_design',2000,#2);
#2 = APPLICATION_CONTEXT(
'core data for automotive mechanical design processes');
#3 = SHAPE_DEFINITION_REPRESENTATION(#4,#10);
#4 = PRODUCT_DEFINITION_SHAPE('','',#5);
#5 = PRODUCT_DEFINITION('design','',#6,#9);
#6 = PRODUCT_DEFINITION_FORMATION('','',#7);
#7 = PRODUCT('RV_Disc_D12mm_W48mm_P75mm','RV_Disc_D12mm_W48mm_P75mm','',
(#8));
#8 = PRODUCT_CONTEXT('',#2,'mechanical');
#9 = PRODUCT_DEFINITION_CONTEXT('part definition',#2,'design');
#10 = ADVANCED_BREP_SHAPE_REPRESENTATION('',(#11,#15),#402);
#11 = AXIS2_PLACEMENT_3D('',#12,#13,#14);
#12 = CARTESIAN_POINT('',(0.E+000,0.E+000,0.E+000));
#13 = DIRECTION('',(0.E+000,0.E+000,1.));
#14 = DIRECTION('',(1.,0.E+000,-0.E+000));
#15 = MANIFOLD_SOLID_BREP('',#16);
#16 = CLOSED_SHELL('',(#17,#50,#156,#262,#271,#297,#306,#332,#358,#384,
#393));
#17 = ADVANCED_FACE('',(#18),#45,.T.);
#18 = FACE_BOUND('',#19,.F.);
#19 = EDGE_LOOP('',(#20,#30,#37,#38));
#20 = ORIENTED_EDGE('',*,*,#21,.T.);
#21 = EDGE_CURVE('',#22,#24,#26,.T.);
#22 = VERTEX_POINT('',#23);
#23 = CARTESIAN_POINT('',(9.75,-0.966463414634,6.03));
#24 = VERTEX_POINT('',#25);
#25 = CARTESIAN_POINT('',(9.75,-1.083536585366,6.03));
#26 = LINE('',#27,#28);
#27 = CARTESIAN_POINT('',(9.75,1.375,6.03));
#28 = VECTOR('',#29,1.);
#29 = DIRECTION('',(0.E+000,-1.,0.E+000));
#30 = ORIENTED_EDGE('',*,*,#31,.T.);
#31 = EDGE_CURVE('',#24,#24,#32,.T.);
#32 = CIRCLE('',#33,6.);
#33 = AXIS2_PLACEMENT_3D('',#34,#35,#36);
#34 = CARTESIAN_POINT('',(3.75,-1.083536585366,6.03));
#35 = DIRECTION('',(0.E+000,-1.,0.E+000));
#36 = DIRECTION('',(1.,0.E+000,0.E+000));
#37 = ORIENTED_EDGE('',*,*,#21,.F.);
#38 = ORIENTED_EDGE('',*,*,#39,.F.);
#39 = EDGE_CURVE('',#22,#22,#40,.T.);
#40 = CIRCLE('',#41,6.);
#41 = AXIS2_PLACEMENT_3D('',#42,#43,#44);
#42 = CARTESIAN_POINT('',(3.75,-0.966463414634,6.03));
#43 = DIRECTION('',(0.E+000,-1.,0.E+000));
#44 = DIRECTION('',(1.,0.E+000,0.E+000));
#45 = CYLINDRICAL_SURFACE('',#46,6.);
#46 = AXIS2_PLACEMENT_3D('',#47,#48,#49);
#47 = CARTESIAN_POINT('',(3.75,1.375,6.03));
#48 = DIRECTION('',(0.E+000,1.,0.E+000));
#49 = DIRECTION('',(1.,0.E+000,0.E+000));
#50 = ADVANCED_FACE('',(#51,#71),#151,.T.);
#51 = FACE_BOUND('',#52,.F.);
#52 = EDGE_LOOP('',(#53,#54,#63,#70));
#53 = ORIENTED_EDGE('',*,*,#39,.T.);
#54 = ORIENTED_EDGE('',*,*,#55,.T.);
#55 = EDGE_CURVE('',#22,#56,#58,.T.);
#56 = VERTEX_POINT('',#57);
#57 = CARTESIAN_POINT('',(7.408536585366,1.375,6.03));
#58 = CIRCLE('',#59,2.341463414634);
#59 = AXIS2_PLACEMENT_3D('',#60,#61,#62);
#60 = CARTESIAN_POINT('',(7.408536585366,-0.966463414634,6.03));
#61 = DIRECTION('',(0.E+000,0.E+000,1.));
#62 = DIRECTION('',(1.,0.E+000,0.E+000));
#63 = ORIENTED_EDGE('',*,*,#64,.F.);
#64 = EDGE_CURVE('',#56,#56,#65,.T.);
#65 = CIRCLE('',#66,3.658536585366);
#66 = AXIS2_PLACEMENT_3D('',#67,#68,#69);
#67 = CARTESIAN_POINT('',(3.75,1.375,6.03));
#68 = DIRECTION('',(0.E+000,-1.,0.E+000));
#69 = DIRECTION('',(1.,0.E+000,0.E+000));
#70 = ORIENTED_EDGE('',*,*,#55,.F.);
#71 = FACE_BOUND('',#72,.F.);
#72 = EDGE_LOOP('',(#73,#110));
#73 = ORIENTED_EDGE('',*,*,#74,.T.);
#74 = EDGE_CURVE('',#75,#77,#79,.T.);
#75 = VERTEX_POINT('',#76);
#76 = CARTESIAN_POINT('',(0.36,0.E+000,1.33465184407));
#77 = VERTEX_POINT('',#78);
#78 = CARTESIAN_POINT('',(-0.311448419868,-0.180554373422,1.799979779718
));
#79 = B_SPLINE_CURVE_WITH_KNOTS('',8,(#80,#81,#82,#83,#84,#85,#86,#87,
#88,#89,#90,#91,#92,#93,#94,#95,#96,#97,#98,#99,#100,#101,#102,#103,
#104,#105,#106,#107,#108,#109),.UNSPECIFIED.,.F.,.F.,(9,7,7,7,9),(
0.E+000,0.177431667955,0.356666860416,0.801665510075,1.),
.UNSPECIFIED.);
#80 = CARTESIAN_POINT('',(0.36,-5.551115123126E-017,1.33465184407));
#81 = CARTESIAN_POINT('',(0.36,-2.062862487247E-002,1.323121832758));
#82 = CARTESIAN_POINT('',(0.358649050935,-4.148410491997E-002,
1.312790511343));
#83 = CARTESIAN_POINT('',(0.355895284928,-6.246008105118E-002,
1.303751439172));
#84 = CARTESIAN_POINT('',(0.351696298281,-8.343476473335E-002,
1.296093421568));
#85 = CARTESIAN_POINT('',(0.346025118078,-0.104271161615,1.289894937667)
);
#86 = CARTESIAN_POINT('',(0.338875903582,-0.124819628302,1.285218373606)
);
#87 = CARTESIAN_POINT('',(0.330269382421,-0.144922762287,1.282104061059)
);
#88 = CARTESIAN_POINT('',(0.310144899089,-0.184120696364,1.279008528264)
);
#89 = CARTESIAN_POINT('',(0.298595038649,-0.20320937289,1.279058988567)
);
#90 = CARTESIAN_POINT('',(0.28566190058,-0.221522917298,1.280730154603)
);
#91 = CARTESIAN_POINT('',(0.271425540113,-0.238909400526,1.284005171056)
);
#92 = CARTESIAN_POINT('',(0.255987859365,-0.255234728638,1.288840399793)
);
#93 = CARTESIAN_POINT('',(0.239467816195,-0.270385363205,1.295170175144)
);
#94 = CARTESIAN_POINT('',(0.221996589926,-0.28426973518,1.302911589388)
);
#95 = CARTESIAN_POINT('',(0.158318133469,-0.327973604727,1.334457485504)
);
#96 = CARTESIAN_POINT('',(0.107853100667,-0.35093723904,1.365089694187)
);
#97 = CARTESIAN_POINT('',(5.442410188328E-002,-0.364600374166,
1.402439455493));
#98 = CARTESIAN_POINT('',(2.826119823012E-004,-0.368813169081,
1.444656486923));
#99 = CARTESIAN_POINT('',(-5.26686525367E-002,-0.364079457206,
1.490094023865));
#100 = CARTESIAN_POINT('',(-0.102930179041,-0.351237154485,
1.537369067634));
#101 = CARTESIAN_POINT('',(-0.149409649456,-0.331238945068,
1.585394724289));
#102 = CARTESIAN_POINT('',(-0.209938402544,-0.29327641505,1.654668519619
));
#103 = CARTESIAN_POINT('',(-0.227694056592,-0.28032221205,1.676016282876
));
#104 = CARTESIAN_POINT('',(-0.244472145424,-0.266192509432,
1.697282092425));
#105 = CARTESIAN_POINT('',(-0.260204895106,-0.250962402266,
1.718396371482));
#106 = CARTESIAN_POINT('',(-0.274828541566,-0.234707221989,
1.739291477442));
#107 = CARTESIAN_POINT('',(-0.288282428265,-0.217502835025,
1.759900055994));
#108 = CARTESIAN_POINT('',(-0.300508103858,-0.199425941413,
1.780153395223));
#109 = CARTESIAN_POINT('',(-0.311448419868,-0.180554373422,
1.799979779718));
#110 = ORIENTED_EDGE('',*,*,#111,.T.);
#111 = EDGE_CURVE('',#77,#75,#112,.T.);
#112 = B_SPLINE_CURVE_WITH_KNOTS('',7,(#113,#114,#115,#116,#117,#118,
#119,#120,#121,#122,#123,#124,#125,#126,#127,#128,#129,#130,#131,
#132,#133,#134,#135,#136,#137,#138,#139,#140,#141,#142,#143,#144,
#145,#146,#147,#148,#149,#150),.UNSPECIFIED.,.F.,.F.,(8,6,6,6,6,6,8)
,(0.E+000,0.193865920368,0.258514356256,0.367618535437,0.531396480221,
0.726078967833,1.),.UNSPECIFIED.);
#113 = CARTESIAN_POINT('',(-0.311448419868,-0.180554373422,
1.799979779718));
#114 = CARTESIAN_POINT('',(-0.329130480359,-0.150053590219,
1.832023765437));
#115 = CARTESIAN_POINT('',(-0.343376847413,-0.117447867341,
1.862914531736));
#116 = CARTESIAN_POINT('',(-0.353942644175,-8.307888142724E-002,
1.892343373328));
#117 = CARTESIAN_POINT('',(-0.360568000287,-4.732095067362E-002,
1.919945808763));
#118 = CARTESIAN_POINT('',(-0.362991746174,-1.061182442769E-002,
1.945275125852));
#119 = CARTESIAN_POINT('',(-0.360978546268,2.652654967407E-002,
1.967790687886));
#120 = CARTESIAN_POINT('',(-0.35215220928,7.579923521127E-002,
1.993220374603));
#121 = CARTESIAN_POINT('',(-0.349433207651,8.809785359034E-002,
1.999195365075));
#122 = CARTESIAN_POINT('',(-0.346196805819,0.100349102386,2.004762309811
));
#123 = CARTESIAN_POINT('',(-0.342438646083,0.112526777488,2.009896109748
));
#124 = CARTESIAN_POINT('',(-0.338156279977,0.124602732145,2.014570883703
));
#125 = CARTESIAN_POINT('',(-0.333349774782,0.136547104647,2.018760623097
));
#126 = CARTESIAN_POINT('',(-0.319031420717,0.168211540427,2.02864910238)
);
#127 = CARTESIAN_POINT('',(-0.308555103894,0.187634148399,2.033405472127
));
#128 = CARTESIAN_POINT('',(-0.296610740905,0.206439255633,2.036584035842
));
#129 = CARTESIAN_POINT('',(-0.283243059728,0.224460445176,2.038067879917
));
#130 = CARTESIAN_POINT('',(-0.268531988536,0.241529796464,2.037762328202
));
#131 = CARTESIAN_POINT('',(-0.252596467436,0.257489120058,2.035611325471
));
#132 = CARTESIAN_POINT('',(-0.210071908432,0.294294301279,2.02561848945)
);
#133 = CARTESIAN_POINT('',(-0.182128831328,0.313596247136,2.015461339853
));
#134 = CARTESIAN_POINT('',(-0.152304851134,0.329638327511,2.001138081564
));
#135 = CARTESIAN_POINT('',(-0.121236992957,0.34217718215,1.982922185691)
);
#136 = CARTESIAN_POINT('',(-8.954841683644E-002,0.351168717248,
1.961297775412));
#137 = CARTESIAN_POINT('',(-5.778790733949E-002,0.356720953269,
1.936871886281));
#138 = CARTESIAN_POINT('',(1.086720668992E-002,0.361773078051,
1.878644562874));
#139 = CARTESIAN_POINT('',(4.75918826354E-002,0.359932669997,
1.843950840389));
#140 = CARTESIAN_POINT('',(8.315138897827E-002,0.353858992617,
1.807095182172));
#141 = CARTESIAN_POINT('',(0.117130426502,0.343952169728,1.768917305206)
);
#142 = CARTESIAN_POINT('',(0.1492497188,0.330576738699,1.730105770253));
#143 = CARTESIAN_POINT('',(0.179308421065,0.314013879324,1.691188052034)
);
#144 = CARTESIAN_POINT('',(0.246252167692,0.266924780454,1.598290300411)
);
#145 = CARTESIAN_POINT('',(0.280833945,0.23353034431,1.544767816028));
#146 = CARTESIAN_POINT('',(0.310363834655,0.194854541465,1.49324469692)
);
#147 = CARTESIAN_POINT('',(0.334095225629,0.15133600345,1.444953398841)
);
#148 = CARTESIAN_POINT('',(0.351037551695,0.103577361041,1.401338020588)
);
#149 = CARTESIAN_POINT('',(0.36,5.258787765998E-002,1.364044924222));
#150 = CARTESIAN_POINT('',(0.36,-5.551115123126E-017,1.33465184407));
#151 = TOROIDAL_SURFACE('',#152,3.658536585366,2.341463414634);
#152 = AXIS2_PLACEMENT_3D('',#153,#154,#155);
#153 = CARTESIAN_POINT('',(3.75,-0.966463414634,6.03));
#154 = DIRECTION('',(0.E+000,1.,0.E+000));
#155 = DIRECTION('',(1.,0.E+000,0.E+000));
#156 = ADVANCED_FACE('',(#157,#177),#257,.T.);
#157 = FACE_BOUND('',#158,.T.);
#158 = EDGE_LOOP('',(#159,#160,#169,#176));
#159 = ORIENTED_EDGE('',*,*,#31,.T.);
#160 = ORIENTED_EDGE('',*,*,#161,.T.);
#161 = EDGE_CURVE('',#24,#162,#164,.T.);
#162 = VERTEX_POINT('',#163);
#163 = CARTESIAN_POINT('',(7.408536585366,-3.425,6.03));
#164 = CIRCLE('',#165,2.341463414634);
#165 = AXIS2_PLACEMENT_3D('',#166,#167,#168);
#166 = CARTESIAN_POINT('',(7.408536585366,-1.083536585366,6.03));
#167 = DIRECTION('',(0.E+000,0.E+000,-1.));
#168 = DIRECTION('',(1.,0.E+000,0.E+000));
#169 = ORIENTED_EDGE('',*,*,#170,.F.);
#170 = EDGE_CURVE('',#162,#162,#171,.T.);
#171 = CIRCLE('',#172,3.658536585366);
#172 = AXIS2_PLACEMENT_3D('',#173,#174,#175);
#173 = CARTESIAN_POINT('',(3.75,-3.425,6.03));
#174 = DIRECTION('',(0.E+000,-1.,0.E+000));
#175 = DIRECTION('',(1.,0.E+000,0.E+000));
#176 = ORIENTED_EDGE('',*,*,#161,.F.);
#177 = FACE_BOUND('',#178,.T.);
#178 = EDGE_LOOP('',(#179,#198));
#179 = ORIENTED_EDGE('',*,*,#180,.T.);
#180 = EDGE_CURVE('',#181,#183,#185,.T.);
#181 = VERTEX_POINT('',#182);
#182 = CARTESIAN_POINT('',(7.86,-2.05,1.950012952791));
#183 = VERTEX_POINT('',#184);
#184 = CARTESIAN_POINT('',(7.4891455493,-1.690163674846,1.440249151032)
);
#185 = B_SPLINE_CURVE_WITH_KNOTS('',6,(#186,#187,#188,#189,#190,#191,
#192,#193,#194,#195,#196,#197),.UNSPECIFIED.,.F.,.F.,(7,5,7),(
0.E+000,0.54561922933,1.),.UNSPECIFIED.);
#186 = CARTESIAN_POINT('',(7.86,-2.05,1.950012952791));
#187 = CARTESIAN_POINT('',(7.86,-1.996452352276,1.915569326492));
#188 = CARTESIAN_POINT('',(7.850442275027,-1.944082501425,1.875191211322
));
#189 = CARTESIAN_POINT('',(7.83211422473,-1.894592572456,1.830690499465)
);
#190 = CARTESIAN_POINT('',(7.805902599421,-1.849317991292,1.783346736671
));
#191 = CARTESIAN_POINT('',(7.772706210337,-1.809400512375,1.734177927094
));
#192 = CARTESIAN_POINT('',(7.700797651648,-1.748134388945,1.64253639444)
);
#193 = CARTESIAN_POINT('',(7.663974655961,-1.724829933558,1.60036806299)
);
#194 = CARTESIAN_POINT('',(7.6235604314,-1.706687972672,1.5582387752));
#195 = CARTESIAN_POINT('',(7.58023408688,-1.694432247041,1.516839886026)
);
#196 = CARTESIAN_POINT('',(7.534992984679,-1.688780688493,1.47712131933)
);
#197 = CARTESIAN_POINT('',(7.4891455493,-1.690163674846,1.440249151032)
);
#198 = ORIENTED_EDGE('',*,*,#199,.T.);
#199 = EDGE_CURVE('',#183,#181,#200,.T.);
#200 = B_SPLINE_CURVE_WITH_KNOTS('',7,(#201,#202,#203,#204,#205,#206,
#207,#208,#209,#210,#211,#212,#213,#214,#215,#216,#217,#218,#219,
#220,#221,#222,#223,#224,#225,#226,#227,#228,#229,#230,#231,#232,
#233,#234,#235,#236,#237,#238,#239,#240,#241,#242,#243,#244,#245,
#246,#247,#248,#249,#250,#251,#252,#253,#254,#255,#256),
.UNSPECIFIED.,.F.,.F.,(8,6,6,6,6,6,6,6,6,8),(0.E+000,0.138422626116,
0.218305744542,0.318317695179,0.371460288451,0.535218123238,
0.741690475454,0.823716834939,0.927974030528,1.),.UNSPECIFIED.);
#201 = CARTESIAN_POINT('',(7.4891455493,-1.690163674846,1.440249151032)
);
#202 = CARTESIAN_POINT('',(7.45556287457,-1.691176695105,1.413240747524)
);
#203 = CARTESIAN_POINT('',(7.421683528499,-1.695858644989,1.387732762231
));
#204 = CARTESIAN_POINT('',(7.388015015303,-1.704353370187,1.364170238111
));
#205 = CARTESIAN_POINT('',(7.355120547852,-1.716713288155,1.343020456155
));
#206 = CARTESIAN_POINT('',(7.323602852484,-1.732868096605,1.324760784356
));
#207 = CARTESIAN_POINT('',(7.294065195995,-1.752600559255,1.309837228126
));
#208 = CARTESIAN_POINT('',(7.251459067472,-1.78876148896,1.292105078819)
);
#209 = CARTESIAN_POINT('',(7.236708782696,-1.803057729884,1.286842166443
));
#210 = CARTESIAN_POINT('',(7.222907734515,-1.818341083424,1.282872925054
));
#211 = CARTESIAN_POINT('',(7.210153983944,-1.834515622775,1.280250475266
));
#212 = CARTESIAN_POINT('',(7.198530901763,-1.851469211632,1.279009492758
));
#213 = CARTESIAN_POINT('',(7.1881033713,-1.869076213291,1.279162622743)
);
#214 = CARTESIAN_POINT('',(7.167409084478,-1.909891041995,1.282617769709
));
#215 = CARTESIAN_POINT('',(7.157841674957,-1.933398807122,1.286704083104
));
#216 = CARTESIAN_POINT('',(7.150297364544,-1.957458208841,1.292933152406
));
#217 = CARTESIAN_POINT('',(7.144794143157,-1.98180597971,1.301222459822)
);
#218 = CARTESIAN_POINT('',(7.141297770888,-2.006201515457,1.311447797202
));
#219 = CARTESIAN_POINT('',(7.139738072547,-2.030437226493,1.323460318005
));
#220 = CARTESIAN_POINT('',(7.14017921525,-2.067038886762,1.344351436921)
);
#221 = CARTESIAN_POINT('',(7.140854006641,-2.079645909701,1.352061144434
));
#222 = CARTESIAN_POINT('',(7.142037293428,-2.092134379628,1.36020860764)
);
#223 = CARTESIAN_POINT('',(7.143714590563,-2.104481691279,1.368770347256
));
#224 = CARTESIAN_POINT('',(7.145870671593,-2.116667751699,1.377722834707
));
#225 = CARTESIAN_POINT('',(7.148490086982,-2.12867481202,1.387042911173)
);
#226 = CARTESIAN_POINT('',(7.161010416226,-2.176887241557,1.426491620695
));
#227 = CARTESIAN_POINT('',(7.174713791722,-2.211419861261,1.459536945302
));
#228 = CARTESIAN_POINT('',(7.192222273597,-2.243662121422,1.495206294451
));
#229 = CARTESIAN_POINT('',(7.213120555514,-2.273314684351,1.532896859003
));
#230 = CARTESIAN_POINT('',(7.2370536139,-2.300149870737,1.572053486206)
);
#231 = CARTESIAN_POINT('',(7.26373464153,-2.323957216005,1.61215361042)
);
#232 = CARTESIAN_POINT('',(7.329742608596,-2.370370912942,1.703742310453
));
#233 = CARTESIAN_POINT('',(7.370441343864,-2.390965832998,1.75531906729)
);
#234 = CARTESIAN_POINT('',(7.414662254285,-2.405923982468,1.806513357937
));
#235 = CARTESIAN_POINT('',(7.461964423305,-2.414472033416,1.856044650661
));
#236 = CARTESIAN_POINT('',(7.511551053507,-2.415628860995,1.902009145948
));
#237 = CARTESIAN_POINT('',(7.561912879279,-2.408357205262,1.941922607014
));
#238 = CARTESIAN_POINT('',(7.63038289745,-2.386183032251,1.986455735875)
);
#239 = CARTESIAN_POINT('',(7.64961715847,-2.378527692522,1.997836277884)
);
#240 = CARTESIAN_POINT('',(7.668473646625,-2.369519234055,2.007806124367
));
#241 = CARTESIAN_POINT('',(7.686800870874,-2.359181244391,2.016260418477
));
#242 = CARTESIAN_POINT('',(7.704447714298,-2.347565283848,2.023124800632
));
#243 = CARTESIAN_POINT('',(7.721270757243,-2.334752899698,2.02836124692)
);
#244 = CARTESIAN_POINT('',(7.757313769707,-2.30319647895,2.036565673655)
);
#245 = CARTESIAN_POINT('',(7.775955761428,-2.28377887384,2.038535752791)
);
#246 = CARTESIAN_POINT('',(7.792801159527,-2.262835217687,2.03788612595)
);
#247 = CARTESIAN_POINT('',(7.807665622311,-2.240643443726,2.034735835156
));
#248 = CARTESIAN_POINT('',(7.820443889149,-2.21749215724,2.029271730484)
);
#249 = CARTESIAN_POINT('',(7.831097045439,-2.193655444817,2.021709238752
));
#250 = CARTESIAN_POINT('',(7.845525059926,-2.152608255708,2.005737336459
));
#251 = CARTESIAN_POINT('',(7.850409192601,-2.135624553474,1.998311376551
));
#252 = CARTESIAN_POINT('',(7.854285117462,-2.118505343115,1.990054417962
));
#253 = CARTESIAN_POINT('',(7.857163729625,-2.101321699209,1.981034134912
));
#254 = CARTESIAN_POINT('',(7.85906186175,-2.08413845847,1.971315061335)
);
#255 = CARTESIAN_POINT('',(7.86,-2.067013995743,1.960956920194));
#256 = CARTESIAN_POINT('',(7.86,-2.05,1.950012952791));
#257 = TOROIDAL_SURFACE('',#258,3.658536585366,2.341463414634);
#258 = AXIS2_PLACEMENT_3D('',#259,#260,#261);
#259 = CARTESIAN_POINT('',(3.75,-1.083536585366,6.03));
#260 = DIRECTION('',(0.E+000,-1.,0.E+000));
#261 = DIRECTION('',(1.,0.E+000,0.E+000));
#262 = ADVANCED_FACE('',(#263),#266,.F.);
#263 = FACE_BOUND('',#264,.F.);
#264 = EDGE_LOOP('',(#265));
#265 = ORIENTED_EDGE('',*,*,#64,.T.);
#266 = PLANE('',#267);
#267 = AXIS2_PLACEMENT_3D('',#268,#269,#270);
#268 = CARTESIAN_POINT('',(3.75,1.375,6.03));
#269 = DIRECTION('',(-0.E+000,-1.,-0.E+000));
#270 = DIRECTION('',(0.E+000,0.E+000,-1.));
#271 = ADVANCED_FACE('',(#272),#292,.T.);
#272 = FACE_BOUND('',#273,.T.);
#273 = EDGE_LOOP('',(#274,#275,#283,#290,#291));
#274 = ORIENTED_EDGE('',*,*,#111,.T.);
#275 = ORIENTED_EDGE('',*,*,#276,.T.);
#276 = EDGE_CURVE('',#75,#277,#279,.T.);
#277 = VERTEX_POINT('',#278);
#278 = CARTESIAN_POINT('',(0.36,0.E+000,-2.856));
#279 = LINE('',#280,#281);
#280 = CARTESIAN_POINT('',(0.36,0.E+000,6.03));
#281 = VECTOR('',#282,1.);
#282 = DIRECTION('',(-0.E+000,-0.E+000,-1.));
#283 = ORIENTED_EDGE('',*,*,#284,.T.);
#284 = EDGE_CURVE('',#277,#277,#285,.T.);
#285 = CIRCLE('',#286,0.36);
#286 = AXIS2_PLACEMENT_3D('',#287,#288,#289);
#287 = CARTESIAN_POINT('',(0.E+000,0.E+000,-2.856));
#288 = DIRECTION('',(0.E+000,0.E+000,1.));
#289 = DIRECTION('',(1.,0.E+000,0.E+000));
#290 = ORIENTED_EDGE('',*,*,#276,.F.);
#291 = ORIENTED_EDGE('',*,*,#74,.T.);
#292 = CYLINDRICAL_SURFACE('',#293,0.36);
#293 = AXIS2_PLACEMENT_3D('',#294,#295,#296);
#294 = CARTESIAN_POINT('',(0.E+000,0.E+000,6.03));
#295 = DIRECTION('',(0.E+000,0.E+000,1.));
#296 = DIRECTION('',(1.,0.E+000,0.E+000));
#297 = ADVANCED_FACE('',(#298),#301,.T.);
#298 = FACE_BOUND('',#299,.T.);
#299 = EDGE_LOOP('',(#300));
#300 = ORIENTED_EDGE('',*,*,#170,.T.);
#301 = PLANE('',#302);
#302 = AXIS2_PLACEMENT_3D('',#303,#304,#305);
#303 = CARTESIAN_POINT('',(3.75,-3.425,6.03));
#304 = DIRECTION('',(-0.E+000,-1.,-0.E+000));
#305 = DIRECTION('',(0.E+000,0.E+000,-1.));
#306 = ADVANCED_FACE('',(#307),#327,.T.);
#307 = FACE_BOUND('',#308,.T.);
#308 = EDGE_LOOP('',(#309,#310,#318,#325,#326));
#309 = ORIENTED_EDGE('',*,*,#180,.F.);
#310 = ORIENTED_EDGE('',*,*,#311,.T.);
#311 = EDGE_CURVE('',#181,#312,#314,.T.);
#312 = VERTEX_POINT('',#313);
#313 = CARTESIAN_POINT('',(7.86,-2.05,-2.856));
#314 = LINE('',#315,#316);
#315 = CARTESIAN_POINT('',(7.86,-2.05,6.03));
#316 = VECTOR('',#317,1.);
#317 = DIRECTION('',(-0.E+000,-0.E+000,-1.));
#318 = ORIENTED_EDGE('',*,*,#319,.T.);
#319 = EDGE_CURVE('',#312,#312,#320,.T.);
#320 = CIRCLE('',#321,0.36);
#321 = AXIS2_PLACEMENT_3D('',#322,#323,#324);
#322 = CARTESIAN_POINT('',(7.5,-2.05,-2.856));
#323 = DIRECTION('',(0.E+000,0.E+000,1.));
#324 = DIRECTION('',(1.,0.E+000,0.E+000));
#325 = ORIENTED_EDGE('',*,*,#311,.F.);
#326 = ORIENTED_EDGE('',*,*,#199,.F.);
#327 = CYLINDRICAL_SURFACE('',#328,0.36);
#328 = AXIS2_PLACEMENT_3D('',#329,#330,#331);
#329 = CARTESIAN_POINT('',(7.5,-2.05,6.03));
#330 = DIRECTION('',(0.E+000,0.E+000,1.));
#331 = DIRECTION('',(1.,0.E+000,0.E+000));
#332 = ADVANCED_FACE('',(#333),#353,.T.);
#333 = FACE_BOUND('',#334,.F.);
#334 = EDGE_LOOP('',(#335,#344,#345,#346));
#335 = ORIENTED_EDGE('',*,*,#336,.F.);
#336 = EDGE_CURVE('',#277,#337,#339,.T.);
#337 = VERTEX_POINT('',#338);
#338 = CARTESIAN_POINT('',(0.216,0.E+000,-3.));
#339 = CIRCLE('',#340,0.144);
#340 = AXIS2_PLACEMENT_3D('',#341,#342,#343);
#341 = CARTESIAN_POINT('',(0.216,0.E+000,-2.856));
#342 = DIRECTION('',(-0.E+000,1.,0.E+000));
#343 = DIRECTION('',(1.,0.E+000,0.E+000));
#344 = ORIENTED_EDGE('',*,*,#284,.T.);
#345 = ORIENTED_EDGE('',*,*,#336,.T.);
#346 = ORIENTED_EDGE('',*,*,#347,.F.);
#347 = EDGE_CURVE('',#337,#337,#348,.T.);
#348 = CIRCLE('',#349,0.216);
#349 = AXIS2_PLACEMENT_3D('',#350,#351,#352);
#350 = CARTESIAN_POINT('',(0.E+000,0.E+000,-3.));
#351 = DIRECTION('',(0.E+000,0.E+000,1.));
#352 = DIRECTION('',(1.,0.E+000,0.E+000));
#353 = TOROIDAL_SURFACE('',#354,0.216,0.144);
#354 = AXIS2_PLACEMENT_3D('',#355,#356,#357);
#355 = CARTESIAN_POINT('',(0.E+000,0.E+000,-2.856));
#356 = DIRECTION('',(-0.E+000,-0.E+000,-1.));
#357 = DIRECTION('',(1.,0.E+000,0.E+000));
#358 = ADVANCED_FACE('',(#359),#379,.T.);
#359 = FACE_BOUND('',#360,.F.);
#360 = EDGE_LOOP('',(#361,#370,#371,#372));
#361 = ORIENTED_EDGE('',*,*,#362,.F.);
#362 = EDGE_CURVE('',#312,#363,#365,.T.);
#363 = VERTEX_POINT('',#364);
#364 = CARTESIAN_POINT('',(7.716,-2.05,-3.));
#365 = CIRCLE('',#366,0.144);
#366 = AXIS2_PLACEMENT_3D('',#367,#368,#369);
#367 = CARTESIAN_POINT('',(7.716,-2.05,-2.856));
#368 = DIRECTION('',(-0.E+000,1.,0.E+000));
#369 = DIRECTION('',(1.,0.E+000,0.E+000));
#370 = ORIENTED_EDGE('',*,*,#319,.T.);
#371 = ORIENTED_EDGE('',*,*,#362,.T.);
#372 = ORIENTED_EDGE('',*,*,#373,.F.);
#373 = EDGE_CURVE('',#363,#363,#374,.T.);
#374 = CIRCLE('',#375,0.216);
#375 = AXIS2_PLACEMENT_3D('',#376,#377,#378);
#376 = CARTESIAN_POINT('',(7.5,-2.05,-3.));
#377 = DIRECTION('',(0.E+000,0.E+000,1.));
#378 = DIRECTION('',(1.,0.E+000,0.E+000));
#379 = TOROIDAL_SURFACE('',#380,0.216,0.144);
#380 = AXIS2_PLACEMENT_3D('',#381,#382,#383);
#381 = CARTESIAN_POINT('',(7.5,-2.05,-2.856));
#382 = DIRECTION('',(-0.E+000,-0.E+000,-1.));
#383 = DIRECTION('',(1.,0.E+000,0.E+000));
#384 = ADVANCED_FACE('',(#385),#388,.F.);
#385 = FACE_BOUND('',#386,.F.);
#386 = EDGE_LOOP('',(#387));
#387 = ORIENTED_EDGE('',*,*,#347,.T.);
#388 = PLANE('',#389);
#389 = AXIS2_PLACEMENT_3D('',#390,#391,#392);
#390 = CARTESIAN_POINT('',(-1.483767504926E-017,1.497958850874E-017,-3.)
);
#391 = DIRECTION('',(0.E+000,0.E+000,1.));
#392 = DIRECTION('',(1.,0.E+000,0.E+000));
#393 = ADVANCED_FACE('',(#394),#397,.F.);
#394 = FACE_BOUND('',#395,.F.);
#395 = EDGE_LOOP('',(#396));
#396 = ORIENTED_EDGE('',*,*,#373,.T.);
#397 = PLANE('',#398);
#398 = AXIS2_PLACEMENT_3D('',#399,#400,#401);
#399 = CARTESIAN_POINT('',(7.5,-2.05,-3.));
#400 = DIRECTION('',(0.E+000,0.E+000,1.));
#401 = DIRECTION('',(1.,0.E+000,0.E+000));
#402 = ( GEOMETRIC_REPRESENTATION_CONTEXT(3)
GLOBAL_UNCERTAINTY_ASSIGNED_CONTEXT((#406)) GLOBAL_UNIT_ASSIGNED_CONTEXT
((#403,#404,#405)) REPRESENTATION_CONTEXT('Context #1',
'3D Context with UNIT and UNCERTAINTY') );
#403 = ( LENGTH_UNIT() NAMED_UNIT(*) SI_UNIT(.MILLI.,.METRE.) );
#404 = ( NAMED_UNIT(*) PLANE_ANGLE_UNIT() SI_UNIT($,.RADIAN.) );
#405 = ( NAMED_UNIT(*) SI_UNIT($,.STERADIAN.) SOLID_ANGLE_UNIT() );
#406 = UNCERTAINTY_MEASURE_WITH_UNIT(LENGTH_MEASURE(1.E-007),#403,
'distance_accuracy_value','confusion accuracy');
#407 = PRODUCT_RELATED_PRODUCT_CATEGORY('part',$,(#7));
#408 = MECHANICAL_DESIGN_GEOMETRIC_PRESENTATION_REPRESENTATION('',(#409,
#417,#424,#431,#438,#446,#453,#460,#467,#474,#481),#402);
#409 = STYLED_ITEM('color',(#410),#17);
#410 = PRESENTATION_STYLE_ASSIGNMENT((#411));
#411 = SURFACE_STYLE_USAGE(.BOTH.,#412);
#412 = SURFACE_SIDE_STYLE('',(#413));
#413 = SURFACE_STYLE_FILL_AREA(#414);
#414 = FILL_AREA_STYLE('',(#415));
#415 = FILL_AREA_STYLE_COLOUR('',#416);
#416 = COLOUR_RGB('',0.136999994516,0.402000010014,0.726999998093);
#417 = STYLED_ITEM('color',(#418),#50);
#418 = PRESENTATION_STYLE_ASSIGNMENT((#419));
#419 = SURFACE_STYLE_USAGE(.BOTH.,#420);
#420 = SURFACE_SIDE_STYLE('',(#421));
#421 = SURFACE_STYLE_FILL_AREA(#422);
#422 = FILL_AREA_STYLE('',(#423));
#423 = FILL_AREA_STYLE_COLOUR('',#416);
#424 = STYLED_ITEM('color',(#425),#156);
#425 = PRESENTATION_STYLE_ASSIGNMENT((#426));
#426 = SURFACE_STYLE_USAGE(.BOTH.,#427);
#427 = SURFACE_SIDE_STYLE('',(#428));
#428 = SURFACE_STYLE_FILL_AREA(#429);
#429 = FILL_AREA_STYLE('',(#430));
#430 = FILL_AREA_STYLE_COLOUR('',#416);
#431 = STYLED_ITEM('color',(#432),#262);
#432 = PRESENTATION_STYLE_ASSIGNMENT((#433));
#433 = SURFACE_STYLE_USAGE(.BOTH.,#434);
#434 = SURFACE_SIDE_STYLE('',(#435));
#435 = SURFACE_STYLE_FILL_AREA(#436);
#436 = FILL_AREA_STYLE('',(#437));
#437 = FILL_AREA_STYLE_COLOUR('',#416);
#438 = STYLED_ITEM('color',(#439),#271);
#439 = PRESENTATION_STYLE_ASSIGNMENT((#440));
#440 = SURFACE_STYLE_USAGE(.BOTH.,#441);
#441 = SURFACE_SIDE_STYLE('',(#442));
#442 = SURFACE_STYLE_FILL_AREA(#443);
#443 = FILL_AREA_STYLE('',(#444));
#444 = FILL_AREA_STYLE_COLOUR('',#445);
#445 = COLOUR_RGB('',0.824000000954,0.819999992847,0.78100001812);
#446 = STYLED_ITEM('color',(#447),#297);
#447 = PRESENTATION_STYLE_ASSIGNMENT((#448));
#448 = SURFACE_STYLE_USAGE(.BOTH.,#449);
#449 = SURFACE_SIDE_STYLE('',(#450));
#450 = SURFACE_STYLE_FILL_AREA(#451);
#451 = FILL_AREA_STYLE('',(#452));
#452 = FILL_AREA_STYLE_COLOUR('',#416);
#453 = STYLED_ITEM('color',(#454),#306);
#454 = PRESENTATION_STYLE_ASSIGNMENT((#455));
#455 = SURFACE_STYLE_USAGE(.BOTH.,#456);
#456 = SURFACE_SIDE_STYLE('',(#457));
#457 = SURFACE_STYLE_FILL_AREA(#458);
#458 = FILL_AREA_STYLE('',(#459));
#459 = FILL_AREA_STYLE_COLOUR('',#445);
#460 = STYLED_ITEM('color',(#461),#332);
#461 = PRESENTATION_STYLE_ASSIGNMENT((#462));
#462 = SURFACE_STYLE_USAGE(.BOTH.,#463);
#463 = SURFACE_SIDE_STYLE('',(#464));
#464 = SURFACE_STYLE_FILL_AREA(#465);
#465 = FILL_AREA_STYLE('',(#466));
#466 = FILL_AREA_STYLE_COLOUR('',#445);
#467 = STYLED_ITEM('color',(#468),#358);
#468 = PRESENTATION_STYLE_ASSIGNMENT((#469));
#469 = SURFACE_STYLE_USAGE(.BOTH.,#470);
#470 = SURFACE_SIDE_STYLE('',(#471));
#471 = SURFACE_STYLE_FILL_AREA(#472);
#472 = FILL_AREA_STYLE('',(#473));
#473 = FILL_AREA_STYLE_COLOUR('',#445);
#474 = STYLED_ITEM('color',(#475),#384);
#475 = PRESENTATION_STYLE_ASSIGNMENT((#476));
#476 = SURFACE_STYLE_USAGE(.BOTH.,#477);
#477 = SURFACE_SIDE_STYLE('',(#478));
#478 = SURFACE_STYLE_FILL_AREA(#479);
#479 = FILL_AREA_STYLE('',(#480));
#480 = FILL_AREA_STYLE_COLOUR('',#445);
#481 = STYLED_ITEM('color',(#482),#393);
#482 = PRESENTATION_STYLE_ASSIGNMENT((#483));
#483 = SURFACE_STYLE_USAGE(.BOTH.,#484);
#484 = SURFACE_SIDE_STYLE('',(#485));
#485 = SURFACE_STYLE_FILL_AREA(#486);
#486 = FILL_AREA_STYLE('',(#487));
#487 = FILL_AREA_STYLE_COLOUR('',#445);
ENDSEC;
END-ISO-10303-21;
