ISO-10303-21;
HEADER;
/* RV_Disc_D21.5mm_W7.1mm_P10mm.step 3D STEP model for use in ECAD systems
 * Copyright (C) 2018, kicad StepUp
 * 
 * This work is licensed under the [Creative Commons CC-BY-SA 4.0 License](https://creativecommons.org/licenses/by-sa/4.0/legalcode), 
 * with the following exception:
 * To the extent that the creation of electronic designs that use 'Licensed Material' can be considered to be 'Adapted Material', 
 * then the copyright holder waives article 3 of the license with respect to these designs and any generated files which use data provided 
 * as part of the 'Licensed Material'.
 * You are free to use the library data in your own projects without the obligation to share your project files under this or any other license agreement.
 * However, if you wish to redistribute these libraries, or parts thereof (including in modified form) as a collection then the exception above does not apply. 
 * Please refer to https://github.com/KiCad/kicad-packages3D/blob/master/LICENSE.md for further clarification of the exception.
 * Disclaimer of Warranties and Limitation of Liability.
 * These libraries are provided in the hope that they will be useful, but are provided without warranty of any kind, express or implied.
 * *USE 3D CAD DATA AT YOUR OWN RISK*
 * *DO NOT RELY UPON ANY INFORMATION FOUND HERE WITHOUT INDEPENDENT VERIFICATION.*
 * 
 */

FILE_DESCRIPTION(
/* description */ ('model of RV_Disc_D21.5mm_W7.1mm_P10mm'),
/* implementation_level */ '2;1');

FILE_NAME(
/* name */ 'RV_Disc_D21.5mm_W7.1mm_P10mm.step',
/* time_stamp */ '2018-11-11T21:06:03',
/* author */ ('kicad StepUp','ksu'),
/* organization */ ('FreeCAD'),
/* preprocessor_version */ 'OCC',
/* originating_system */ 'kicad StepUp',
/* authorisation */ '');

FILE_SCHEMA(('AUTOMOTIVE_DESIGN { 1 0 10303 214 1 1 1 1 }'));
ENDSEC;

DATA;
#1 = APPLICATION_PROTOCOL_DEFINITION('international standard',
'automotive_design',2000,#2);
#2 = APPLICATION_CONTEXT(
'core data for automotive mechanical design processes');
#3 = SHAPE_DEFINITION_REPRESENTATION(#4,#10);
#4 = PRODUCT_DEFINITION_SHAPE('','',#5);
#5 = PRODUCT_DEFINITION('design','',#6,#9);
#6 = PRODUCT_DEFINITION_FORMATION('','',#7);
#7 = PRODUCT('RV_Disc_D215mm_W71mm_P10mm','RV_Disc_D215mm_W71mm_P10mm',
'',(#8));
#8 = PRODUCT_CONTEXT('',#2,'mechanical');
#9 = PRODUCT_DEFINITION_CONTEXT('part definition',#2,'design');
#10 = ADVANCED_BREP_SHAPE_REPRESENTATION('',(#11,#15),#403);
#11 = AXIS2_PLACEMENT_3D('',#12,#13,#14);
#12 = CARTESIAN_POINT('',(0.E+000,0.E+000,0.E+000));
#13 = DIRECTION('',(0.E+000,0.E+000,1.));
#14 = DIRECTION('',(1.,0.E+000,-0.E+000));
#15 = MANIFOLD_SOLID_BREP('',#16);
#16 = CLOSED_SHELL('',(#17,#50,#158,#263,#272,#298,#307,#333,#359,#385,
#394));
#17 = ADVANCED_FACE('',(#18),#45,.T.);
#18 = FACE_BOUND('',#19,.F.);
#19 = EDGE_LOOP('',(#20,#30,#37,#38));
#20 = ORIENTED_EDGE('',*,*,#21,.T.);
#21 = EDGE_CURVE('',#22,#24,#26,.T.);
#22 = VERTEX_POINT('',#23);
#23 = CARTESIAN_POINT('',(15.75,-1.663414634146,10.78));
#24 = VERTEX_POINT('',#25);
#25 = CARTESIAN_POINT('',(15.75,-1.836585365854,10.78));
#26 = LINE('',#27,#28);
#27 = CARTESIAN_POINT('',(15.75,1.8,10.78));
#28 = VECTOR('',#29,1.);
#29 = DIRECTION('',(0.E+000,-1.,0.E+000));
#30 = ORIENTED_EDGE('',*,*,#31,.T.);
#31 = EDGE_CURVE('',#24,#24,#32,.T.);
#32 = CIRCLE('',#33,10.75);
#33 = AXIS2_PLACEMENT_3D('',#34,#35,#36);
#34 = CARTESIAN_POINT('',(5.,-1.836585365854,10.78));
#35 = DIRECTION('',(0.E+000,-1.,0.E+000));
#36 = DIRECTION('',(1.,0.E+000,0.E+000));
#37 = ORIENTED_EDGE('',*,*,#21,.F.);
#38 = ORIENTED_EDGE('',*,*,#39,.F.);
#39 = EDGE_CURVE('',#22,#22,#40,.T.);
#40 = CIRCLE('',#41,10.75);
#41 = AXIS2_PLACEMENT_3D('',#42,#43,#44);
#42 = CARTESIAN_POINT('',(5.,-1.663414634146,10.78));
#43 = DIRECTION('',(0.E+000,-1.,0.E+000));
#44 = DIRECTION('',(1.,0.E+000,0.E+000));
#45 = CYLINDRICAL_SURFACE('',#46,10.75);
#46 = AXIS2_PLACEMENT_3D('',#47,#48,#49);
#47 = CARTESIAN_POINT('',(5.,1.8,10.78));
#48 = DIRECTION('',(0.E+000,1.,0.E+000));
#49 = DIRECTION('',(1.,0.E+000,0.E+000));
#50 = ADVANCED_FACE('',(#51,#71),#153,.T.);
#51 = FACE_BOUND('',#52,.F.);
#52 = EDGE_LOOP('',(#53,#54,#63,#70));
#53 = ORIENTED_EDGE('',*,*,#39,.T.);
#54 = ORIENTED_EDGE('',*,*,#55,.T.);
#55 = EDGE_CURVE('',#22,#56,#58,.T.);
#56 = VERTEX_POINT('',#57);
#57 = CARTESIAN_POINT('',(12.286585365854,1.8,10.78));
#58 = CIRCLE('',#59,3.463414634146);
#59 = AXIS2_PLACEMENT_3D('',#60,#61,#62);
#60 = CARTESIAN_POINT('',(12.286585365854,-1.663414634146,10.78));
#61 = DIRECTION('',(0.E+000,0.E+000,1.));
#62 = DIRECTION('',(1.,0.E+000,0.E+000));
#63 = ORIENTED_EDGE('',*,*,#64,.F.);
#64 = EDGE_CURVE('',#56,#56,#65,.T.);
#65 = CIRCLE('',#66,7.286585365854);
#66 = AXIS2_PLACEMENT_3D('',#67,#68,#69);
#67 = CARTESIAN_POINT('',(5.,1.8,10.78));
#68 = DIRECTION('',(0.E+000,-1.,0.E+000));
#69 = DIRECTION('',(1.,0.E+000,0.E+000));
#70 = ORIENTED_EDGE('',*,*,#55,.F.);
#71 = FACE_BOUND('',#72,.F.);
#72 = EDGE_LOOP('',(#73,#106));
#73 = ORIENTED_EDGE('',*,*,#74,.T.);
#74 = EDGE_CURVE('',#75,#77,#79,.T.);
#75 = VERTEX_POINT('',#76);
#76 = CARTESIAN_POINT('',(0.45,0.E+000,1.512279127992));
#77 = VERTEX_POINT('',#78);
#78 = CARTESIAN_POINT('',(-0.228259111814,-0.387811523648,1.66668058025)
);
#79 = B_SPLINE_CURVE_WITH_KNOTS('',7,(#80,#81,#82,#83,#84,#85,#86,#87,
#88,#89,#90,#91,#92,#93,#94,#95,#96,#97,#98,#99,#100,#101,#102,#103,
#104,#105),.UNSPECIFIED.,.F.,.F.,(8,6,6,6,8),(0.E+000,0.112453398911
,0.323309425554,0.54081617196,1.),.UNSPECIFIED.);
#80 = CARTESIAN_POINT('',(0.45,-1.665334536938E-016,1.512279127992));
#81 = CARTESIAN_POINT('',(0.45,-1.420496829133E-002,1.503614063289));
#82 = CARTESIAN_POINT('',(0.449476859512,-2.849140465091E-002,
1.495270186953));
#83 = CARTESIAN_POINT('',(0.448419792869,-4.283891590998E-002,
1.487265288021));
#84 = CARTESIAN_POINT('',(0.44681856609,-5.722511453674E-002,
1.479617330324));
#85 = CARTESIAN_POINT('',(0.444663955565,-7.162562943982E-002,
1.472344144966));
#86 = CARTESIAN_POINT('',(0.441948206749,-8.601411677179E-002,
1.46546312282));
#87 = CARTESIAN_POINT('',(0.432510231938,-0.127265812672,1.44685516259)
);
#88 = CARTESIAN_POINT('',(0.424360794518,-0.154031184663,1.436155076821)
);
#89 = CARTESIAN_POINT('',(0.414179289564,-0.180466318768,1.427003401756)
);
#90 = CARTESIAN_POINT('',(0.401953342835,-0.206359432634,1.419500059249)
);
#91 = CARTESIAN_POINT('',(0.387706285683,-0.231482894947,1.413724199612)
);
#92 = CARTESIAN_POINT('',(0.371505754747,-0.255602649807,1.409726431596)
);
#93 = CARTESIAN_POINT('',(0.334866797311,-0.302105753017,1.405246460178)
);
#94 = CARTESIAN_POINT('',(0.314306259413,-0.324416328292,1.404878566548)
);
#95 = CARTESIAN_POINT('',(0.291918611821,-0.345174340425,1.406435330756)
);
#96 = CARTESIAN_POINT('',(0.267878214032,-0.364158446701,1.409891262562)
);
#97 = CARTESIAN_POINT('',(0.242395344815,-0.381182389803,1.415184256499)
);
#98 = CARTESIAN_POINT('',(0.215707284988,-0.396100840497,1.422222254834)
);
#99 = CARTESIAN_POINT('',(0.129722383585,-0.435656921673,1.449188411096)
);
#100 = CARTESIAN_POINT('',(6.691839084787E-002,-0.452777677248,
1.474820151622));
#101 = CARTESIAN_POINT('',(2.34336991149E-003,-0.458950135326,
1.506689933605));
#102 = CARTESIAN_POINT('',(-6.123390778993E-002,-0.454396794034,
1.543100836487));
#103 = CARTESIAN_POINT('',(-0.12172586973,-0.440165980109,1.582621241657
));
#104 = CARTESIAN_POINT('',(-0.177711151099,-0.417563173388,
1.624093351766));
#105 = CARTESIAN_POINT('',(-0.228259111814,-0.387811523648,1.66668058025
));
#106 = ORIENTED_EDGE('',*,*,#107,.T.);
#107 = EDGE_CURVE('',#77,#75,#108,.T.);
#108 = B_SPLINE_CURVE_WITH_KNOTS('',7,(#109,#110,#111,#112,#113,#114,
#115,#116,#117,#118,#119,#120,#121,#122,#123,#124,#125,#126,#127,
#128,#129,#130,#131,#132,#133,#134,#135,#136,#137,#138,#139,#140,
#141,#142,#143,#144,#145,#146,#147,#148,#149,#150,#151,#152),
.UNSPECIFIED.,.F.,.F.,(8,6,6,6,6,6,6,8),(0.E+000,0.108118109478,
0.354024980936,0.410833234824,0.502641547022,0.646186052306,
0.807435128123,1.),.UNSPECIFIED.);
#109 = CARTESIAN_POINT('',(-0.228259111814,-0.387811523648,1.66668058025
));
#110 = CARTESIAN_POINT('',(-0.25333320204,-0.373053350629,1.687805784796
));
#111 = CARTESIAN_POINT('',(-0.27709199886,-0.356522712252,1.709224398681
));
#112 = CARTESIAN_POINT('',(-0.299424787801,-0.33835876544,1.730841307951
));
#113 = CARTESIAN_POINT('',(-0.320235990081,-0.318699505569,
1.752570683826));
#114 = CARTESIAN_POINT('',(-0.33944252542,-0.297681044476,1.77433336392)
);
#115 = CARTESIAN_POINT('',(-0.356971174868,-0.275436888474,
1.796054233464));
#116 = CARTESIAN_POINT('',(-0.408657265968,-0.199012809152,
1.866799475173));
#117 = CARTESIAN_POINT('',(-0.435489431591,-0.14033201256,1.915276310746
));
#118 = CARTESIAN_POINT('',(-0.452578950915,-7.752785969869E-002,
1.962308841567));
#119 = CARTESIAN_POINT('',(-0.459251091125,-1.207119694695E-002,
2.007008431742));
#120 = CARTESIAN_POINT('',(-0.454897549693,5.435347891631E-002,
2.048226091177));
#121 = CARTESIAN_POINT('',(-0.43905294848,0.11982358456,2.084389887033)
);
#122 = CARTESIAN_POINT('',(-0.405189160593,0.196388852174,2.120082314307
));
#123 = CARTESIAN_POINT('',(-0.398214431046,0.210576433333,2.126394952963
));
#124 = CARTESIAN_POINT('',(-0.390619885513,0.224552406365,2.132295549684
));
#125 = CARTESIAN_POINT('',(-0.382407556944,0.238283769533,2.137755770197
));
#126 = CARTESIAN_POINT('',(-0.373582226152,0.251735687248,2.142746187633
));
#127 = CARTESIAN_POINT('',(-0.364152089795,0.26487189231,2.147236970998)
);
#128 = CARTESIAN_POINT('',(-0.337931718221,0.298314121873,2.157600954059
));
#129 = CARTESIAN_POINT('',(-0.320184395986,0.318053792357,2.162622049458
));
#130 = CARTESIAN_POINT('',(-0.300942372736,0.336711833652,2.166135580831
));
#131 = CARTESIAN_POINT('',(-0.280290312586,0.354120804781,2.168019774474
));
#132 = CARTESIAN_POINT('',(-0.258349620285,0.370117152965,2.168170657053
));
#133 = CARTESIAN_POINT('',(-0.235281207074,0.384553593745,2.166518285688
));
#134 = CARTESIAN_POINT('',(-0.173763878592,0.417267273459,2.157616774864
));
#135 = CARTESIAN_POINT('',(-0.133926149733,0.433149538697,2.14773151764)
);
#136 = CARTESIAN_POINT('',(-9.259157810333E-002,0.44446395512,
2.133315586384));
#137 = CARTESIAN_POINT('',(-5.067263589275E-002,0.451036080721,
2.114632180589));
#138 = CARTESIAN_POINT('',(-9.02869643947E-003,0.452982570337,
2.092256218357));
#139 = CARTESIAN_POINT('',(3.159464457039E-002,0.450622518777,
2.066937433275));
#140 = CARTESIAN_POINT('',(0.114391730125,0.437471897737,2.008661918128)
);
#141 = CARTESIAN_POINT('',(0.156249981391,0.425659358012,1.975069592427)
);
#142 = CARTESIAN_POINT('',(0.19572777911,0.409548305585,1.939536193883)
);
#143 = CARTESIAN_POINT('',(0.23255003886,0.389638265694,1.902783254984)
);
#144 = CARTESIAN_POINT('',(0.266535318911,0.366346583013,1.865403057874)
);
#145 = CARTESIAN_POINT('',(0.297538706852,0.339997432183,1.827865694458)
);
#146 = CARTESIAN_POINT('',(0.358681618748,0.275986552494,1.746015842177)
);
#147 = CARTESIAN_POINT('',(0.387435756501,0.237172213193,1.701867899695)
);
#148 = CARTESIAN_POINT('',(0.411390023783,0.194830164789,1.658823519));
#149 = CARTESIAN_POINT('',(0.430149459337,0.149368349349,1.617576054688)
);
#150 = CARTESIAN_POINT('',(0.44320781461,0.101269194444,1.578868758823)
);
#151 = CARTESIAN_POINT('',(0.45,5.118303504483E-002,1.543500902041));
#152 = CARTESIAN_POINT('',(0.45,-1.665334536938E-016,1.512279127992));
#153 = TOROIDAL_SURFACE('',#154,7.286585365854,3.463414634146);
#154 = AXIS2_PLACEMENT_3D('',#155,#156,#157);
#155 = CARTESIAN_POINT('',(5.,-1.663414634146,10.78));
#156 = DIRECTION('',(0.E+000,1.,0.E+000));
#157 = DIRECTION('',(1.,0.E+000,0.E+000));
#158 = ADVANCED_FACE('',(#159,#179),#258,.T.);
#159 = FACE_BOUND('',#160,.T.);
#160 = EDGE_LOOP('',(#161,#162,#171,#178));
#161 = ORIENTED_EDGE('',*,*,#31,.T.);
#162 = ORIENTED_EDGE('',*,*,#163,.T.);
#163 = EDGE_CURVE('',#24,#164,#166,.T.);
#164 = VERTEX_POINT('',#165);
#165 = CARTESIAN_POINT('',(12.286585365854,-5.3,10.78));
#166 = CIRCLE('',#167,3.463414634146);
#167 = AXIS2_PLACEMENT_3D('',#168,#169,#170);
#168 = CARTESIAN_POINT('',(12.286585365854,-1.836585365854,10.78));
#169 = DIRECTION('',(0.E+000,0.E+000,-1.));
#170 = DIRECTION('',(1.,0.E+000,0.E+000));
#171 = ORIENTED_EDGE('',*,*,#172,.F.);
#172 = EDGE_CURVE('',#164,#164,#173,.T.);
#173 = CIRCLE('',#174,7.286585365854);
#174 = AXIS2_PLACEMENT_3D('',#175,#176,#177);
#175 = CARTESIAN_POINT('',(5.,-5.3,10.78));
#176 = DIRECTION('',(0.E+000,-1.,0.E+000));
#177 = DIRECTION('',(1.,0.E+000,0.E+000));
#178 = ORIENTED_EDGE('',*,*,#163,.F.);
#179 = FACE_BOUND('',#180,.T.);
#180 = EDGE_LOOP('',(#181,#211));
#181 = ORIENTED_EDGE('',*,*,#182,.T.);
#182 = EDGE_CURVE('',#183,#185,#187,.T.);
#183 = VERTEX_POINT('',#184);
#184 = CARTESIAN_POINT('',(10.45,-3.5,2.011268611627));
#185 = VERTEX_POINT('',#186);
#186 = CARTESIAN_POINT('',(9.673914569136,-3.189889871532,1.40594083704)
);
#187 = B_SPLINE_CURVE_WITH_KNOTS('',8,(#188,#189,#190,#191,#192,#193,
#194,#195,#196,#197,#198,#199,#200,#201,#202,#203,#204,#205,#206,
#207,#208,#209,#210),.UNSPECIFIED.,.F.,.F.,(9,7,7,9),(0.E+000,
0.260751207333,0.527526964032,1.),.UNSPECIFIED.);
#188 = CARTESIAN_POINT('',(10.45,-3.5,2.011268611627));
#189 = CARTESIAN_POINT('',(10.45,-3.466579095731,1.989721656048));
#190 = CARTESIAN_POINT('',(10.44716329378,-3.433385191963,1.967218002538
));
#191 = CARTESIAN_POINT('',(10.441557257988,-3.400639890795,1.94392638829
));
#192 = CARTESIAN_POINT('',(10.433254035409,-3.368554464995,
1.919994679004));
#193 = CARTESIAN_POINT('',(10.422331046342,-3.337332312035,
1.895554373727));
#194 = CARTESIAN_POINT('',(10.408871499989,-3.307171408116,
1.870725109681));
#195 = CARTESIAN_POINT('',(10.392964905829,-3.278266762199,
1.845619167099));
#196 = CARTESIAN_POINT('',(10.35602843629,-3.222724666982,1.794488854288
));
#197 = CARTESIAN_POINT('',(10.334892952319,-3.196161411284,
1.768462483151));
#198 = CARTESIAN_POINT('',(10.311404931346,-3.171328217821,
1.742382093039));
#199 = CARTESIAN_POINT('',(10.285680121891,-3.148437991155,
1.716366777915));
#200 = CARTESIAN_POINT('',(10.257852585225,-3.127710412858,
1.690544064878));
#201 = CARTESIAN_POINT('',(10.228080452563,-3.109369748767,
1.665054477818));
#202 = CARTESIAN_POINT('',(10.19655107699,-3.093641476176,1.640056093141
));
#203 = CARTESIAN_POINT('',(10.104924952657,-3.057912271601,
1.572644759667));
#204 = CARTESIAN_POINT('',(10.041036510904,-3.043769016113,
1.531291453815));
#205 = CARTESIAN_POINT('',(9.9736133927,-3.040099458031,1.493257347641)
);
#206 = CARTESIAN_POINT('',(9.905058809983,-3.048090165693,1.460179774913
));
#207 = CARTESIAN_POINT('',(9.838141336319,-3.068098288703,1.433656236725
));
#208 = CARTESIAN_POINT('',(9.775705998614,-3.099602250108,1.415206875511
));
#209 = CARTESIAN_POINT('',(9.72037084889,-3.141040399654,1.405933270955)
);
#210 = CARTESIAN_POINT('',(9.673914569136,-3.189889871532,1.40594083704)
);
#211 = ORIENTED_EDGE('',*,*,#212,.T.);
#212 = EDGE_CURVE('',#185,#183,#213,.T.);
#213 = B_SPLINE_CURVE_WITH_KNOTS('',8,(#214,#215,#216,#217,#218,#219,
#220,#221,#222,#223,#224,#225,#226,#227,#228,#229,#230,#231,#232,
#233,#234,#235,#236,#237,#238,#239,#240,#241,#242,#243,#244,#245,
#246,#247,#248,#249,#250,#251,#252,#253,#254,#255,#256,#257),
.UNSPECIFIED.,.F.,.F.,(9,7,7,7,7,7,9),(0.E+000,0.20696740996,
0.399146366044,0.578022322903,0.818950136679,0.870389650365,1.),
.UNSPECIFIED.);
#214 = CARTESIAN_POINT('',(9.673914569136,-3.189889871532,1.40594083704)
);
#215 = CARTESIAN_POINT('',(9.6403457284,-3.225188008839,1.405946304217)
);
#216 = CARTESIAN_POINT('',(9.611367882476,-3.264403099397,1.410797870318
));
#217 = CARTESIAN_POINT('',(9.587661108737,-3.306616676476,1.42055863406)
);
#218 = CARTESIAN_POINT('',(9.569549717326,-3.350797666338,1.435033453059
));
#219 = CARTESIAN_POINT('',(9.557057869123,-3.395969382141,1.453838657464
));
#220 = CARTESIAN_POINT('',(9.550003123896,-3.441286839883,1.476478450442
));
#221 = CARTESIAN_POINT('',(9.548092129941,-3.486055510441,1.502413682743
));
#222 = CARTESIAN_POINT('',(9.553666665444,-3.570269584479,1.557753348572
));
#223 = CARTESIAN_POINT('',(9.560492574731,-3.609893873635,1.58679532208)
);
#224 = CARTESIAN_POINT('',(9.571199979325,-3.648209282903,1.617849825468
));
#225 = CARTESIAN_POINT('',(9.585526523258,-3.684905718573,1.650539471288
));
#226 = CARTESIAN_POINT('',(9.603227237305,-3.71973085163,1.684502386402)
);
#227 = CARTESIAN_POINT('',(9.624087948808,-3.752468907754,1.719392756712
));
#228 = CARTESIAN_POINT('',(9.647932773684,-3.782916595202,1.754873798518
));
#229 = CARTESIAN_POINT('',(9.699470872173,-3.836861714489,1.823859259155
));
#230 = CARTESIAN_POINT('',(9.726757249359,-3.860667031035,1.857295573719
));
#231 = CARTESIAN_POINT('',(9.756383078555,-3.882119759703,1.890655351382
));
#232 = CARTESIAN_POINT('',(9.788252494997,-3.901017364389,1.923638834144
));
#233 = CARTESIAN_POINT('',(9.822255193361,-3.917106093472,1.955884438579
));
#234 = CARTESIAN_POINT('',(9.858243577165,-3.930084410345,1.986961065581
));
#235 = CARTESIAN_POINT('',(9.896007376954,-3.939610894421,2.016371536078
));
#236 = CARTESIAN_POINT('',(9.988095838196,-3.953001637644,2.080196896448
));
#237 = CARTESIAN_POINT('',(10.044081217613,-3.953822884724,
2.113128089357));
#238 = CARTESIAN_POINT('',(10.10144245204,-3.946508705849,2.140136204565
));
#239 = CARTESIAN_POINT('',(10.158126780288,-3.930511501708,
2.159465198422));
#240 = CARTESIAN_POINT('',(10.212041681597,-3.906042530119,
2.170229212382));
#241 = CARTESIAN_POINT('',(10.261295789799,-3.874030375067,
2.172585364134));
#242 = CARTESIAN_POINT('',(10.304493911246,-3.83599225816,2.167377073032
));
#243 = CARTESIAN_POINT('',(10.348653440548,-3.784749759914,2.15344059179
));
#244 = CARTESIAN_POINT('',(10.356121709116,-3.775532553242,
2.150699596554));
#245 = CARTESIAN_POINT('',(10.36328308317,-3.766127540008,2.147680056919
));
#246 = CARTESIAN_POINT('',(10.370133003222,-3.756548277873,
2.144392652722));
#247 = CARTESIAN_POINT('',(10.376667916712,-3.746808072361,
2.140848159337));
#248 = CARTESIAN_POINT('',(10.382885170254,-3.736919890868,
2.137057310343));
#249 = CARTESIAN_POINT('',(10.388782901894,-3.726896276662,
2.133030660193));
#250 = CARTESIAN_POINT('',(10.408412185145,-3.691182185958,
2.118064293226));
#251 = CARTESIAN_POINT('',(10.420425664394,-3.664836655935,
2.105920175856));
#252 = CARTESIAN_POINT('',(10.430386134112,-3.63790013542,2.092508912419
));
#253 = CARTESIAN_POINT('',(10.438299303918,-3.610547751377,
2.077982893511));
#254 = CARTESIAN_POINT('',(10.444185332577,-3.58294085988,2.062480654024
));
#255 = CARTESIAN_POINT('',(10.448073921609,-3.555226682372,2.04612510478
));
#256 = CARTESIAN_POINT('',(10.45,-3.527539013423,2.029023424427));
#257 = CARTESIAN_POINT('',(10.45,-3.5,2.011268611627));
#258 = TOROIDAL_SURFACE('',#259,7.286585365854,3.463414634146);
#259 = AXIS2_PLACEMENT_3D('',#260,#261,#262);
#260 = CARTESIAN_POINT('',(5.,-1.836585365854,10.78));
#261 = DIRECTION('',(0.E+000,-1.,0.E+000));
#262 = DIRECTION('',(1.,0.E+000,0.E+000));
#263 = ADVANCED_FACE('',(#264),#267,.F.);
#264 = FACE_BOUND('',#265,.F.);
#265 = EDGE_LOOP('',(#266));
#266 = ORIENTED_EDGE('',*,*,#64,.T.);
#267 = PLANE('',#268);
#268 = AXIS2_PLACEMENT_3D('',#269,#270,#271);
#269 = CARTESIAN_POINT('',(5.,1.8,10.78));
#270 = DIRECTION('',(-0.E+000,-1.,-0.E+000));
#271 = DIRECTION('',(0.E+000,0.E+000,-1.));
#272 = ADVANCED_FACE('',(#273),#293,.T.);
#273 = FACE_BOUND('',#274,.T.);
#274 = EDGE_LOOP('',(#275,#276,#284,#291,#292));
#275 = ORIENTED_EDGE('',*,*,#107,.T.);
#276 = ORIENTED_EDGE('',*,*,#277,.T.);
#277 = EDGE_CURVE('',#75,#278,#280,.T.);
#278 = VERTEX_POINT('',#279);
#279 = CARTESIAN_POINT('',(0.45,0.E+000,-2.82));
#280 = LINE('',#281,#282);
#281 = CARTESIAN_POINT('',(0.45,0.E+000,10.78));
#282 = VECTOR('',#283,1.);
#283 = DIRECTION('',(-0.E+000,-0.E+000,-1.));
#284 = ORIENTED_EDGE('',*,*,#285,.T.);
#285 = EDGE_CURVE('',#278,#278,#286,.T.);
#286 = CIRCLE('',#287,0.45);
#287 = AXIS2_PLACEMENT_3D('',#288,#289,#290);
#288 = CARTESIAN_POINT('',(0.E+000,0.E+000,-2.82));
#289 = DIRECTION('',(0.E+000,0.E+000,1.));
#290 = DIRECTION('',(1.,0.E+000,0.E+000));
#291 = ORIENTED_EDGE('',*,*,#277,.F.);
#292 = ORIENTED_EDGE('',*,*,#74,.T.);
#293 = CYLINDRICAL_SURFACE('',#294,0.45);
#294 = AXIS2_PLACEMENT_3D('',#295,#296,#297);
#295 = CARTESIAN_POINT('',(0.E+000,0.E+000,10.78));
#296 = DIRECTION('',(0.E+000,0.E+000,1.));
#297 = DIRECTION('',(1.,0.E+000,0.E+000));
#298 = ADVANCED_FACE('',(#299),#302,.T.);
#299 = FACE_BOUND('',#300,.T.);
#300 = EDGE_LOOP('',(#301));
#301 = ORIENTED_EDGE('',*,*,#172,.T.);
#302 = PLANE('',#303);
#303 = AXIS2_PLACEMENT_3D('',#304,#305,#306);
#304 = CARTESIAN_POINT('',(5.,-5.3,10.78));
#305 = DIRECTION('',(-0.E+000,-1.,-0.E+000));
#306 = DIRECTION('',(0.E+000,0.E+000,-1.));
#307 = ADVANCED_FACE('',(#308),#328,.T.);
#308 = FACE_BOUND('',#309,.T.);
#309 = EDGE_LOOP('',(#310,#311,#319,#326,#327));
#310 = ORIENTED_EDGE('',*,*,#182,.F.);
#311 = ORIENTED_EDGE('',*,*,#312,.T.);
#312 = EDGE_CURVE('',#183,#313,#315,.T.);
#313 = VERTEX_POINT('',#314);
#314 = CARTESIAN_POINT('',(10.45,-3.5,-2.82));
#315 = LINE('',#316,#317);
#316 = CARTESIAN_POINT('',(10.45,-3.5,10.78));
#317 = VECTOR('',#318,1.);
#318 = DIRECTION('',(-0.E+000,-0.E+000,-1.));
#319 = ORIENTED_EDGE('',*,*,#320,.T.);
#320 = EDGE_CURVE('',#313,#313,#321,.T.);
#321 = CIRCLE('',#322,0.45);
#322 = AXIS2_PLACEMENT_3D('',#323,#324,#325);
#323 = CARTESIAN_POINT('',(10.,-3.5,-2.82));
#324 = DIRECTION('',(0.E+000,0.E+000,1.));
#325 = DIRECTION('',(1.,0.E+000,0.E+000));
#326 = ORIENTED_EDGE('',*,*,#312,.F.);
#327 = ORIENTED_EDGE('',*,*,#212,.F.);
#328 = CYLINDRICAL_SURFACE('',#329,0.45);
#329 = AXIS2_PLACEMENT_3D('',#330,#331,#332);
#330 = CARTESIAN_POINT('',(10.,-3.5,10.78));
#331 = DIRECTION('',(0.E+000,0.E+000,1.));
#332 = DIRECTION('',(1.,0.E+000,0.E+000));
#333 = ADVANCED_FACE('',(#334),#354,.T.);
#334 = FACE_BOUND('',#335,.F.);
#335 = EDGE_LOOP('',(#336,#345,#346,#347));
#336 = ORIENTED_EDGE('',*,*,#337,.F.);
#337 = EDGE_CURVE('',#278,#338,#340,.T.);
#338 = VERTEX_POINT('',#339);
#339 = CARTESIAN_POINT('',(0.27,0.E+000,-3.));
#340 = CIRCLE('',#341,0.18);
#341 = AXIS2_PLACEMENT_3D('',#342,#343,#344);
#342 = CARTESIAN_POINT('',(0.27,0.E+000,-2.82));
#343 = DIRECTION('',(-0.E+000,1.,0.E+000));
#344 = DIRECTION('',(1.,0.E+000,0.E+000));
#345 = ORIENTED_EDGE('',*,*,#285,.T.);
#346 = ORIENTED_EDGE('',*,*,#337,.T.);
#347 = ORIENTED_EDGE('',*,*,#348,.F.);
#348 = EDGE_CURVE('',#338,#338,#349,.T.);
#349 = CIRCLE('',#350,0.27);
#350 = AXIS2_PLACEMENT_3D('',#351,#352,#353);
#351 = CARTESIAN_POINT('',(0.E+000,0.E+000,-3.));
#352 = DIRECTION('',(0.E+000,0.E+000,1.));
#353 = DIRECTION('',(1.,0.E+000,0.E+000));
#354 = TOROIDAL_SURFACE('',#355,0.27,0.18);
#355 = AXIS2_PLACEMENT_3D('',#356,#357,#358);
#356 = CARTESIAN_POINT('',(0.E+000,0.E+000,-2.82));
#357 = DIRECTION('',(-0.E+000,-0.E+000,-1.));
#358 = DIRECTION('',(1.,0.E+000,0.E+000));
#359 = ADVANCED_FACE('',(#360),#380,.T.);
#360 = FACE_BOUND('',#361,.F.);
#361 = EDGE_LOOP('',(#362,#371,#372,#373));
#362 = ORIENTED_EDGE('',*,*,#363,.F.);
#363 = EDGE_CURVE('',#313,#364,#366,.T.);
#364 = VERTEX_POINT('',#365);
#365 = CARTESIAN_POINT('',(10.27,-3.5,-3.));
#366 = CIRCLE('',#367,0.18);
#367 = AXIS2_PLACEMENT_3D('',#368,#369,#370);
#368 = CARTESIAN_POINT('',(10.27,-3.5,-2.82));
#369 = DIRECTION('',(-0.E+000,1.,0.E+000));
#370 = DIRECTION('',(1.,0.E+000,0.E+000));
#371 = ORIENTED_EDGE('',*,*,#320,.T.);
#372 = ORIENTED_EDGE('',*,*,#363,.T.);
#373 = ORIENTED_EDGE('',*,*,#374,.F.);
#374 = EDGE_CURVE('',#364,#364,#375,.T.);
#375 = CIRCLE('',#376,0.27);
#376 = AXIS2_PLACEMENT_3D('',#377,#378,#379);
#377 = CARTESIAN_POINT('',(10.,-3.5,-3.));
#378 = DIRECTION('',(0.E+000,0.E+000,1.));
#379 = DIRECTION('',(1.,0.E+000,0.E+000));
#380 = TOROIDAL_SURFACE('',#381,0.27,0.18);
#381 = AXIS2_PLACEMENT_3D('',#382,#383,#384);
#382 = CARTESIAN_POINT('',(10.,-3.5,-2.82));
#383 = DIRECTION('',(-0.E+000,-0.E+000,-1.));
#384 = DIRECTION('',(1.,0.E+000,0.E+000));
#385 = ADVANCED_FACE('',(#386),#389,.F.);
#386 = FACE_BOUND('',#387,.F.);
#387 = EDGE_LOOP('',(#388));
#388 = ORIENTED_EDGE('',*,*,#348,.T.);
#389 = PLANE('',#390);
#390 = AXIS2_PLACEMENT_3D('',#391,#392,#393);
#391 = CARTESIAN_POINT('',(-1.18701400394E-017,2.911085817041E-017,-3.)
);
#392 = DIRECTION('',(0.E+000,0.E+000,1.));
#393 = DIRECTION('',(1.,0.E+000,0.E+000));
#394 = ADVANCED_FACE('',(#395),#398,.F.);
#395 = FACE_BOUND('',#396,.F.);
#396 = EDGE_LOOP('',(#397));
#397 = ORIENTED_EDGE('',*,*,#374,.T.);
#398 = PLANE('',#399);
#399 = AXIS2_PLACEMENT_3D('',#400,#401,#402);
#400 = CARTESIAN_POINT('',(10.,-3.5,-3.));
#401 = DIRECTION('',(0.E+000,0.E+000,1.));
#402 = DIRECTION('',(1.,0.E+000,0.E+000));
#403 = ( GEOMETRIC_REPRESENTATION_CONTEXT(3)
GLOBAL_UNCERTAINTY_ASSIGNED_CONTEXT((#407)) GLOBAL_UNIT_ASSIGNED_CONTEXT
((#404,#405,#406)) REPRESENTATION_CONTEXT('Context #1',
'3D Context with UNIT and UNCERTAINTY') );
#404 = ( LENGTH_UNIT() NAMED_UNIT(*) SI_UNIT(.MILLI.,.METRE.) );
#405 = ( NAMED_UNIT(*) PLANE_ANGLE_UNIT() SI_UNIT($,.RADIAN.) );
#406 = ( NAMED_UNIT(*) SI_UNIT($,.STERADIAN.) SOLID_ANGLE_UNIT() );
#407 = UNCERTAINTY_MEASURE_WITH_UNIT(LENGTH_MEASURE(1.E-007),#404,
'distance_accuracy_value','confusion accuracy');
#408 = PRODUCT_RELATED_PRODUCT_CATEGORY('part',$,(#7));
#409 = MECHANICAL_DESIGN_GEOMETRIC_PRESENTATION_REPRESENTATION('',(#410,
#418,#425,#432,#439,#447,#454,#461,#468,#475,#482),#403);
#410 = STYLED_ITEM('color',(#411),#17);
#411 = PRESENTATION_STYLE_ASSIGNMENT((#412));
#412 = SURFACE_STYLE_USAGE(.BOTH.,#413);
#413 = SURFACE_SIDE_STYLE('',(#414));
#414 = SURFACE_STYLE_FILL_AREA(#415);
#415 = FILL_AREA_STYLE('',(#416));
#416 = FILL_AREA_STYLE_COLOUR('',#417);
#417 = COLOUR_RGB('',0.136999994516,0.402000010014,0.726999998093);
#418 = STYLED_ITEM('color',(#419),#50);
#419 = PRESENTATION_STYLE_ASSIGNMENT((#420));
#420 = SURFACE_STYLE_USAGE(.BOTH.,#421);
#421 = SURFACE_SIDE_STYLE('',(#422));
#422 = SURFACE_STYLE_FILL_AREA(#423);
#423 = FILL_AREA_STYLE('',(#424));
#424 = FILL_AREA_STYLE_COLOUR('',#417);
#425 = STYLED_ITEM('color',(#426),#158);
#426 = PRESENTATION_STYLE_ASSIGNMENT((#427));
#427 = SURFACE_STYLE_USAGE(.BOTH.,#428);
#428 = SURFACE_SIDE_STYLE('',(#429));
#429 = SURFACE_STYLE_FILL_AREA(#430);
#430 = FILL_AREA_STYLE('',(#431));
#431 = FILL_AREA_STYLE_COLOUR('',#417);
#432 = STYLED_ITEM('color',(#433),#263);
#433 = PRESENTATION_STYLE_ASSIGNMENT((#434));
#434 = SURFACE_STYLE_USAGE(.BOTH.,#435);
#435 = SURFACE_SIDE_STYLE('',(#436));
#436 = SURFACE_STYLE_FILL_AREA(#437);
#437 = FILL_AREA_STYLE('',(#438));
#438 = FILL_AREA_STYLE_COLOUR('',#417);
#439 = STYLED_ITEM('color',(#440),#272);
#440 = PRESENTATION_STYLE_ASSIGNMENT((#441));
#441 = SURFACE_STYLE_USAGE(.BOTH.,#442);
#442 = SURFACE_SIDE_STYLE('',(#443));
#443 = SURFACE_STYLE_FILL_AREA(#444);
#444 = FILL_AREA_STYLE('',(#445));
#445 = FILL_AREA_STYLE_COLOUR('',#446);
#446 = COLOUR_RGB('',0.824000000954,0.819999992847,0.78100001812);
#447 = STYLED_ITEM('color',(#448),#298);
#448 = PRESENTATION_STYLE_ASSIGNMENT((#449));
#449 = SURFACE_STYLE_USAGE(.BOTH.,#450);
#450 = SURFACE_SIDE_STYLE('',(#451));
#451 = SURFACE_STYLE_FILL_AREA(#452);
#452 = FILL_AREA_STYLE('',(#453));
#453 = FILL_AREA_STYLE_COLOUR('',#417);
#454 = STYLED_ITEM('color',(#455),#307);
#455 = PRESENTATION_STYLE_ASSIGNMENT((#456));
#456 = SURFACE_STYLE_USAGE(.BOTH.,#457);
#457 = SURFACE_SIDE_STYLE('',(#458));
#458 = SURFACE_STYLE_FILL_AREA(#459);
#459 = FILL_AREA_STYLE('',(#460));
#460 = FILL_AREA_STYLE_COLOUR('',#446);
#461 = STYLED_ITEM('color',(#462),#333);
#462 = PRESENTATION_STYLE_ASSIGNMENT((#463));
#463 = SURFACE_STYLE_USAGE(.BOTH.,#464);
#464 = SURFACE_SIDE_STYLE('',(#465));
#465 = SURFACE_STYLE_FILL_AREA(#466);
#466 = FILL_AREA_STYLE('',(#467));
#467 = FILL_AREA_STYLE_COLOUR('',#446);
#468 = STYLED_ITEM('color',(#469),#359);
#469 = PRESENTATION_STYLE_ASSIGNMENT((#470));
#470 = SURFACE_STYLE_USAGE(.BOTH.,#471);
#471 = SURFACE_SIDE_STYLE('',(#472));
#472 = SURFACE_STYLE_FILL_AREA(#473);
#473 = FILL_AREA_STYLE('',(#474));
#474 = FILL_AREA_STYLE_COLOUR('',#446);
#475 = STYLED_ITEM('color',(#476),#385);
#476 = PRESENTATION_STYLE_ASSIGNMENT((#477));
#477 = SURFACE_STYLE_USAGE(.BOTH.,#478);
#478 = SURFACE_SIDE_STYLE('',(#479));
#479 = SURFACE_STYLE_FILL_AREA(#480);
#480 = FILL_AREA_STYLE('',(#481));
#481 = FILL_AREA_STYLE_COLOUR('',#446);
#482 = STYLED_ITEM('color',(#483),#394);
#483 = PRESENTATION_STYLE_ASSIGNMENT((#484));
#484 = SURFACE_STYLE_USAGE(.BOTH.,#485);
#485 = SURFACE_SIDE_STYLE('',(#486));
#486 = SURFACE_STYLE_FILL_AREA(#487);
#487 = FILL_AREA_STYLE('',(#488));
#488 = FILL_AREA_STYLE_COLOUR('',#446);
ENDSEC;
END-ISO-10303-21;
