ISO-10303-21;
HEADER;
FILE_DESCRIPTION(('FreeCAD Model'),'2;1');
FILE_NAME(
'D:/KiCAD/packages3D-source/Diode_THT.3dshapes\\
D_DO-35_SOD27_P12.70mm_Horizontal.step','2017-11-23T22:05:22',(
    'kicad StepUp'),('ksu MCAD'),'Open CASCADE STEP processor 7.1',
  'FreeCAD','Unknown');
FILE_SCHEMA(('AUTOMOTIVE_DESIGN { 1 0 10303 214 1 1 1 1 }'));
ENDSEC;
DATA;
#1 = APPLICATION_PROTOCOL_DEFINITION('international standard',
  'automotive_design',2000,#2);
#2 = APPLICATION_CONTEXT(
  'core data for automotive mechanical design processes');
#3 = SHAPE_DEFINITION_REPRESENTATION(#4,#10);
#4 = PRODUCT_DEFINITION_SHAPE('','',#5);
#5 = PRODUCT_DEFINITION('design','',#6,#9);
#6 = PRODUCT_DEFINITION_FORMATION('','',#7);
#7 = PRODUCT('D_DO-35_SOD27_P12.70mm_Horizontal',
  'D_DO-35_SOD27_P12.70mm_Horizontal','',(#8));
#8 = PRODUCT_CONTEXT('',#2,'mechanical');
#9 = PRODUCT_DEFINITION_CONTEXT('part definition',#2,'design');
#10 = ADVANCED_BREP_SHAPE_REPRESENTATION('',(#11,#15),#402);
#11 = AXIS2_PLACEMENT_3D('',#12,#13,#14);
#12 = CARTESIAN_POINT('',(0.E+000,0.E+000,0.E+000));
#13 = DIRECTION('',(0.E+000,0.E+000,1.));
#14 = DIRECTION('',(1.,0.E+000,-0.E+000));
#15 = MANIFOLD_SOLID_BREP('',#16);
#16 = CLOSED_SHELL('',(#17,#50,#59,#85,#110,#130,#156,#181,#201,#226,
    #246,#271,#297,#317,#342,#368,#393));
#17 = ADVANCED_FACE('',(#18),#45,.T.);
#18 = FACE_BOUND('',#19,.T.);
#19 = EDGE_LOOP('',(#20,#30,#37,#38));
#20 = ORIENTED_EDGE('',*,*,#21,.T.);
#21 = EDGE_CURVE('',#22,#24,#26,.T.);
#22 = VERTEX_POINT('',#23);
#23 = CARTESIAN_POINT('',(0.25,-1.722546424199E-016,-2.5));
#24 = VERTEX_POINT('',#25);
#25 = CARTESIAN_POINT('',(0.25,6.661338147751E-016,1.));
#26 = LINE('',#27,#28);
#27 = CARTESIAN_POINT('',(0.25,6.661338147751E-016,1.));
#28 = VECTOR('',#29,1.);
#29 = DIRECTION('',(0.E+000,2.22044604925E-016,1.));
#30 = ORIENTED_EDGE('',*,*,#31,.F.);
#31 = EDGE_CURVE('',#24,#24,#32,.T.);
#32 = CIRCLE('',#33,0.25);
#33 = AXIS2_PLACEMENT_3D('',#34,#35,#36);
#34 = CARTESIAN_POINT('',(0.E+000,6.661338147751E-016,1.));
#35 = DIRECTION('',(-0.E+000,2.22044604925E-016,1.));
#36 = DIRECTION('',(1.,0.E+000,0.E+000));
#37 = ORIENTED_EDGE('',*,*,#21,.F.);
#38 = ORIENTED_EDGE('',*,*,#39,.T.);
#39 = EDGE_CURVE('',#22,#22,#40,.T.);
#40 = CIRCLE('',#41,0.25);
#41 = AXIS2_PLACEMENT_3D('',#42,#43,#44);
#42 = CARTESIAN_POINT('',(0.E+000,-1.110223024625E-016,-2.5));
#43 = DIRECTION('',(-0.E+000,2.22044604925E-016,1.));
#44 = DIRECTION('',(1.,0.E+000,0.E+000));
#45 = CYLINDRICAL_SURFACE('',#46,0.25);
#46 = AXIS2_PLACEMENT_3D('',#47,#48,#49);
#47 = CARTESIAN_POINT('',(0.E+000,6.661338147751E-016,1.));
#48 = DIRECTION('',(0.E+000,2.22044604925E-016,1.));
#49 = DIRECTION('',(1.,0.E+000,0.E+000));
#50 = ADVANCED_FACE('',(#51),#54,.T.);
#51 = FACE_BOUND('',#52,.F.);
#52 = EDGE_LOOP('',(#53));
#53 = ORIENTED_EDGE('',*,*,#39,.T.);
#54 = PLANE('',#55);
#55 = AXIS2_PLACEMENT_3D('',#56,#57,#58);
#56 = CARTESIAN_POINT('',(0.25,-1.110223024625E-016,-2.5));
#57 = DIRECTION('',(0.E+000,0.E+000,-1.));
#58 = DIRECTION('',(-1.,0.E+000,0.E+000));
#59 = ADVANCED_FACE('',(#60),#80,.T.);
#60 = FACE_BOUND('',#61,.T.);
#61 = EDGE_LOOP('',(#62,#71,#78,#79));
#62 = ORIENTED_EDGE('',*,*,#63,.T.);
#63 = EDGE_CURVE('',#24,#64,#66,.T.);
#64 = VERTEX_POINT('',#65);
#65 = CARTESIAN_POINT('',(0.5,7.216449660064E-016,1.25));
#66 = CIRCLE('',#67,0.25);
#67 = AXIS2_PLACEMENT_3D('',#68,#69,#70);
#68 = CARTESIAN_POINT('',(0.5,7.579823247111E-016,1.));
#69 = DIRECTION('',(0.E+000,1.,-2.22044604925E-016));
#70 = DIRECTION('',(1.,0.E+000,0.E+000));
#71 = ORIENTED_EDGE('',*,*,#72,.T.);
#72 = EDGE_CURVE('',#64,#64,#73,.T.);
#73 = CIRCLE('',#74,0.25);
#74 = AXIS2_PLACEMENT_3D('',#75,#76,#77);
#75 = CARTESIAN_POINT('',(0.5,7.771561172376E-016,1.5));
#76 = DIRECTION('',(-1.,-4.078893220341E-032,-1.836970198721E-016));
#77 = DIRECTION('',(-1.836970198721E-016,2.22044604925E-016,1.));
#78 = ORIENTED_EDGE('',*,*,#63,.F.);
#79 = ORIENTED_EDGE('',*,*,#31,.T.);
#80 = TOROIDAL_SURFACE('',#81,0.5,0.25);
#81 = AXIS2_PLACEMENT_3D('',#82,#83,#84);
#82 = CARTESIAN_POINT('',(0.5,6.661338147751E-016,1.));
#83 = DIRECTION('',(0.E+000,1.,-2.22044604925E-016));
#84 = DIRECTION('',(1.,0.E+000,0.E+000));
#85 = ADVANCED_FACE('',(#86),#105,.T.);
#86 = FACE_BOUND('',#87,.T.);
#87 = EDGE_LOOP('',(#88,#89,#97,#104));
#88 = ORIENTED_EDGE('',*,*,#72,.F.);
#89 = ORIENTED_EDGE('',*,*,#90,.T.);
#90 = EDGE_CURVE('',#64,#91,#93,.T.);
#91 = VERTEX_POINT('',#92);
#92 = CARTESIAN_POINT('',(4.35,7.216449660064E-016,1.25));
#93 = LINE('',#94,#95);
#94 = CARTESIAN_POINT('',(0.5,7.216449660064E-016,1.25));
#95 = VECTOR('',#96,1.);
#96 = DIRECTION('',(1.,0.E+000,0.E+000));
#97 = ORIENTED_EDGE('',*,*,#98,.F.);
#98 = EDGE_CURVE('',#91,#91,#99,.T.);
#99 = CIRCLE('',#100,0.25);
#100 = AXIS2_PLACEMENT_3D('',#101,#102,#103);
#101 = CARTESIAN_POINT('',(4.35,7.771561172376E-016,1.5));
#102 = DIRECTION('',(1.,0.E+000,0.E+000));
#103 = DIRECTION('',(0.E+000,-2.22044604925E-016,-1.));
#104 = ORIENTED_EDGE('',*,*,#90,.F.);
#105 = CYLINDRICAL_SURFACE('',#106,0.25);
#106 = AXIS2_PLACEMENT_3D('',#107,#108,#109);
#107 = CARTESIAN_POINT('',(0.5,7.771561172376E-016,1.5));
#108 = DIRECTION('',(1.,0.E+000,0.E+000));
#109 = DIRECTION('',(0.E+000,-2.22044604925E-016,-1.));
#110 = ADVANCED_FACE('',(#111,#122),#125,.F.);
#111 = FACE_BOUND('',#112,.T.);
#112 = EDGE_LOOP('',(#113));
#113 = ORIENTED_EDGE('',*,*,#114,.F.);
#114 = EDGE_CURVE('',#115,#115,#117,.T.);
#115 = VERTEX_POINT('',#116);
#116 = CARTESIAN_POINT('',(4.35,1.265654248073E-015,2.1));
#117 = CIRCLE('',#118,0.6);
#118 = AXIS2_PLACEMENT_3D('',#119,#120,#121);
#119 = CARTESIAN_POINT('',(4.35,6.661338147751E-016,1.5));
#120 = DIRECTION('',(1.,0.E+000,-0.E+000));
#121 = DIRECTION('',(0.E+000,9.992007221626E-016,1.));
#122 = FACE_BOUND('',#123,.T.);
#123 = EDGE_LOOP('',(#124));
#124 = ORIENTED_EDGE('',*,*,#98,.T.);
#125 = PLANE('',#126);
#126 = AXIS2_PLACEMENT_3D('',#127,#128,#129);
#127 = CARTESIAN_POINT('',(4.35,6.661338147751E-016,1.5));
#128 = DIRECTION('',(1.,0.E+000,0.E+000));
#129 = DIRECTION('',(0.E+000,9.992007221626E-016,1.));
#130 = ADVANCED_FACE('',(#131),#151,.T.);
#131 = FACE_BOUND('',#132,.F.);
#132 = EDGE_LOOP('',(#133,#142,#149,#150));
#133 = ORIENTED_EDGE('',*,*,#134,.F.);
#134 = EDGE_CURVE('',#135,#115,#137,.T.);
#135 = VERTEX_POINT('',#136);
#136 = CARTESIAN_POINT('',(4.75,1.665334536938E-015,2.5));
#137 = CIRCLE('',#138,0.4);
#138 = AXIS2_PLACEMENT_3D('',#139,#140,#141);
#139 = CARTESIAN_POINT('',(4.75,1.265654248073E-015,2.1));
#140 = DIRECTION('',(0.E+000,-1.,9.992007221626E-016));
#141 = DIRECTION('',(0.E+000,9.992007221626E-016,1.));
#142 = ORIENTED_EDGE('',*,*,#143,.T.);
#143 = EDGE_CURVE('',#135,#135,#144,.T.);
#144 = CIRCLE('',#145,1.);
#145 = AXIS2_PLACEMENT_3D('',#146,#147,#148);
#146 = CARTESIAN_POINT('',(4.75,6.661338147751E-016,1.5));
#147 = DIRECTION('',(1.,0.E+000,-0.E+000));
#148 = DIRECTION('',(0.E+000,9.992007221626E-016,1.));
#149 = ORIENTED_EDGE('',*,*,#134,.T.);
#150 = ORIENTED_EDGE('',*,*,#114,.F.);
#151 = TOROIDAL_SURFACE('',#152,0.6,0.4);
#152 = AXIS2_PLACEMENT_3D('',#153,#154,#155);
#153 = CARTESIAN_POINT('',(4.75,6.661338147751E-016,1.5));
#154 = DIRECTION('',(-1.,0.E+000,0.E+000));
#155 = DIRECTION('',(0.E+000,9.992007221626E-016,1.));
#156 = ADVANCED_FACE('',(#157),#176,.T.);
#157 = FACE_BOUND('',#158,.T.);
#158 = EDGE_LOOP('',(#159,#160,#168,#175));
#159 = ORIENTED_EDGE('',*,*,#143,.T.);
#160 = ORIENTED_EDGE('',*,*,#161,.T.);
#161 = EDGE_CURVE('',#135,#162,#164,.T.);
#162 = VERTEX_POINT('',#163);
#163 = CARTESIAN_POINT('',(4.95,1.665334536938E-015,2.5));
#164 = LINE('',#165,#166);
#165 = CARTESIAN_POINT('',(4.35,1.665334536938E-015,2.5));
#166 = VECTOR('',#167,1.);
#167 = DIRECTION('',(1.,0.E+000,0.E+000));
#168 = ORIENTED_EDGE('',*,*,#169,.F.);
#169 = EDGE_CURVE('',#162,#162,#170,.T.);
#170 = CIRCLE('',#171,1.);
#171 = AXIS2_PLACEMENT_3D('',#172,#173,#174);
#172 = CARTESIAN_POINT('',(4.95,6.661338147751E-016,1.5));
#173 = DIRECTION('',(1.,0.E+000,-0.E+000));
#174 = DIRECTION('',(0.E+000,9.992007221626E-016,1.));
#175 = ORIENTED_EDGE('',*,*,#161,.F.);
#176 = CYLINDRICAL_SURFACE('',#177,1.);
#177 = AXIS2_PLACEMENT_3D('',#178,#179,#180);
#178 = CARTESIAN_POINT('',(4.35,6.661338147751E-016,1.5));
#179 = DIRECTION('',(1.,0.E+000,0.E+000));
#180 = DIRECTION('',(0.E+000,9.992007221626E-016,1.));
#181 = ADVANCED_FACE('',(#182,#193),#196,.F.);
#182 = FACE_BOUND('',#183,.T.);
#183 = EDGE_LOOP('',(#184));
#184 = ORIENTED_EDGE('',*,*,#185,.F.);
#185 = EDGE_CURVE('',#186,#186,#188,.T.);
#186 = VERTEX_POINT('',#187);
#187 = CARTESIAN_POINT('',(4.95,1.671995875085E-015,2.51));
#188 = CIRCLE('',#189,1.01);
#189 = AXIS2_PLACEMENT_3D('',#190,#191,#192);
#190 = CARTESIAN_POINT('',(4.95,6.661338147751E-016,1.5));
#191 = DIRECTION('',(1.,0.E+000,-0.E+000));
#192 = DIRECTION('',(0.E+000,9.959030300103E-016,1.));
#193 = FACE_BOUND('',#194,.T.);
#194 = EDGE_LOOP('',(#195));
#195 = ORIENTED_EDGE('',*,*,#169,.T.);
#196 = PLANE('',#197);
#197 = AXIS2_PLACEMENT_3D('',#198,#199,#200);
#198 = CARTESIAN_POINT('',(4.95,6.661338147751E-016,1.5));
#199 = DIRECTION('',(1.,0.E+000,0.E+000));
#200 = DIRECTION('',(0.E+000,1.002565034358E-015,1.));
#201 = ADVANCED_FACE('',(#202),#221,.T.);
#202 = FACE_BOUND('',#203,.T.);
#203 = EDGE_LOOP('',(#204,#205,#213,#220));
#204 = ORIENTED_EDGE('',*,*,#185,.T.);
#205 = ORIENTED_EDGE('',*,*,#206,.T.);
#206 = EDGE_CURVE('',#186,#207,#209,.T.);
#207 = VERTEX_POINT('',#208);
#208 = CARTESIAN_POINT('',(5.95,1.671995875085E-015,2.51));
#209 = LINE('',#210,#211);
#210 = CARTESIAN_POINT('',(4.95,1.671995875085E-015,2.51));
#211 = VECTOR('',#212,1.);
#212 = DIRECTION('',(1.,0.E+000,0.E+000));
#213 = ORIENTED_EDGE('',*,*,#214,.F.);
#214 = EDGE_CURVE('',#207,#207,#215,.T.);
#215 = CIRCLE('',#216,1.01);
#216 = AXIS2_PLACEMENT_3D('',#217,#218,#219);
#217 = CARTESIAN_POINT('',(5.95,6.661338147751E-016,1.5));
#218 = DIRECTION('',(1.,0.E+000,-0.E+000));
#219 = DIRECTION('',(0.E+000,9.959030300103E-016,1.));
#220 = ORIENTED_EDGE('',*,*,#206,.F.);
#221 = CYLINDRICAL_SURFACE('',#222,1.01);
#222 = AXIS2_PLACEMENT_3D('',#223,#224,#225);
#223 = CARTESIAN_POINT('',(4.95,6.661338147751E-016,1.5));
#224 = DIRECTION('',(1.,0.E+000,0.E+000));
#225 = DIRECTION('',(0.E+000,9.959030300103E-016,1.));
#226 = ADVANCED_FACE('',(#227,#230),#241,.T.);
#227 = FACE_BOUND('',#228,.T.);
#228 = EDGE_LOOP('',(#229));
#229 = ORIENTED_EDGE('',*,*,#214,.T.);
#230 = FACE_BOUND('',#231,.T.);
#231 = EDGE_LOOP('',(#232));
#232 = ORIENTED_EDGE('',*,*,#233,.F.);
#233 = EDGE_CURVE('',#234,#234,#236,.T.);
#234 = VERTEX_POINT('',#235);
#235 = CARTESIAN_POINT('',(5.95,1.665334536938E-015,2.5));
#236 = CIRCLE('',#237,1.);
#237 = AXIS2_PLACEMENT_3D('',#238,#239,#240);
#238 = CARTESIAN_POINT('',(5.95,6.661338147751E-016,1.5));
#239 = DIRECTION('',(1.,0.E+000,-0.E+000));
#240 = DIRECTION('',(0.E+000,9.992007221626E-016,1.));
#241 = PLANE('',#242);
#242 = AXIS2_PLACEMENT_3D('',#243,#244,#245);
#243 = CARTESIAN_POINT('',(5.95,6.661338147751E-016,1.5));
#244 = DIRECTION('',(1.,0.E+000,0.E+000));
#245 = DIRECTION('',(0.E+000,9.959030300103E-016,1.));
#246 = ADVANCED_FACE('',(#247),#266,.T.);
#247 = FACE_BOUND('',#248,.T.);
#248 = EDGE_LOOP('',(#249,#250,#258,#265));
#249 = ORIENTED_EDGE('',*,*,#233,.T.);
#250 = ORIENTED_EDGE('',*,*,#251,.T.);
#251 = EDGE_CURVE('',#234,#252,#254,.T.);
#252 = VERTEX_POINT('',#253);
#253 = CARTESIAN_POINT('',(7.95,1.665334536938E-015,2.5));
#254 = LINE('',#255,#256);
#255 = CARTESIAN_POINT('',(4.35,1.665334536938E-015,2.5));
#256 = VECTOR('',#257,1.);
#257 = DIRECTION('',(1.,0.E+000,0.E+000));
#258 = ORIENTED_EDGE('',*,*,#259,.F.);
#259 = EDGE_CURVE('',#252,#252,#260,.T.);
#260 = CIRCLE('',#261,1.);
#261 = AXIS2_PLACEMENT_3D('',#262,#263,#264);
#262 = CARTESIAN_POINT('',(7.95,6.661338147751E-016,1.5));
#263 = DIRECTION('',(1.,0.E+000,-0.E+000));
#264 = DIRECTION('',(0.E+000,9.992007221626E-016,1.));
#265 = ORIENTED_EDGE('',*,*,#251,.F.);
#266 = CYLINDRICAL_SURFACE('',#267,1.);
#267 = AXIS2_PLACEMENT_3D('',#268,#269,#270);
#268 = CARTESIAN_POINT('',(4.35,6.661338147751E-016,1.5));
#269 = DIRECTION('',(1.,0.E+000,0.E+000));
#270 = DIRECTION('',(0.E+000,9.992007221626E-016,1.));
#271 = ADVANCED_FACE('',(#272),#292,.T.);
#272 = FACE_BOUND('',#273,.F.);
#273 = EDGE_LOOP('',(#274,#283,#290,#291));
#274 = ORIENTED_EDGE('',*,*,#275,.F.);
#275 = EDGE_CURVE('',#276,#252,#278,.T.);
#276 = VERTEX_POINT('',#277);
#277 = CARTESIAN_POINT('',(8.35,1.265654248073E-015,2.1));
#278 = CIRCLE('',#279,0.4);
#279 = AXIS2_PLACEMENT_3D('',#280,#281,#282);
#280 = CARTESIAN_POINT('',(7.95,1.265654248073E-015,2.1));
#281 = DIRECTION('',(0.E+000,-1.,9.992007221626E-016));
#282 = DIRECTION('',(0.E+000,9.992007221626E-016,1.));
#283 = ORIENTED_EDGE('',*,*,#284,.T.);
#284 = EDGE_CURVE('',#276,#276,#285,.T.);
#285 = CIRCLE('',#286,0.6);
#286 = AXIS2_PLACEMENT_3D('',#287,#288,#289);
#287 = CARTESIAN_POINT('',(8.35,6.661338147751E-016,1.5));
#288 = DIRECTION('',(1.,0.E+000,-0.E+000));
#289 = DIRECTION('',(0.E+000,9.992007221626E-016,1.));
#290 = ORIENTED_EDGE('',*,*,#275,.T.);
#291 = ORIENTED_EDGE('',*,*,#259,.F.);
#292 = TOROIDAL_SURFACE('',#293,0.6,0.4);
#293 = AXIS2_PLACEMENT_3D('',#294,#295,#296);
#294 = CARTESIAN_POINT('',(7.95,6.661338147751E-016,1.5));
#295 = DIRECTION('',(-1.,0.E+000,0.E+000));
#296 = DIRECTION('',(0.E+000,9.992007221626E-016,1.));
#297 = ADVANCED_FACE('',(#298,#301),#312,.T.);
#298 = FACE_BOUND('',#299,.F.);
#299 = EDGE_LOOP('',(#300));
#300 = ORIENTED_EDGE('',*,*,#284,.F.);
#301 = FACE_BOUND('',#302,.F.);
#302 = EDGE_LOOP('',(#303));
#303 = ORIENTED_EDGE('',*,*,#304,.T.);
#304 = EDGE_CURVE('',#305,#305,#307,.T.);
#305 = VERTEX_POINT('',#306);
#306 = CARTESIAN_POINT('',(8.35,7.216449660064E-016,1.25));
#307 = CIRCLE('',#308,0.25);
#308 = AXIS2_PLACEMENT_3D('',#309,#310,#311);
#309 = CARTESIAN_POINT('',(8.35,7.771561172376E-016,1.5));
#310 = DIRECTION('',(1.,0.E+000,0.E+000));
#311 = DIRECTION('',(0.E+000,-2.22044604925E-016,-1.));
#312 = PLANE('',#313);
#313 = AXIS2_PLACEMENT_3D('',#314,#315,#316);
#314 = CARTESIAN_POINT('',(8.35,6.661338147751E-016,1.5));
#315 = DIRECTION('',(1.,0.E+000,0.E+000));
#316 = DIRECTION('',(0.E+000,9.992007221626E-016,1.));
#317 = ADVANCED_FACE('',(#318),#337,.T.);
#318 = FACE_BOUND('',#319,.T.);
#319 = EDGE_LOOP('',(#320,#321,#329,#336));
#320 = ORIENTED_EDGE('',*,*,#304,.T.);
#321 = ORIENTED_EDGE('',*,*,#322,.T.);
#322 = EDGE_CURVE('',#305,#323,#325,.T.);
#323 = VERTEX_POINT('',#324);
#324 = CARTESIAN_POINT('',(12.2,7.216449660064E-016,1.25));
#325 = LINE('',#326,#327);
#326 = CARTESIAN_POINT('',(0.5,7.216449660064E-016,1.25));
#327 = VECTOR('',#328,1.);
#328 = DIRECTION('',(1.,0.E+000,0.E+000));
#329 = ORIENTED_EDGE('',*,*,#330,.F.);
#330 = EDGE_CURVE('',#323,#323,#331,.T.);
#331 = CIRCLE('',#332,0.25);
#332 = AXIS2_PLACEMENT_3D('',#333,#334,#335);
#333 = CARTESIAN_POINT('',(12.2,7.771561172376E-016,1.5));
#334 = DIRECTION('',(1.,0.E+000,0.E+000));
#335 = DIRECTION('',(0.E+000,-2.22044604925E-016,-1.));
#336 = ORIENTED_EDGE('',*,*,#322,.F.);
#337 = CYLINDRICAL_SURFACE('',#338,0.25);
#338 = AXIS2_PLACEMENT_3D('',#339,#340,#341);
#339 = CARTESIAN_POINT('',(0.5,7.771561172376E-016,1.5));
#340 = DIRECTION('',(1.,0.E+000,0.E+000));
#341 = DIRECTION('',(0.E+000,-2.22044604925E-016,-1.));
#342 = ADVANCED_FACE('',(#343),#363,.T.);
#343 = FACE_BOUND('',#344,.T.);
#344 = EDGE_LOOP('',(#345,#354,#361,#362));
#345 = ORIENTED_EDGE('',*,*,#346,.T.);
#346 = EDGE_CURVE('',#323,#347,#349,.T.);
#347 = VERTEX_POINT('',#348);
#348 = CARTESIAN_POINT('',(12.45,6.661338147751E-016,1.));
#349 = CIRCLE('',#350,0.25);
#350 = AXIS2_PLACEMENT_3D('',#351,#352,#353);
#351 = CARTESIAN_POINT('',(12.2,7.579823247111E-016,1.));
#352 = DIRECTION('',(0.E+000,1.,-2.22044604925E-016));
#353 = DIRECTION('',(1.,0.E+000,0.E+000));
#354 = ORIENTED_EDGE('',*,*,#355,.T.);
#355 = EDGE_CURVE('',#347,#347,#356,.T.);
#356 = CIRCLE('',#357,0.25);
#357 = AXIS2_PLACEMENT_3D('',#358,#359,#360);
#358 = CARTESIAN_POINT('',(12.7,6.661338147751E-016,1.));
#359 = DIRECTION('',(-2.449293598295E-016,2.22044604925E-016,1.));
#360 = DIRECTION('',(1.,5.438524293788E-032,2.449293598295E-016));
#361 = ORIENTED_EDGE('',*,*,#346,.F.);
#362 = ORIENTED_EDGE('',*,*,#330,.T.);
#363 = TOROIDAL_SURFACE('',#364,0.5,0.25);
#364 = AXIS2_PLACEMENT_3D('',#365,#366,#367);
#365 = CARTESIAN_POINT('',(12.2,6.661338147751E-016,1.));
#366 = DIRECTION('',(0.E+000,1.,-2.22044604925E-016));
#367 = DIRECTION('',(1.,0.E+000,0.E+000));
#368 = ADVANCED_FACE('',(#369),#388,.T.);
#369 = FACE_BOUND('',#370,.T.);
#370 = EDGE_LOOP('',(#371,#379,#386,#387));
#371 = ORIENTED_EDGE('',*,*,#372,.T.);
#372 = EDGE_CURVE('',#347,#373,#375,.T.);
#373 = VERTEX_POINT('',#374);
#374 = CARTESIAN_POINT('',(12.45,-1.722546424199E-016,-2.5));
#375 = LINE('',#376,#377);
#376 = CARTESIAN_POINT('',(12.45,6.661338147751E-016,1.));
#377 = VECTOR('',#378,1.);
#378 = DIRECTION('',(0.E+000,-2.22044604925E-016,-1.));
#379 = ORIENTED_EDGE('',*,*,#380,.F.);
#380 = EDGE_CURVE('',#373,#373,#381,.T.);
#381 = CIRCLE('',#382,0.25);
#382 = AXIS2_PLACEMENT_3D('',#383,#384,#385);
#383 = CARTESIAN_POINT('',(12.7,-1.110223024625E-016,-2.5));
#384 = DIRECTION('',(-0.E+000,-2.22044604925E-016,-1.));
#385 = DIRECTION('',(-1.,0.E+000,0.E+000));
#386 = ORIENTED_EDGE('',*,*,#372,.F.);
#387 = ORIENTED_EDGE('',*,*,#355,.F.);
#388 = CYLINDRICAL_SURFACE('',#389,0.25);
#389 = AXIS2_PLACEMENT_3D('',#390,#391,#392);
#390 = CARTESIAN_POINT('',(12.7,6.661338147751E-016,1.));
#391 = DIRECTION('',(0.E+000,-2.22044604925E-016,-1.));
#392 = DIRECTION('',(-1.,0.E+000,0.E+000));
#393 = ADVANCED_FACE('',(#394),#397,.F.);
#394 = FACE_BOUND('',#395,.T.);
#395 = EDGE_LOOP('',(#396));
#396 = ORIENTED_EDGE('',*,*,#380,.T.);
#397 = PLANE('',#398);
#398 = AXIS2_PLACEMENT_3D('',#399,#400,#401);
#399 = CARTESIAN_POINT('',(12.45,-1.110223024625E-016,-2.5));
#400 = DIRECTION('',(0.E+000,0.E+000,1.));
#401 = DIRECTION('',(1.,0.E+000,0.E+000));
#402 = ( GEOMETRIC_REPRESENTATION_CONTEXT(3) 
GLOBAL_UNCERTAINTY_ASSIGNED_CONTEXT((#406)) GLOBAL_UNIT_ASSIGNED_CONTEXT
((#403,#404,#405)) REPRESENTATION_CONTEXT('Context #1',
  '3D Context with UNIT and UNCERTAINTY') );
#403 = ( LENGTH_UNIT() NAMED_UNIT(*) SI_UNIT(.MILLI.,.METRE.) );
#404 = ( NAMED_UNIT(*) PLANE_ANGLE_UNIT() SI_UNIT($,.RADIAN.) );
#405 = ( NAMED_UNIT(*) SI_UNIT($,.STERADIAN.) SOLID_ANGLE_UNIT() );
#406 = UNCERTAINTY_MEASURE_WITH_UNIT(LENGTH_MEASURE(1.E-007),#403,
  'distance_accuracy_value','confusion accuracy');
#407 = PRODUCT_RELATED_PRODUCT_CATEGORY('part',$,(#7));
#408 = MECHANICAL_DESIGN_GEOMETRIC_PRESENTATION_REPRESENTATION('',(#409,
    #417,#424,#431,#438,#446,#453,#460,#468,#475,#482,#489,#496,#503,
    #510,#517,#524),#402);
#409 = STYLED_ITEM('color',(#410),#17);
#410 = PRESENTATION_STYLE_ASSIGNMENT((#411));
#411 = SURFACE_STYLE_USAGE(.BOTH.,#412);
#412 = SURFACE_SIDE_STYLE('',(#413));
#413 = SURFACE_STYLE_FILL_AREA(#414);
#414 = FILL_AREA_STYLE('',(#415));
#415 = FILL_AREA_STYLE_COLOUR('',#416);
#416 = COLOUR_RGB('',0.824000000954,0.819999992847,0.78100001812);
#417 = STYLED_ITEM('color',(#418),#50);
#418 = PRESENTATION_STYLE_ASSIGNMENT((#419));
#419 = SURFACE_STYLE_USAGE(.BOTH.,#420);
#420 = SURFACE_SIDE_STYLE('',(#421));
#421 = SURFACE_STYLE_FILL_AREA(#422);
#422 = FILL_AREA_STYLE('',(#423));
#423 = FILL_AREA_STYLE_COLOUR('',#416);
#424 = STYLED_ITEM('color',(#425),#59);
#425 = PRESENTATION_STYLE_ASSIGNMENT((#426));
#426 = SURFACE_STYLE_USAGE(.BOTH.,#427);
#427 = SURFACE_SIDE_STYLE('',(#428));
#428 = SURFACE_STYLE_FILL_AREA(#429);
#429 = FILL_AREA_STYLE('',(#430));
#430 = FILL_AREA_STYLE_COLOUR('',#416);
#431 = STYLED_ITEM('color',(#432),#85);
#432 = PRESENTATION_STYLE_ASSIGNMENT((#433));
#433 = SURFACE_STYLE_USAGE(.BOTH.,#434);
#434 = SURFACE_SIDE_STYLE('',(#435));
#435 = SURFACE_STYLE_FILL_AREA(#436);
#436 = FILL_AREA_STYLE('',(#437));
#437 = FILL_AREA_STYLE_COLOUR('',#416);
#438 = STYLED_ITEM('color',(#439),#110);
#439 = PRESENTATION_STYLE_ASSIGNMENT((#440));
#440 = SURFACE_STYLE_USAGE(.BOTH.,#441);
#441 = SURFACE_SIDE_STYLE('',(#442));
#442 = SURFACE_STYLE_FILL_AREA(#443);
#443 = FILL_AREA_STYLE('',(#444));
#444 = FILL_AREA_STYLE_COLOUR('',#445);
#445 = COLOUR_RGB('',0.E+000,0.631244003773,0.748015999794);
#446 = STYLED_ITEM('color',(#447),#130);
#447 = PRESENTATION_STYLE_ASSIGNMENT((#448));
#448 = SURFACE_STYLE_USAGE(.BOTH.,#449);
#449 = SURFACE_SIDE_STYLE('',(#450));
#450 = SURFACE_STYLE_FILL_AREA(#451);
#451 = FILL_AREA_STYLE('',(#452));
#452 = FILL_AREA_STYLE_COLOUR('',#445);
#453 = STYLED_ITEM('color',(#454),#156);
#454 = PRESENTATION_STYLE_ASSIGNMENT((#455));
#455 = SURFACE_STYLE_USAGE(.BOTH.,#456);
#456 = SURFACE_SIDE_STYLE('',(#457));
#457 = SURFACE_STYLE_FILL_AREA(#458);
#458 = FILL_AREA_STYLE('',(#459));
#459 = FILL_AREA_STYLE_COLOUR('',#445);
#460 = STYLED_ITEM('color',(#461),#181);
#461 = PRESENTATION_STYLE_ASSIGNMENT((#462));
#462 = SURFACE_STYLE_USAGE(.BOTH.,#463);
#463 = SURFACE_SIDE_STYLE('',(#464));
#464 = SURFACE_STYLE_FILL_AREA(#465);
#465 = FILL_AREA_STYLE('',(#466));
#466 = FILL_AREA_STYLE_COLOUR('',#467);
#467 = COLOUR_RGB('',0.699999988079,0.10000000149,5.000000074506E-002);
#468 = STYLED_ITEM('color',(#469),#201);
#469 = PRESENTATION_STYLE_ASSIGNMENT((#470));
#470 = SURFACE_STYLE_USAGE(.BOTH.,#471);
#471 = SURFACE_SIDE_STYLE('',(#472));
#472 = SURFACE_STYLE_FILL_AREA(#473);
#473 = FILL_AREA_STYLE('',(#474));
#474 = FILL_AREA_STYLE_COLOUR('',#467);
#475 = STYLED_ITEM('color',(#476),#226);
#476 = PRESENTATION_STYLE_ASSIGNMENT((#477));
#477 = SURFACE_STYLE_USAGE(.BOTH.,#478);
#478 = SURFACE_SIDE_STYLE('',(#479));
#479 = SURFACE_STYLE_FILL_AREA(#480);
#480 = FILL_AREA_STYLE('',(#481));
#481 = FILL_AREA_STYLE_COLOUR('',#467);
#482 = STYLED_ITEM('color',(#483),#246);
#483 = PRESENTATION_STYLE_ASSIGNMENT((#484));
#484 = SURFACE_STYLE_USAGE(.BOTH.,#485);
#485 = SURFACE_SIDE_STYLE('',(#486));
#486 = SURFACE_STYLE_FILL_AREA(#487);
#487 = FILL_AREA_STYLE('',(#488));
#488 = FILL_AREA_STYLE_COLOUR('',#445);
#489 = STYLED_ITEM('color',(#490),#271);
#490 = PRESENTATION_STYLE_ASSIGNMENT((#491));
#491 = SURFACE_STYLE_USAGE(.BOTH.,#492);
#492 = SURFACE_SIDE_STYLE('',(#493));
#493 = SURFACE_STYLE_FILL_AREA(#494);
#494 = FILL_AREA_STYLE('',(#495));
#495 = FILL_AREA_STYLE_COLOUR('',#445);
#496 = STYLED_ITEM('color',(#497),#297);
#497 = PRESENTATION_STYLE_ASSIGNMENT((#498));
#498 = SURFACE_STYLE_USAGE(.BOTH.,#499);
#499 = SURFACE_SIDE_STYLE('',(#500));
#500 = SURFACE_STYLE_FILL_AREA(#501);
#501 = FILL_AREA_STYLE('',(#502));
#502 = FILL_AREA_STYLE_COLOUR('',#445);
#503 = STYLED_ITEM('color',(#504),#317);
#504 = PRESENTATION_STYLE_ASSIGNMENT((#505));
#505 = SURFACE_STYLE_USAGE(.BOTH.,#506);
#506 = SURFACE_SIDE_STYLE('',(#507));
#507 = SURFACE_STYLE_FILL_AREA(#508);
#508 = FILL_AREA_STYLE('',(#509));
#509 = FILL_AREA_STYLE_COLOUR('',#416);
#510 = STYLED_ITEM('color',(#511),#342);
#511 = PRESENTATION_STYLE_ASSIGNMENT((#512));
#512 = SURFACE_STYLE_USAGE(.BOTH.,#513);
#513 = SURFACE_SIDE_STYLE('',(#514));
#514 = SURFACE_STYLE_FILL_AREA(#515);
#515 = FILL_AREA_STYLE('',(#516));
#516 = FILL_AREA_STYLE_COLOUR('',#416);
#517 = STYLED_ITEM('color',(#518),#368);
#518 = PRESENTATION_STYLE_ASSIGNMENT((#519));
#519 = SURFACE_STYLE_USAGE(.BOTH.,#520);
#520 = SURFACE_SIDE_STYLE('',(#521));
#521 = SURFACE_STYLE_FILL_AREA(#522);
#522 = FILL_AREA_STYLE('',(#523));
#523 = FILL_AREA_STYLE_COLOUR('',#416);
#524 = STYLED_ITEM('color',(#525),#393);
#525 = PRESENTATION_STYLE_ASSIGNMENT((#526));
#526 = SURFACE_STYLE_USAGE(.BOTH.,#527);
#527 = SURFACE_SIDE_STYLE('',(#528));
#528 = SURFACE_STYLE_FILL_AREA(#529);
#529 = FILL_AREA_STYLE('',(#530));
#530 = FILL_AREA_STYLE_COLOUR('',#416);
ENDSEC;
END-ISO-10303-21;
