ISO-10303-21;
HEADER;
/* RV_Disc_D9mm_W3.9mm_P5mm.step 3D STEP model for use in ECAD systems
 * Copyright (C) 2018, kicad StepUp
 * 
 * This work is licensed under the [Creative Commons CC-BY-SA 4.0 License](https://creativecommons.org/licenses/by-sa/4.0/legalcode), 
 * with the following exception:
 * To the extent that the creation of electronic designs that use 'Licensed Material' can be considered to be 'Adapted Material', 
 * then the copyright holder waives article 3 of the license with respect to these designs and any generated files which use data provided 
 * as part of the 'Licensed Material'.
 * You are free to use the library data in your own projects without the obligation to share your project files under this or any other license agreement.
 * However, if you wish to redistribute these libraries, or parts thereof (including in modified form) as a collection then the exception above does not apply. 
 * Please refer to https://github.com/KiCad/kicad-packages3D/blob/master/LICENSE.md for further clarification of the exception.
 * Disclaimer of Warranties and Limitation of Liability.
 * These libraries are provided in the hope that they will be useful, but are provided without warranty of any kind, express or implied.
 * *USE 3D CAD DATA AT YOUR OWN RISK*
 * *DO NOT RELY UPON ANY INFORMATION FOUND HERE WITHOUT INDEPENDENT VERIFICATION.*
 * 
 */

FILE_DESCRIPTION(
/* description */ ('model of RV_Disc_D9mm_W3.9mm_P5mm'),
/* implementation_level */ '2;1');

FILE_NAME(
/* name */ 'RV_Disc_D9mm_W3.9mm_P5mm.step',
/* time_stamp */ '2018-11-11T21:11:06',
/* author */ ('kicad StepUp','ksu'),
/* organization */ ('FreeCAD'),
/* preprocessor_version */ 'OCC',
/* originating_system */ 'kicad StepUp',
/* authorisation */ '');

FILE_SCHEMA(('AUTOMOTIVE_DESIGN { 1 0 10303 214 1 1 1 1 }'));
ENDSEC;

DATA;
#1 = APPLICATION_PROTOCOL_DEFINITION('international standard',
'automotive_design',2000,#2);
#2 = APPLICATION_CONTEXT(
'core data for automotive mechanical design processes');
#3 = SHAPE_DEFINITION_REPRESENTATION(#4,#10);
#4 = PRODUCT_DEFINITION_SHAPE('','',#5);
#5 = PRODUCT_DEFINITION('design','',#6,#9);
#6 = PRODUCT_DEFINITION_FORMATION('','',#7);
#7 = PRODUCT('RV_Disc_D9mm_W39mm_P5mm','RV_Disc_D9mm_W39mm_P5mm','',(#8)
);
#8 = PRODUCT_CONTEXT('',#2,'mechanical');
#9 = PRODUCT_DEFINITION_CONTEXT('part definition',#2,'design');
#10 = ADVANCED_BREP_SHAPE_REPRESENTATION('',(#11,#15),#369);
#11 = AXIS2_PLACEMENT_3D('',#12,#13,#14);
#12 = CARTESIAN_POINT('',(0.E+000,0.E+000,0.E+000));
#13 = DIRECTION('',(0.E+000,0.E+000,1.));
#14 = DIRECTION('',(1.,0.E+000,-0.E+000));
#15 = MANIFOLD_SOLID_BREP('',#16);
#16 = CLOSED_SHELL('',(#17,#50,#135,#229,#238,#264,#273,#299,#325,#351,
#360));
#17 = ADVANCED_FACE('',(#18),#45,.T.);
#18 = FACE_BOUND('',#19,.F.);
#19 = EDGE_LOOP('',(#20,#30,#37,#38));
#20 = ORIENTED_EDGE('',*,*,#21,.T.);
#21 = EDGE_CURVE('',#22,#24,#26,.T.);
#22 = VERTEX_POINT('',#23);
#23 = CARTESIAN_POINT('',(7.,-0.75243902439,4.53));
#24 = VERTEX_POINT('',#25);
#25 = CARTESIAN_POINT('',(7.,-0.84756097561,4.53));
#26 = LINE('',#27,#28);
#27 = CARTESIAN_POINT('',(7.,1.15,4.53));
#28 = VECTOR('',#29,1.);
#29 = DIRECTION('',(0.E+000,-1.,0.E+000));
#30 = ORIENTED_EDGE('',*,*,#31,.T.);
#31 = EDGE_CURVE('',#24,#24,#32,.T.);
#32 = CIRCLE('',#33,4.5);
#33 = AXIS2_PLACEMENT_3D('',#34,#35,#36);
#34 = CARTESIAN_POINT('',(2.5,-0.84756097561,4.53));
#35 = DIRECTION('',(0.E+000,-1.,0.E+000));
#36 = DIRECTION('',(1.,0.E+000,0.E+000));
#37 = ORIENTED_EDGE('',*,*,#21,.F.);
#38 = ORIENTED_EDGE('',*,*,#39,.F.);
#39 = EDGE_CURVE('',#22,#22,#40,.T.);
#40 = CIRCLE('',#41,4.5);
#41 = AXIS2_PLACEMENT_3D('',#42,#43,#44);
#42 = CARTESIAN_POINT('',(2.5,-0.75243902439,4.53));
#43 = DIRECTION('',(0.E+000,-1.,0.E+000));
#44 = DIRECTION('',(1.,0.E+000,0.E+000));
#45 = CYLINDRICAL_SURFACE('',#46,4.5);
#46 = AXIS2_PLACEMENT_3D('',#47,#48,#49);
#47 = CARTESIAN_POINT('',(2.5,1.15,4.53));
#48 = DIRECTION('',(0.E+000,1.,0.E+000));
#49 = DIRECTION('',(1.,0.E+000,0.E+000));
#50 = ADVANCED_FACE('',(#51,#71),#130,.T.);
#51 = FACE_BOUND('',#52,.F.);
#52 = EDGE_LOOP('',(#53,#54,#63,#70));
#53 = ORIENTED_EDGE('',*,*,#39,.T.);
#54 = ORIENTED_EDGE('',*,*,#55,.T.);
#55 = EDGE_CURVE('',#22,#56,#58,.T.);
#56 = VERTEX_POINT('',#57);
#57 = CARTESIAN_POINT('',(5.09756097561,1.15,4.53));
#58 = CIRCLE('',#59,1.90243902439);
#59 = AXIS2_PLACEMENT_3D('',#60,#61,#62);
#60 = CARTESIAN_POINT('',(5.09756097561,-0.75243902439,4.53));
#61 = DIRECTION('',(0.E+000,0.E+000,1.));
#62 = DIRECTION('',(1.,0.E+000,0.E+000));
#63 = ORIENTED_EDGE('',*,*,#64,.F.);
#64 = EDGE_CURVE('',#56,#56,#65,.T.);
#65 = CIRCLE('',#66,2.59756097561);
#66 = AXIS2_PLACEMENT_3D('',#67,#68,#69);
#67 = CARTESIAN_POINT('',(2.5,1.15,4.53));
#68 = DIRECTION('',(0.E+000,-1.,0.E+000));
#69 = DIRECTION('',(1.,0.E+000,0.E+000));
#70 = ORIENTED_EDGE('',*,*,#55,.F.);
#71 = FACE_BOUND('',#72,.F.);
#72 = EDGE_LOOP('',(#73,#100));
#73 = ORIENTED_EDGE('',*,*,#74,.T.);
#74 = EDGE_CURVE('',#75,#77,#79,.T.);
#75 = VERTEX_POINT('',#76);
#76 = CARTESIAN_POINT('',(0.27,0.E+000,0.801052781282));
#77 = VERTEX_POINT('',#78);
#78 = CARTESIAN_POINT('',(-0.171508304435,-0.208530337145,1.007974160451
));
#79 = B_SPLINE_CURVE_WITH_KNOTS('',7,(#80,#81,#82,#83,#84,#85,#86,#87,
#88,#89,#90,#91,#92,#93,#94,#95,#96,#97,#98,#99),.UNSPECIFIED.,.F.,
.F.,(8,6,6,8),(0.E+000,0.229085219951,0.588240416132,1.),
.UNSPECIFIED.);
#80 = CARTESIAN_POINT('',(0.27,-5.551115123126E-017,0.801052781282));
#81 = CARTESIAN_POINT('',(0.27,-1.935296017719E-002,0.791342346958));
#82 = CARTESIAN_POINT('',(0.268381603653,-3.88699376162E-002,
0.782870646026));
#83 = CARTESIAN_POINT('',(0.265095578958,-5.839033769439E-002,
0.775739866256));
#84 = CARTESIAN_POINT('',(0.260111042464,-7.773462449E-002,
0.770040022926));
#85 = CARTESIAN_POINT('',(0.253425642713,-9.670621186683E-002,
0.765840971087));
#86 = CARTESIAN_POINT('',(0.245073861305,-0.115099095445,0.763184998099)
);
#87 = CARTESIAN_POINT('',(0.219549025919,-0.160323168342,0.760347597017)
);
#88 = CARTESIAN_POINT('',(0.200054512091,-0.186025587035,0.762426598418)
);
#89 = CARTESIAN_POINT('',(0.176945978127,-0.209032657736,0.768354235289)
);
#90 = CARTESIAN_POINT('',(0.150746531409,-0.228650579757,0.77794885986)
);
#91 = CARTESIAN_POINT('',(0.122150473421,-0.244357401359,0.790861777935)
);
#92 = CARTESIAN_POINT('',(9.195192089355E-002,-0.255845794323,
0.806632182131));
#93 = CARTESIAN_POINT('',(2.542422028732E-002,-0.271263830281,
0.845511139522));
#94 = CARTESIAN_POINT('',(-1.115637409151E-002,-0.273840356022,
0.869356791602));
#95 = CARTESIAN_POINT('',(-4.752906402176E-002,-0.270616915743,
0.895482461673));
#96 = CARTESIAN_POINT('',(-8.252197115829E-002,-0.261898816966,
0.923037546247));
#97 = CARTESIAN_POINT('',(-0.115249272029,-0.248248351507,0.951321753623
));
#98 = CARTESIAN_POINT('',(-0.145075930565,-0.230269963555,0.979783923166
));
#99 = CARTESIAN_POINT('',(-0.171508304435,-0.208530337145,1.007974160451
));
#100 = ORIENTED_EDGE('',*,*,#101,.T.);
#101 = EDGE_CURVE('',#77,#75,#102,.T.);
#102 = B_SPLINE_CURVE_WITH_KNOTS('',6,(#103,#104,#105,#106,#107,#108,
#109,#110,#111,#112,#113,#114,#115,#116,#117,#118,#119,#120,#121,
#122,#123,#124,#125,#126,#127,#128,#129),.UNSPECIFIED.,.F.,.F.,(7,5,
5,5,5,7),(0.E+000,0.271118641165,0.453063376184,0.61708688765,
0.770160080401,1.),.UNSPECIFIED.);
#103 = CARTESIAN_POINT('',(-0.171508304435,-0.208530337145,
1.007974160451));
#104 = CARTESIAN_POINT('',(-0.208864302955,-0.177806443181,
1.047814489112));
#105 = CARTESIAN_POINT('',(-0.239179617381,-0.139410584488,
1.087024951248));
#106 = CARTESIAN_POINT('',(-0.260942832925,-9.517728430692E-002,
1.12417914903));
#107 = CARTESIAN_POINT('',(-0.273021569201,-4.704511662363E-002,
1.157990170547));
#108 = CARTESIAN_POINT('',(-0.274490785689,2.707133222422E-003,
1.18676822283));
#109 = CARTESIAN_POINT('',(-0.258758641445,8.395524667308E-002,
1.222950102003));
#110 = CARTESIAN_POINT('',(-0.247542025283,0.116057078368,1.234263631096
));
#111 = CARTESIAN_POINT('',(-0.231366775424,0.146753931326,1.241717989819
));
#112 = CARTESIAN_POINT('',(-0.210356140894,0.174996293247,1.244585135512
));
#113 = CARTESIAN_POINT('',(-0.185101599549,0.199643217038,1.242264158043
));
#114 = CARTESIAN_POINT('',(-0.131006457133,0.238178131189,1.228085662793
));
#115 = CARTESIAN_POINT('',(-0.102744104774,0.252900740084,1.217184475645
));
#116 = CARTESIAN_POINT('',(-7.265235399043E-002,0.263467269787,
1.202131625448));
#117 = CARTESIAN_POINT('',(-4.170962405912E-002,0.26961832696,
1.18337321542));
#118 = CARTESIAN_POINT('',(-1.083476713935E-002,0.2714583429,
1.161721005737));
#119 = CARTESIAN_POINT('',(4.724080802854E-002,0.267316789025,
1.115978813884));
#120 = CARTESIAN_POINT('',(7.457323162492E-002,0.261847724048,
1.092129566924));
#121 = CARTESIAN_POINT('',(0.100706274609,0.25315789968,1.067127745162)
);
#122 = CARTESIAN_POINT('',(0.125280247518,0.24156402847,1.041569201802)
);
#123 = CARTESIAN_POINT('',(0.148039641486,0.227351762227,1.015932277192)
);
#124 = CARTESIAN_POINT('',(0.19987028477,0.185850226938,0.952617258676)
);
#125 = CARTESIAN_POINT('',(0.226341688815,0.155609697982,0.915398539369)
);
#126 = CARTESIAN_POINT('',(0.247416775182,0.120896143126,0.880352500792)
);
#127 = CARTESIAN_POINT('',(0.262284722231,8.251976012288E-002,
0.848754781175));
#128 = CARTESIAN_POINT('',(0.269999999615,4.166447982153E-002,
0.821958120774));
#129 = CARTESIAN_POINT('',(0.27,-8.326672684689E-017,0.801052781282));
#130 = TOROIDAL_SURFACE('',#131,2.59756097561,1.90243902439);
#131 = AXIS2_PLACEMENT_3D('',#132,#133,#134);
#132 = CARTESIAN_POINT('',(2.5,-0.75243902439,4.53));
#133 = DIRECTION('',(0.E+000,1.,0.E+000));
#134 = DIRECTION('',(1.,0.E+000,0.E+000));
#135 = ADVANCED_FACE('',(#136,#156),#224,.T.);
#136 = FACE_BOUND('',#137,.T.);
#137 = EDGE_LOOP('',(#138,#139,#148,#155));
#138 = ORIENTED_EDGE('',*,*,#31,.T.);
#139 = ORIENTED_EDGE('',*,*,#140,.T.);
#140 = EDGE_CURVE('',#24,#141,#143,.T.);
#141 = VERTEX_POINT('',#142);
#142 = CARTESIAN_POINT('',(5.09756097561,-2.75,4.53));
#143 = CIRCLE('',#144,1.90243902439);
#144 = AXIS2_PLACEMENT_3D('',#145,#146,#147);
#145 = CARTESIAN_POINT('',(5.09756097561,-0.84756097561,4.53));
#146 = DIRECTION('',(0.E+000,0.E+000,-1.));
#147 = DIRECTION('',(1.,0.E+000,0.E+000));
#148 = ORIENTED_EDGE('',*,*,#149,.F.);
#149 = EDGE_CURVE('',#141,#141,#150,.T.);
#150 = CIRCLE('',#151,2.59756097561);
#151 = AXIS2_PLACEMENT_3D('',#152,#153,#154);
#152 = CARTESIAN_POINT('',(2.5,-2.75,4.53));
#153 = DIRECTION('',(0.E+000,-1.,0.E+000));
#154 = DIRECTION('',(1.,0.E+000,0.E+000));
#155 = ORIENTED_EDGE('',*,*,#140,.F.);
#156 = FACE_BOUND('',#157,.T.);
#157 = EDGE_LOOP('',(#158,#177));
#158 = ORIENTED_EDGE('',*,*,#159,.T.);
#159 = EDGE_CURVE('',#160,#162,#164,.T.);
#160 = VERTEX_POINT('',#161);
#161 = CARTESIAN_POINT('',(5.27,-1.6,1.182605885172));
#162 = VERTEX_POINT('',#163);
#163 = CARTESIAN_POINT('',(5.046326617636,-1.334004051726,0.896675577204
));
#164 = B_SPLINE_CURVE_WITH_KNOTS('',6,(#165,#166,#167,#168,#169,#170,
#171,#172,#173,#174,#175,#176),.UNSPECIFIED.,.F.,.F.,(7,5,7),(
0.E+000,0.563508574321,1.),.UNSPECIFIED.);
#165 = CARTESIAN_POINT('',(5.27,-1.6,1.182605885172));
#166 = CARTESIAN_POINT('',(5.27,-1.56433771799,1.162672559137));
#167 = CARTESIAN_POINT('',(5.264347540757,-1.529066549878,1.139682146507
));
#168 = CARTESIAN_POINT('',(5.253275277772,-1.495158997398,1.114369570295
));
#169 = CARTESIAN_POINT('',(5.237150613705,-1.463468521351,1.087351192486
));
#170 = CARTESIAN_POINT('',(5.216418941382,-1.434770516794,1.059162243086
));
#171 = CARTESIAN_POINT('',(5.172434412511,-1.390454930687,1.008038081317
));
#172 = CARTESIAN_POINT('',(5.150811486362,-1.373355464058,0.985360519415
));
#173 = CARTESIAN_POINT('',(5.12702311086,-1.358834253679,0.962574096302)
);
#174 = CARTESIAN_POINT('',(5.101384202851,-1.347233473452,0.939960724902
));
#175 = CARTESIAN_POINT('',(5.074312336895,-1.338878124898,0.917862875134
));
#176 = CARTESIAN_POINT('',(5.046326617636,-1.334004051726,0.896675577204
));
#177 = ORIENTED_EDGE('',*,*,#178,.T.);
#178 = EDGE_CURVE('',#162,#160,#179,.T.);
#179 = B_SPLINE_CURVE_WITH_KNOTS('',7,(#180,#181,#182,#183,#184,#185,
#186,#187,#188,#189,#190,#191,#192,#193,#194,#195,#196,#197,#198,
#199,#200,#201,#202,#203,#204,#205,#206,#207,#208,#209,#210,#211,
#212,#213,#214,#215,#216,#217,#218,#219,#220,#221,#222,#223),
.UNSPECIFIED.,.F.,.F.,(8,6,6,6,6,6,6,8),(0.E+000,0.245069423698,
0.399085090964,0.542424473604,0.678917737704,0.807518087473,
0.922257829866,1.),.UNSPECIFIED.);
#180 = CARTESIAN_POINT('',(5.046326617636,-1.334004051726,0.896675577204
));
#181 = CARTESIAN_POINT('',(5.000719542099,-1.326060992579,0.862147584976
));
#182 = CARTESIAN_POINT('',(4.952610985817,-1.327081622348,0.829862497789
));
#183 = CARTESIAN_POINT('',(4.904423421942,-1.338167284356,0.801713386406
));
#184 = CARTESIAN_POINT('',(4.859071864869,-1.359408987167,0.779583881912
));
#185 = CARTESIAN_POINT('',(4.819384928537,-1.389688043401,0.765151784214
));
#186 = CARTESIAN_POINT('',(4.787477275091,-1.426843606052,0.759381843333
));
#187 = CARTESIAN_POINT('',(4.749789135868,-1.494251225925,0.763875600379
));
#188 = CARTESIAN_POINT('',(4.738702451834,-1.521945031616,0.768978937426
));
#189 = CARTESIAN_POINT('',(4.731321681058,-1.550667499938,0.777423621616
));
#190 = CARTESIAN_POINT('',(4.727681791184,-1.579755747997,0.789015126661
));
#191 = CARTESIAN_POINT('',(4.727666226024,-1.608624568871,0.803451899506
));
#192 = CARTESIAN_POINT('',(4.731070380701,-1.636798478763,0.820377625272
));
#193 = CARTESIAN_POINT('',(4.743806583633,-1.689096447003,0.8571539676)
);
#194 = CARTESIAN_POINT('',(4.752711135934,-1.713366221223,0.876720449236
));
#195 = CARTESIAN_POINT('',(4.764199286977,-1.736392867782,0.897837596914
));
#196 = CARTESIAN_POINT('',(4.77807342397,-1.757924232532,0.920203351898)
);
#197 = CARTESIAN_POINT('',(4.794138795643,-1.777743798427,0.94351018124)
);
#198 = CARTESIAN_POINT('',(4.812209527545,-1.795652559243,0.967443794334
));
#199 = CARTESIAN_POINT('',(4.851043735336,-1.826488538991,1.014742730652
));
#200 = CARTESIAN_POINT('',(4.871625397859,-1.839603342252,1.038066025434
));
#201 = CARTESIAN_POINT('',(4.893693124816,-1.850628761433,1.061365192955
));
#202 = CARTESIAN_POINT('',(4.917076259889,-1.859374656732,1.084322058289
));
#203 = CARTESIAN_POINT('',(4.941556531113,-1.865630665141,1.106558900725
));
#204 = CARTESIAN_POINT('',(4.96684767733,-1.869191090628,1.127651889186)
);
#205 = CARTESIAN_POINT('',(5.016834404596,-1.870564356109,1.165570835901
));
#206 = CARTESIAN_POINT('',(5.041482990387,-1.868697673248,1.182575233672
));
#207 = CARTESIAN_POINT('',(5.066156749808,-1.864164033533,1.197781013964
));
#208 = CARTESIAN_POINT('',(5.090436185139,-1.85691028066,1.210817286893)
);
#209 = CARTESIAN_POINT('',(5.113879264952,-1.846989909536,1.221408143201
));
#210 = CARTESIAN_POINT('',(5.136057543521,-1.834573295962,1.22940525913)
);
#211 = CARTESIAN_POINT('',(5.17493904932,-1.806888492583,1.239604358348)
);
#212 = CARTESIAN_POINT('',(5.191985050303,-1.792064519357,1.242340769894
));
#213 = CARTESIAN_POINT('',(5.207489035281,-1.775660833958,1.242991754061
));
#214 = CARTESIAN_POINT('',(5.221256529022,-1.757916842419,1.24163213935)
);
#215 = CARTESIAN_POINT('',(5.233157502812,-1.739091204424,1.238391887941
));
#216 = CARTESIAN_POINT('',(5.243120203946,-1.719440211726,1.233428249562
));
#217 = CARTESIAN_POINT('',(5.256531051264,-1.6854935423,1.222481001956)
);
#218 = CARTESIAN_POINT('',(5.261044435258,-1.671513011585,1.217341961443
));
#219 = CARTESIAN_POINT('',(5.264645884303,-1.657335821081,1.21153513447)
);
#220 = CARTESIAN_POINT('',(5.267334554892,-1.643031809236,1.205110488905
));
#221 = CARTESIAN_POINT('',(5.269115892905,-1.628667175701,1.198116943743
));
#222 = CARTESIAN_POINT('',(5.27,-1.614304039966,1.190601085597));
#223 = CARTESIAN_POINT('',(5.27,-1.6,1.182605885172));
#224 = TOROIDAL_SURFACE('',#225,2.59756097561,1.90243902439);
#225 = AXIS2_PLACEMENT_3D('',#226,#227,#228);
#226 = CARTESIAN_POINT('',(2.5,-0.84756097561,4.53));
#227 = DIRECTION('',(0.E+000,-1.,0.E+000));
#228 = DIRECTION('',(1.,0.E+000,0.E+000));
#229 = ADVANCED_FACE('',(#230),#233,.F.);
#230 = FACE_BOUND('',#231,.F.);
#231 = EDGE_LOOP('',(#232));
#232 = ORIENTED_EDGE('',*,*,#64,.T.);
#233 = PLANE('',#234);
#234 = AXIS2_PLACEMENT_3D('',#235,#236,#237);
#235 = CARTESIAN_POINT('',(2.5,1.15,4.53));
#236 = DIRECTION('',(-0.E+000,-1.,-0.E+000));
#237 = DIRECTION('',(0.E+000,0.E+000,-1.));
#238 = ADVANCED_FACE('',(#239),#259,.T.);
#239 = FACE_BOUND('',#240,.T.);
#240 = EDGE_LOOP('',(#241,#242,#250,#257,#258));
#241 = ORIENTED_EDGE('',*,*,#101,.T.);
#242 = ORIENTED_EDGE('',*,*,#243,.T.);
#243 = EDGE_CURVE('',#75,#244,#246,.T.);
#244 = VERTEX_POINT('',#245);
#245 = CARTESIAN_POINT('',(0.27,0.E+000,-2.892));
#246 = LINE('',#247,#248);
#247 = CARTESIAN_POINT('',(0.27,0.E+000,4.53));
#248 = VECTOR('',#249,1.);
#249 = DIRECTION('',(-0.E+000,-0.E+000,-1.));
#250 = ORIENTED_EDGE('',*,*,#251,.T.);
#251 = EDGE_CURVE('',#244,#244,#252,.T.);
#252 = CIRCLE('',#253,0.27);
#253 = AXIS2_PLACEMENT_3D('',#254,#255,#256);
#254 = CARTESIAN_POINT('',(0.E+000,0.E+000,-2.892));
#255 = DIRECTION('',(0.E+000,0.E+000,1.));
#256 = DIRECTION('',(1.,0.E+000,0.E+000));
#257 = ORIENTED_EDGE('',*,*,#243,.F.);
#258 = ORIENTED_EDGE('',*,*,#74,.T.);
#259 = CYLINDRICAL_SURFACE('',#260,0.27);
#260 = AXIS2_PLACEMENT_3D('',#261,#262,#263);
#261 = CARTESIAN_POINT('',(0.E+000,0.E+000,4.53));
#262 = DIRECTION('',(0.E+000,0.E+000,1.));
#263 = DIRECTION('',(1.,0.E+000,0.E+000));
#264 = ADVANCED_FACE('',(#265),#268,.T.);
#265 = FACE_BOUND('',#266,.T.);
#266 = EDGE_LOOP('',(#267));
#267 = ORIENTED_EDGE('',*,*,#149,.T.);
#268 = PLANE('',#269);
#269 = AXIS2_PLACEMENT_3D('',#270,#271,#272);
#270 = CARTESIAN_POINT('',(2.5,-2.75,4.53));
#271 = DIRECTION('',(-0.E+000,-1.,-0.E+000));
#272 = DIRECTION('',(0.E+000,0.E+000,-1.));
#273 = ADVANCED_FACE('',(#274),#294,.T.);
#274 = FACE_BOUND('',#275,.T.);
#275 = EDGE_LOOP('',(#276,#277,#285,#292,#293));
#276 = ORIENTED_EDGE('',*,*,#159,.F.);
#277 = ORIENTED_EDGE('',*,*,#278,.T.);
#278 = EDGE_CURVE('',#160,#279,#281,.T.);
#279 = VERTEX_POINT('',#280);
#280 = CARTESIAN_POINT('',(5.27,-1.6,-2.892));
#281 = LINE('',#282,#283);
#282 = CARTESIAN_POINT('',(5.27,-1.6,4.53));
#283 = VECTOR('',#284,1.);
#284 = DIRECTION('',(-0.E+000,-0.E+000,-1.));
#285 = ORIENTED_EDGE('',*,*,#286,.T.);
#286 = EDGE_CURVE('',#279,#279,#287,.T.);
#287 = CIRCLE('',#288,0.27);
#288 = AXIS2_PLACEMENT_3D('',#289,#290,#291);
#289 = CARTESIAN_POINT('',(5.,-1.6,-2.892));
#290 = DIRECTION('',(0.E+000,0.E+000,1.));
#291 = DIRECTION('',(1.,0.E+000,0.E+000));
#292 = ORIENTED_EDGE('',*,*,#278,.F.);
#293 = ORIENTED_EDGE('',*,*,#178,.F.);
#294 = CYLINDRICAL_SURFACE('',#295,0.27);
#295 = AXIS2_PLACEMENT_3D('',#296,#297,#298);
#296 = CARTESIAN_POINT('',(5.,-1.6,4.53));
#297 = DIRECTION('',(0.E+000,0.E+000,1.));
#298 = DIRECTION('',(1.,0.E+000,0.E+000));
#299 = ADVANCED_FACE('',(#300),#320,.T.);
#300 = FACE_BOUND('',#301,.F.);
#301 = EDGE_LOOP('',(#302,#311,#312,#313));
#302 = ORIENTED_EDGE('',*,*,#303,.F.);
#303 = EDGE_CURVE('',#244,#304,#306,.T.);
#304 = VERTEX_POINT('',#305);
#305 = CARTESIAN_POINT('',(0.162,0.E+000,-3.));
#306 = CIRCLE('',#307,0.108);
#307 = AXIS2_PLACEMENT_3D('',#308,#309,#310);
#308 = CARTESIAN_POINT('',(0.162,0.E+000,-2.892));
#309 = DIRECTION('',(-0.E+000,1.,0.E+000));
#310 = DIRECTION('',(1.,0.E+000,0.E+000));
#311 = ORIENTED_EDGE('',*,*,#251,.T.);
#312 = ORIENTED_EDGE('',*,*,#303,.T.);
#313 = ORIENTED_EDGE('',*,*,#314,.F.);
#314 = EDGE_CURVE('',#304,#304,#315,.T.);
#315 = CIRCLE('',#316,0.162);
#316 = AXIS2_PLACEMENT_3D('',#317,#318,#319);
#317 = CARTESIAN_POINT('',(0.E+000,0.E+000,-3.));
#318 = DIRECTION('',(0.E+000,0.E+000,1.));
#319 = DIRECTION('',(1.,0.E+000,0.E+000));
#320 = TOROIDAL_SURFACE('',#321,0.162,0.108);
#321 = AXIS2_PLACEMENT_3D('',#322,#323,#324);
#322 = CARTESIAN_POINT('',(0.E+000,0.E+000,-2.892));
#323 = DIRECTION('',(-0.E+000,-0.E+000,-1.));
#324 = DIRECTION('',(1.,0.E+000,0.E+000));
#325 = ADVANCED_FACE('',(#326),#346,.T.);
#326 = FACE_BOUND('',#327,.F.);
#327 = EDGE_LOOP('',(#328,#337,#338,#339));
#328 = ORIENTED_EDGE('',*,*,#329,.F.);
#329 = EDGE_CURVE('',#279,#330,#332,.T.);
#330 = VERTEX_POINT('',#331);
#331 = CARTESIAN_POINT('',(5.162,-1.6,-3.));
#332 = CIRCLE('',#333,0.108);
#333 = AXIS2_PLACEMENT_3D('',#334,#335,#336);
#334 = CARTESIAN_POINT('',(5.162,-1.6,-2.892));
#335 = DIRECTION('',(-0.E+000,1.,0.E+000));
#336 = DIRECTION('',(1.,0.E+000,0.E+000));
#337 = ORIENTED_EDGE('',*,*,#286,.T.);
#338 = ORIENTED_EDGE('',*,*,#329,.T.);
#339 = ORIENTED_EDGE('',*,*,#340,.F.);
#340 = EDGE_CURVE('',#330,#330,#341,.T.);
#341 = CIRCLE('',#342,0.162);
#342 = AXIS2_PLACEMENT_3D('',#343,#344,#345);
#343 = CARTESIAN_POINT('',(5.,-1.6,-3.));
#344 = DIRECTION('',(0.E+000,0.E+000,1.));
#345 = DIRECTION('',(1.,0.E+000,0.E+000));
#346 = TOROIDAL_SURFACE('',#347,0.162,0.108);
#347 = AXIS2_PLACEMENT_3D('',#348,#349,#350);
#348 = CARTESIAN_POINT('',(5.,-1.6,-2.892));
#349 = DIRECTION('',(-0.E+000,-0.E+000,-1.));
#350 = DIRECTION('',(1.,0.E+000,0.E+000));
#351 = ADVANCED_FACE('',(#352),#355,.F.);
#352 = FACE_BOUND('',#353,.F.);
#353 = EDGE_LOOP('',(#354));
#354 = ORIENTED_EDGE('',*,*,#314,.T.);
#355 = PLANE('',#356);
#356 = AXIS2_PLACEMENT_3D('',#357,#358,#359);
#357 = CARTESIAN_POINT('',(-1.978356673234E-017,2.854531227236E-017,-3.)
);
#358 = DIRECTION('',(0.E+000,0.E+000,1.));
#359 = DIRECTION('',(1.,0.E+000,0.E+000));
#360 = ADVANCED_FACE('',(#361),#364,.F.);
#361 = FACE_BOUND('',#362,.F.);
#362 = EDGE_LOOP('',(#363));
#363 = ORIENTED_EDGE('',*,*,#340,.T.);
#364 = PLANE('',#365);
#365 = AXIS2_PLACEMENT_3D('',#366,#367,#368);
#366 = CARTESIAN_POINT('',(5.,-1.6,-3.));
#367 = DIRECTION('',(0.E+000,0.E+000,1.));
#368 = DIRECTION('',(1.,0.E+000,0.E+000));
#369 = ( GEOMETRIC_REPRESENTATION_CONTEXT(3)
GLOBAL_UNCERTAINTY_ASSIGNED_CONTEXT((#373)) GLOBAL_UNIT_ASSIGNED_CONTEXT
((#370,#371,#372)) REPRESENTATION_CONTEXT('Context #1',
'3D Context with UNIT and UNCERTAINTY') );
#370 = ( LENGTH_UNIT() NAMED_UNIT(*) SI_UNIT(.MILLI.,.METRE.) );
#371 = ( NAMED_UNIT(*) PLANE_ANGLE_UNIT() SI_UNIT($,.RADIAN.) );
#372 = ( NAMED_UNIT(*) SI_UNIT($,.STERADIAN.) SOLID_ANGLE_UNIT() );
#373 = UNCERTAINTY_MEASURE_WITH_UNIT(LENGTH_MEASURE(1.E-007),#370,
'distance_accuracy_value','confusion accuracy');
#374 = PRODUCT_RELATED_PRODUCT_CATEGORY('part',$,(#7));
#375 = MECHANICAL_DESIGN_GEOMETRIC_PRESENTATION_REPRESENTATION('',(#376,
#384,#391,#398,#405,#413,#420,#427,#434,#441,#448),#369);
#376 = STYLED_ITEM('color',(#377),#17);
#377 = PRESENTATION_STYLE_ASSIGNMENT((#378));
#378 = SURFACE_STYLE_USAGE(.BOTH.,#379);
#379 = SURFACE_SIDE_STYLE('',(#380));
#380 = SURFACE_STYLE_FILL_AREA(#381);
#381 = FILL_AREA_STYLE('',(#382));
#382 = FILL_AREA_STYLE_COLOUR('',#383);
#383 = COLOUR_RGB('',0.136999994516,0.402000010014,0.726999998093);
#384 = STYLED_ITEM('color',(#385),#50);
#385 = PRESENTATION_STYLE_ASSIGNMENT((#386));
#386 = SURFACE_STYLE_USAGE(.BOTH.,#387);
#387 = SURFACE_SIDE_STYLE('',(#388));
#388 = SURFACE_STYLE_FILL_AREA(#389);
#389 = FILL_AREA_STYLE('',(#390));
#390 = FILL_AREA_STYLE_COLOUR('',#383);
#391 = STYLED_ITEM('color',(#392),#135);
#392 = PRESENTATION_STYLE_ASSIGNMENT((#393));
#393 = SURFACE_STYLE_USAGE(.BOTH.,#394);
#394 = SURFACE_SIDE_STYLE('',(#395));
#395 = SURFACE_STYLE_FILL_AREA(#396);
#396 = FILL_AREA_STYLE('',(#397));
#397 = FILL_AREA_STYLE_COLOUR('',#383);
#398 = STYLED_ITEM('color',(#399),#229);
#399 = PRESENTATION_STYLE_ASSIGNMENT((#400));
#400 = SURFACE_STYLE_USAGE(.BOTH.,#401);
#401 = SURFACE_SIDE_STYLE('',(#402));
#402 = SURFACE_STYLE_FILL_AREA(#403);
#403 = FILL_AREA_STYLE('',(#404));
#404 = FILL_AREA_STYLE_COLOUR('',#383);
#405 = STYLED_ITEM('color',(#406),#238);
#406 = PRESENTATION_STYLE_ASSIGNMENT((#407));
#407 = SURFACE_STYLE_USAGE(.BOTH.,#408);
#408 = SURFACE_SIDE_STYLE('',(#409));
#409 = SURFACE_STYLE_FILL_AREA(#410);
#410 = FILL_AREA_STYLE('',(#411));
#411 = FILL_AREA_STYLE_COLOUR('',#412);
#412 = COLOUR_RGB('',0.824000000954,0.819999992847,0.78100001812);
#413 = STYLED_ITEM('color',(#414),#264);
#414 = PRESENTATION_STYLE_ASSIGNMENT((#415));
#415 = SURFACE_STYLE_USAGE(.BOTH.,#416);
#416 = SURFACE_SIDE_STYLE('',(#417));
#417 = SURFACE_STYLE_FILL_AREA(#418);
#418 = FILL_AREA_STYLE('',(#419));
#419 = FILL_AREA_STYLE_COLOUR('',#383);
#420 = STYLED_ITEM('color',(#421),#273);
#421 = PRESENTATION_STYLE_ASSIGNMENT((#422));
#422 = SURFACE_STYLE_USAGE(.BOTH.,#423);
#423 = SURFACE_SIDE_STYLE('',(#424));
#424 = SURFACE_STYLE_FILL_AREA(#425);
#425 = FILL_AREA_STYLE('',(#426));
#426 = FILL_AREA_STYLE_COLOUR('',#412);
#427 = STYLED_ITEM('color',(#428),#299);
#428 = PRESENTATION_STYLE_ASSIGNMENT((#429));
#429 = SURFACE_STYLE_USAGE(.BOTH.,#430);
#430 = SURFACE_SIDE_STYLE('',(#431));
#431 = SURFACE_STYLE_FILL_AREA(#432);
#432 = FILL_AREA_STYLE('',(#433));
#433 = FILL_AREA_STYLE_COLOUR('',#412);
#434 = STYLED_ITEM('color',(#435),#325);
#435 = PRESENTATION_STYLE_ASSIGNMENT((#436));
#436 = SURFACE_STYLE_USAGE(.BOTH.,#437);
#437 = SURFACE_SIDE_STYLE('',(#438));
#438 = SURFACE_STYLE_FILL_AREA(#439);
#439 = FILL_AREA_STYLE('',(#440));
#440 = FILL_AREA_STYLE_COLOUR('',#412);
#441 = STYLED_ITEM('color',(#442),#351);
#442 = PRESENTATION_STYLE_ASSIGNMENT((#443));
#443 = SURFACE_STYLE_USAGE(.BOTH.,#444);
#444 = SURFACE_SIDE_STYLE('',(#445));
#445 = SURFACE_STYLE_FILL_AREA(#446);
#446 = FILL_AREA_STYLE('',(#447));
#447 = FILL_AREA_STYLE_COLOUR('',#412);
#448 = STYLED_ITEM('color',(#449),#360);
#449 = PRESENTATION_STYLE_ASSIGNMENT((#450));
#450 = SURFACE_STYLE_USAGE(.BOTH.,#451);
#451 = SURFACE_SIDE_STYLE('',(#452));
#452 = SURFACE_STYLE_FILL_AREA(#453);
#453 = FILL_AREA_STYLE('',(#454));
#454 = FILL_AREA_STYLE_COLOUR('',#412);
ENDSEC;
END-ISO-10303-21;
