ISO-10303-21;
HEADER;
FILE_DESCRIPTION(('FreeCAD Model'),'2;1');
FILE_NAME(
'D:/KiCAD/packages3D-source/LED_THT.3dshapes\\
LED_D2.0mm_W4.8mm_H2.5mm_FlatTop.step','2017-11-25T21:37:30',(
    'kicad StepUp'),('ksu MCAD'),'Open CASCADE STEP processor 6.8',
  'FreeCAD','Unknown');
FILE_SCHEMA(('AUTOMOTIVE_DESIGN_CC2 { 1 2 10303 214 -1 1 5 4 }'));
ENDSEC;
DATA;
#1 = APPLICATION_PROTOCOL_DEFINITION('committee draft',
  'automotive_design',1997,#2);
#2 = APPLICATION_CONTEXT(
  'core data for automotive mechanical design processes');
#3 = SHAPE_DEFINITION_REPRESENTATION(#4,#10);
#4 = PRODUCT_DEFINITION_SHAPE('','',#5);
#5 = PRODUCT_DEFINITION('design','',#6,#9);
#6 = PRODUCT_DEFINITION_FORMATION('','',#7);
#7 = PRODUCT('LED_D2.0mm_W4.8mm_H2.5mm_FlatTop',
  'LED_D2.0mm_W4.8mm_H2.5mm_FlatTop','',(#8));
#8 = MECHANICAL_CONTEXT('',#2,'mechanical');
#9 = PRODUCT_DEFINITION_CONTEXT('part definition',#2,'design');
#10 = ADVANCED_BREP_SHAPE_REPRESENTATION('',(#11,#15),#494);
#11 = AXIS2_PLACEMENT_3D('',#12,#13,#14);
#12 = CARTESIAN_POINT('',(0.E+000,0.E+000,0.E+000));
#13 = DIRECTION('',(0.E+000,0.E+000,1.));
#14 = DIRECTION('',(1.,0.E+000,-0.E+000));
#15 = MANIFOLD_SOLID_BREP('',#16);
#16 = CLOSED_SHELL('',(#17,#34,#59,#102,#133,#157,#181,#198,#278,#309,
    #333,#357,#374,#405,#429,#453,#470,#482));
#17 = ADVANCED_FACE('',(#18),#29,.F.);
#18 = FACE_BOUND('',#19,.T.);
#19 = EDGE_LOOP('',(#20));
#20 = ORIENTED_EDGE('',*,*,#21,.F.);
#21 = EDGE_CURVE('',#22,#22,#24,.T.);
#22 = VERTEX_POINT('',#23);
#23 = CARTESIAN_POINT('',(2.27,7.327471962526E-015,11.));
#24 = CIRCLE('',#25,1.);
#25 = AXIS2_PLACEMENT_3D('',#26,#27,#28);
#26 = CARTESIAN_POINT('',(1.27,4.884981308351E-015,11.));
#27 = DIRECTION('',(0.E+000,-4.440892098501E-016,-1.));
#28 = DIRECTION('',(1.,2.442490654175E-015,-1.084683744679E-030));
#29 = PLANE('',#30);
#30 = AXIS2_PLACEMENT_3D('',#31,#32,#33);
#31 = CARTESIAN_POINT('',(1.27,4.884981308351E-015,11.));
#32 = DIRECTION('',(0.E+000,-4.440892098501E-016,-1.));
#33 = DIRECTION('',(1.,2.442490654175E-015,-1.084683744679E-030));
#34 = ADVANCED_FACE('',(#35),#54,.T.);
#35 = FACE_BOUND('',#36,.T.);
#36 = EDGE_LOOP('',(#37,#45,#46,#47));
#37 = ORIENTED_EDGE('',*,*,#38,.F.);
#38 = EDGE_CURVE('',#22,#39,#41,.T.);
#39 = VERTEX_POINT('',#40);
#40 = CARTESIAN_POINT('',(2.27,4.329869796038E-015,6.5));
#41 = LINE('',#42,#43);
#42 = CARTESIAN_POINT('',(2.27,7.327471962526E-015,11.));
#43 = VECTOR('',#44,1.);
#44 = DIRECTION('',(0.E+000,-6.661338147751E-016,-1.));
#45 = ORIENTED_EDGE('',*,*,#21,.T.);
#46 = ORIENTED_EDGE('',*,*,#38,.T.);
#47 = ORIENTED_EDGE('',*,*,#48,.F.);
#48 = EDGE_CURVE('',#39,#39,#49,.T.);
#49 = CIRCLE('',#50,1.);
#50 = AXIS2_PLACEMENT_3D('',#51,#52,#53);
#51 = CARTESIAN_POINT('',(1.27,2.886579864025E-015,6.5));
#52 = DIRECTION('',(0.E+000,-4.440892098501E-016,-1.));
#53 = DIRECTION('',(1.,1.443289932013E-015,-6.409494854921E-031));
#54 = CYLINDRICAL_SURFACE('',#55,1.);
#55 = AXIS2_PLACEMENT_3D('',#56,#57,#58);
#56 = CARTESIAN_POINT('',(1.27,4.884981308351E-015,11.));
#57 = DIRECTION('',(0.E+000,-4.440892098501E-016,-1.));
#58 = DIRECTION('',(1.,2.442490654175E-015,-1.084683744679E-030));
#59 = ADVANCED_FACE('',(#60,#94),#97,.F.);
#60 = FACE_BOUND('',#61,.F.);
#61 = EDGE_LOOP('',(#62,#72,#80,#88));
#62 = ORIENTED_EDGE('',*,*,#63,.F.);
#63 = EDGE_CURVE('',#64,#66,#68,.T.);
#64 = VERTEX_POINT('',#65);
#65 = CARTESIAN_POINT('',(3.67,1.25,6.5));
#66 = VERTEX_POINT('',#67);
#67 = CARTESIAN_POINT('',(-1.13,1.25,6.5));
#68 = LINE('',#69,#70);
#69 = CARTESIAN_POINT('',(3.67,1.25,6.5));
#70 = VECTOR('',#71,1.);
#71 = DIRECTION('',(-1.,0.E+000,0.E+000));
#72 = ORIENTED_EDGE('',*,*,#73,.T.);
#73 = EDGE_CURVE('',#64,#74,#76,.T.);
#74 = VERTEX_POINT('',#75);
#75 = CARTESIAN_POINT('',(3.67,-1.25,6.5));
#76 = LINE('',#77,#78);
#77 = CARTESIAN_POINT('',(3.67,1.25,6.5));
#78 = VECTOR('',#79,1.);
#79 = DIRECTION('',(0.E+000,-1.,0.E+000));
#80 = ORIENTED_EDGE('',*,*,#81,.F.);
#81 = EDGE_CURVE('',#82,#74,#84,.T.);
#82 = VERTEX_POINT('',#83);
#83 = CARTESIAN_POINT('',(-1.13,-1.25,6.5));
#84 = LINE('',#85,#86);
#85 = CARTESIAN_POINT('',(-1.13,-1.25,6.5));
#86 = VECTOR('',#87,1.);
#87 = DIRECTION('',(1.,0.E+000,0.E+000));
#88 = ORIENTED_EDGE('',*,*,#89,.F.);
#89 = EDGE_CURVE('',#66,#82,#90,.T.);
#90 = LINE('',#91,#92);
#91 = CARTESIAN_POINT('',(-1.13,1.25,6.5));
#92 = VECTOR('',#93,1.);
#93 = DIRECTION('',(0.E+000,-1.,0.E+000));
#94 = FACE_BOUND('',#95,.F.);
#95 = EDGE_LOOP('',(#96));
#96 = ORIENTED_EDGE('',*,*,#48,.F.);
#97 = PLANE('',#98);
#98 = AXIS2_PLACEMENT_3D('',#99,#100,#101);
#99 = CARTESIAN_POINT('',(3.67,1.25,6.5));
#100 = DIRECTION('',(0.E+000,0.E+000,-1.));
#101 = DIRECTION('',(-1.,0.E+000,0.E+000));
#102 = ADVANCED_FACE('',(#103),#128,.F.);
#103 = FACE_BOUND('',#104,.F.);
#104 = EDGE_LOOP('',(#105,#113,#114,#122));
#105 = ORIENTED_EDGE('',*,*,#106,.T.);
#106 = EDGE_CURVE('',#107,#64,#109,.T.);
#107 = VERTEX_POINT('',#108);
#108 = CARTESIAN_POINT('',(3.67,1.25,3.));
#109 = LINE('',#110,#111);
#110 = CARTESIAN_POINT('',(3.67,1.25,3.));
#111 = VECTOR('',#112,1.);
#112 = DIRECTION('',(0.E+000,0.E+000,1.));
#113 = ORIENTED_EDGE('',*,*,#63,.T.);
#114 = ORIENTED_EDGE('',*,*,#115,.F.);
#115 = EDGE_CURVE('',#116,#66,#118,.T.);
#116 = VERTEX_POINT('',#117);
#117 = CARTESIAN_POINT('',(-1.13,1.25,3.));
#118 = LINE('',#119,#120);
#119 = CARTESIAN_POINT('',(-1.13,1.25,3.));
#120 = VECTOR('',#121,1.);
#121 = DIRECTION('',(0.E+000,0.E+000,1.));
#122 = ORIENTED_EDGE('',*,*,#123,.F.);
#123 = EDGE_CURVE('',#107,#116,#124,.T.);
#124 = LINE('',#125,#126);
#125 = CARTESIAN_POINT('',(3.67,1.25,3.));
#126 = VECTOR('',#127,1.);
#127 = DIRECTION('',(-1.,0.E+000,0.E+000));
#128 = PLANE('',#129);
#129 = AXIS2_PLACEMENT_3D('',#130,#131,#132);
#130 = CARTESIAN_POINT('',(3.67,1.25,3.));
#131 = DIRECTION('',(0.E+000,-1.,0.E+000));
#132 = DIRECTION('',(-1.,0.E+000,0.E+000));
#133 = ADVANCED_FACE('',(#134),#152,.T.);
#134 = FACE_BOUND('',#135,.T.);
#135 = EDGE_LOOP('',(#136,#137,#138,#146));
#136 = ORIENTED_EDGE('',*,*,#106,.T.);
#137 = ORIENTED_EDGE('',*,*,#73,.T.);
#138 = ORIENTED_EDGE('',*,*,#139,.F.);
#139 = EDGE_CURVE('',#140,#74,#142,.T.);
#140 = VERTEX_POINT('',#141);
#141 = CARTESIAN_POINT('',(3.67,-1.25,3.));
#142 = LINE('',#143,#144);
#143 = CARTESIAN_POINT('',(3.67,-1.25,3.));
#144 = VECTOR('',#145,1.);
#145 = DIRECTION('',(0.E+000,0.E+000,1.));
#146 = ORIENTED_EDGE('',*,*,#147,.F.);
#147 = EDGE_CURVE('',#107,#140,#148,.T.);
#148 = LINE('',#149,#150);
#149 = CARTESIAN_POINT('',(3.67,1.25,3.));
#150 = VECTOR('',#151,1.);
#151 = DIRECTION('',(0.E+000,-1.,0.E+000));
#152 = PLANE('',#153);
#153 = AXIS2_PLACEMENT_3D('',#154,#155,#156);
#154 = CARTESIAN_POINT('',(3.67,1.25,3.));
#155 = DIRECTION('',(1.,0.E+000,0.E+000));
#156 = DIRECTION('',(0.E+000,-1.,0.E+000));
#157 = ADVANCED_FACE('',(#158),#176,.F.);
#158 = FACE_BOUND('',#159,.F.);
#159 = EDGE_LOOP('',(#160,#161,#162,#170));
#160 = ORIENTED_EDGE('',*,*,#115,.T.);
#161 = ORIENTED_EDGE('',*,*,#89,.T.);
#162 = ORIENTED_EDGE('',*,*,#163,.F.);
#163 = EDGE_CURVE('',#164,#82,#166,.T.);
#164 = VERTEX_POINT('',#165);
#165 = CARTESIAN_POINT('',(-1.13,-1.25,3.));
#166 = LINE('',#167,#168);
#167 = CARTESIAN_POINT('',(-1.13,-1.25,3.));
#168 = VECTOR('',#169,1.);
#169 = DIRECTION('',(0.E+000,0.E+000,1.));
#170 = ORIENTED_EDGE('',*,*,#171,.F.);
#171 = EDGE_CURVE('',#116,#164,#172,.T.);
#172 = LINE('',#173,#174);
#173 = CARTESIAN_POINT('',(-1.13,1.25,3.));
#174 = VECTOR('',#175,1.);
#175 = DIRECTION('',(0.E+000,-1.,0.E+000));
#176 = PLANE('',#177);
#177 = AXIS2_PLACEMENT_3D('',#178,#179,#180);
#178 = CARTESIAN_POINT('',(-1.13,1.25,3.));
#179 = DIRECTION('',(1.,0.E+000,0.E+000));
#180 = DIRECTION('',(0.E+000,-1.,0.E+000));
#181 = ADVANCED_FACE('',(#182),#193,.F.);
#182 = FACE_BOUND('',#183,.F.);
#183 = EDGE_LOOP('',(#184,#185,#186,#187));
#184 = ORIENTED_EDGE('',*,*,#163,.T.);
#185 = ORIENTED_EDGE('',*,*,#81,.T.);
#186 = ORIENTED_EDGE('',*,*,#139,.F.);
#187 = ORIENTED_EDGE('',*,*,#188,.F.);
#188 = EDGE_CURVE('',#164,#140,#189,.T.);
#189 = LINE('',#190,#191);
#190 = CARTESIAN_POINT('',(-1.13,-1.25,3.));
#191 = VECTOR('',#192,1.);
#192 = DIRECTION('',(1.,0.E+000,0.E+000));
#193 = PLANE('',#194);
#194 = AXIS2_PLACEMENT_3D('',#195,#196,#197);
#195 = CARTESIAN_POINT('',(-1.13,-1.25,3.));
#196 = DIRECTION('',(0.E+000,1.,0.E+000));
#197 = DIRECTION('',(1.,0.E+000,0.E+000));
#198 = ADVANCED_FACE('',(#199,#205,#239),#273,.T.);
#199 = FACE_BOUND('',#200,.T.);
#200 = EDGE_LOOP('',(#201,#202,#203,#204));
#201 = ORIENTED_EDGE('',*,*,#123,.F.);
#202 = ORIENTED_EDGE('',*,*,#147,.T.);
#203 = ORIENTED_EDGE('',*,*,#188,.F.);
#204 = ORIENTED_EDGE('',*,*,#171,.F.);
#205 = FACE_BOUND('',#206,.T.);
#206 = EDGE_LOOP('',(#207,#217,#225,#233));
#207 = ORIENTED_EDGE('',*,*,#208,.T.);
#208 = EDGE_CURVE('',#209,#211,#213,.T.);
#209 = VERTEX_POINT('',#210);
#210 = CARTESIAN_POINT('',(0.2,0.2,3.));
#211 = VERTEX_POINT('',#212);
#212 = CARTESIAN_POINT('',(-0.2,0.2,3.));
#213 = LINE('',#214,#215);
#214 = CARTESIAN_POINT('',(1.735,0.2,3.));
#215 = VECTOR('',#216,1.);
#216 = DIRECTION('',(-1.,-0.E+000,-0.E+000));
#217 = ORIENTED_EDGE('',*,*,#218,.T.);
#218 = EDGE_CURVE('',#211,#219,#221,.T.);
#219 = VERTEX_POINT('',#220);
#220 = CARTESIAN_POINT('',(-0.2,-0.2,3.));
#221 = LINE('',#222,#223);
#222 = CARTESIAN_POINT('',(-0.2,0.525,3.));
#223 = VECTOR('',#224,1.);
#224 = DIRECTION('',(0.E+000,-1.,0.E+000));
#225 = ORIENTED_EDGE('',*,*,#226,.T.);
#226 = EDGE_CURVE('',#219,#227,#229,.T.);
#227 = VERTEX_POINT('',#228);
#228 = CARTESIAN_POINT('',(0.2,-0.2,3.));
#229 = LINE('',#230,#231);
#230 = CARTESIAN_POINT('',(1.935,-0.2,3.));
#231 = VECTOR('',#232,1.);
#232 = DIRECTION('',(1.,0.E+000,0.E+000));
#233 = ORIENTED_EDGE('',*,*,#234,.T.);
#234 = EDGE_CURVE('',#227,#209,#235,.T.);
#235 = LINE('',#236,#237);
#236 = CARTESIAN_POINT('',(0.2,0.725,3.));
#237 = VECTOR('',#238,1.);
#238 = DIRECTION('',(0.E+000,1.,0.E+000));
#239 = FACE_BOUND('',#240,.T.);
#240 = EDGE_LOOP('',(#241,#251,#259,#267));
#241 = ORIENTED_EDGE('',*,*,#242,.T.);
#242 = EDGE_CURVE('',#243,#245,#247,.T.);
#243 = VERTEX_POINT('',#244);
#244 = CARTESIAN_POINT('',(2.74,0.2,3.));
#245 = VERTEX_POINT('',#246);
#246 = CARTESIAN_POINT('',(2.34,0.2,3.));
#247 = LINE('',#248,#249);
#248 = CARTESIAN_POINT('',(3.005,0.2,3.));
#249 = VECTOR('',#250,1.);
#250 = DIRECTION('',(-1.,-0.E+000,-0.E+000));
#251 = ORIENTED_EDGE('',*,*,#252,.T.);
#252 = EDGE_CURVE('',#245,#253,#255,.T.);
#253 = VERTEX_POINT('',#254);
#254 = CARTESIAN_POINT('',(2.34,-0.2,3.));
#255 = LINE('',#256,#257);
#256 = CARTESIAN_POINT('',(2.34,0.525,3.));
#257 = VECTOR('',#258,1.);
#258 = DIRECTION('',(0.E+000,-1.,0.E+000));
#259 = ORIENTED_EDGE('',*,*,#260,.T.);
#260 = EDGE_CURVE('',#253,#261,#263,.T.);
#261 = VERTEX_POINT('',#262);
#262 = CARTESIAN_POINT('',(2.74,-0.2,3.));
#263 = LINE('',#264,#265);
#264 = CARTESIAN_POINT('',(3.205,-0.2,3.));
#265 = VECTOR('',#266,1.);
#266 = DIRECTION('',(1.,0.E+000,0.E+000));
#267 = ORIENTED_EDGE('',*,*,#268,.T.);
#268 = EDGE_CURVE('',#261,#243,#269,.T.);
#269 = LINE('',#270,#271);
#270 = CARTESIAN_POINT('',(2.74,0.725,3.));
#271 = VECTOR('',#272,1.);
#272 = DIRECTION('',(0.E+000,1.,0.E+000));
#273 = PLANE('',#274);
#274 = AXIS2_PLACEMENT_3D('',#275,#276,#277);
#275 = CARTESIAN_POINT('',(3.67,1.25,3.));
#276 = DIRECTION('',(0.E+000,0.E+000,-1.));
#277 = DIRECTION('',(-1.,0.E+000,0.E+000));
#278 = ADVANCED_FACE('',(#279),#304,.F.);
#279 = FACE_BOUND('',#280,.F.);
#280 = EDGE_LOOP('',(#281,#282,#290,#298));
#281 = ORIENTED_EDGE('',*,*,#208,.T.);
#282 = ORIENTED_EDGE('',*,*,#283,.T.);
#283 = EDGE_CURVE('',#211,#284,#286,.T.);
#284 = VERTEX_POINT('',#285);
#285 = CARTESIAN_POINT('',(-0.2,0.2,-2.6));
#286 = LINE('',#287,#288);
#287 = CARTESIAN_POINT('',(-0.2,0.2,3.4));
#288 = VECTOR('',#289,1.);
#289 = DIRECTION('',(-0.E+000,-0.E+000,-1.));
#290 = ORIENTED_EDGE('',*,*,#291,.T.);
#291 = EDGE_CURVE('',#284,#292,#294,.T.);
#292 = VERTEX_POINT('',#293);
#293 = CARTESIAN_POINT('',(0.2,0.2,-2.6));
#294 = LINE('',#295,#296);
#295 = CARTESIAN_POINT('',(-0.2,0.2,-2.6));
#296 = VECTOR('',#297,1.);
#297 = DIRECTION('',(1.,0.E+000,0.E+000));
#298 = ORIENTED_EDGE('',*,*,#299,.F.);
#299 = EDGE_CURVE('',#209,#292,#300,.T.);
#300 = LINE('',#301,#302);
#301 = CARTESIAN_POINT('',(0.2,0.2,3.4));
#302 = VECTOR('',#303,1.);
#303 = DIRECTION('',(-0.E+000,-0.E+000,-1.));
#304 = PLANE('',#305);
#305 = AXIS2_PLACEMENT_3D('',#306,#307,#308);
#306 = CARTESIAN_POINT('',(-0.2,0.2,3.4));
#307 = DIRECTION('',(0.E+000,-1.,0.E+000));
#308 = DIRECTION('',(1.,0.E+000,0.E+000));
#309 = ADVANCED_FACE('',(#310),#328,.F.);
#310 = FACE_BOUND('',#311,.F.);
#311 = EDGE_LOOP('',(#312,#313,#314,#322));
#312 = ORIENTED_EDGE('',*,*,#234,.T.);
#313 = ORIENTED_EDGE('',*,*,#299,.T.);
#314 = ORIENTED_EDGE('',*,*,#315,.T.);
#315 = EDGE_CURVE('',#292,#316,#318,.T.);
#316 = VERTEX_POINT('',#317);
#317 = CARTESIAN_POINT('',(0.2,-0.2,-2.6));
#318 = LINE('',#319,#320);
#319 = CARTESIAN_POINT('',(0.2,0.2,-2.6));
#320 = VECTOR('',#321,1.);
#321 = DIRECTION('',(0.E+000,-1.,0.E+000));
#322 = ORIENTED_EDGE('',*,*,#323,.F.);
#323 = EDGE_CURVE('',#227,#316,#324,.T.);
#324 = LINE('',#325,#326);
#325 = CARTESIAN_POINT('',(0.2,-0.2,3.4));
#326 = VECTOR('',#327,1.);
#327 = DIRECTION('',(-0.E+000,-0.E+000,-1.));
#328 = PLANE('',#329);
#329 = AXIS2_PLACEMENT_3D('',#330,#331,#332);
#330 = CARTESIAN_POINT('',(0.2,0.2,3.4));
#331 = DIRECTION('',(-1.,0.E+000,0.E+000));
#332 = DIRECTION('',(0.E+000,-1.,0.E+000));
#333 = ADVANCED_FACE('',(#334),#352,.F.);
#334 = FACE_BOUND('',#335,.F.);
#335 = EDGE_LOOP('',(#336,#337,#338,#346));
#336 = ORIENTED_EDGE('',*,*,#226,.T.);
#337 = ORIENTED_EDGE('',*,*,#323,.T.);
#338 = ORIENTED_EDGE('',*,*,#339,.T.);
#339 = EDGE_CURVE('',#316,#340,#342,.T.);
#340 = VERTEX_POINT('',#341);
#341 = CARTESIAN_POINT('',(-0.2,-0.2,-2.6));
#342 = LINE('',#343,#344);
#343 = CARTESIAN_POINT('',(0.2,-0.2,-2.6));
#344 = VECTOR('',#345,1.);
#345 = DIRECTION('',(-1.,0.E+000,0.E+000));
#346 = ORIENTED_EDGE('',*,*,#347,.F.);
#347 = EDGE_CURVE('',#219,#340,#348,.T.);
#348 = LINE('',#349,#350);
#349 = CARTESIAN_POINT('',(-0.2,-0.2,3.4));
#350 = VECTOR('',#351,1.);
#351 = DIRECTION('',(-0.E+000,-0.E+000,-1.));
#352 = PLANE('',#353);
#353 = AXIS2_PLACEMENT_3D('',#354,#355,#356);
#354 = CARTESIAN_POINT('',(0.2,-0.2,3.4));
#355 = DIRECTION('',(0.E+000,1.,0.E+000));
#356 = DIRECTION('',(-1.,0.E+000,0.E+000));
#357 = ADVANCED_FACE('',(#358),#369,.F.);
#358 = FACE_BOUND('',#359,.F.);
#359 = EDGE_LOOP('',(#360,#361,#362,#368));
#360 = ORIENTED_EDGE('',*,*,#218,.T.);
#361 = ORIENTED_EDGE('',*,*,#347,.T.);
#362 = ORIENTED_EDGE('',*,*,#363,.T.);
#363 = EDGE_CURVE('',#340,#284,#364,.T.);
#364 = LINE('',#365,#366);
#365 = CARTESIAN_POINT('',(-0.2,-0.2,-2.6));
#366 = VECTOR('',#367,1.);
#367 = DIRECTION('',(0.E+000,1.,0.E+000));
#368 = ORIENTED_EDGE('',*,*,#283,.F.);
#369 = PLANE('',#370);
#370 = AXIS2_PLACEMENT_3D('',#371,#372,#373);
#371 = CARTESIAN_POINT('',(-0.2,-0.2,3.4));
#372 = DIRECTION('',(1.,0.E+000,0.E+000));
#373 = DIRECTION('',(0.E+000,1.,0.E+000));
#374 = ADVANCED_FACE('',(#375),#400,.F.);
#375 = FACE_BOUND('',#376,.F.);
#376 = EDGE_LOOP('',(#377,#378,#386,#394));
#377 = ORIENTED_EDGE('',*,*,#242,.T.);
#378 = ORIENTED_EDGE('',*,*,#379,.T.);
#379 = EDGE_CURVE('',#245,#380,#382,.T.);
#380 = VERTEX_POINT('',#381);
#381 = CARTESIAN_POINT('',(2.34,0.2,-2.6));
#382 = LINE('',#383,#384);
#383 = CARTESIAN_POINT('',(2.34,0.2,3.4));
#384 = VECTOR('',#385,1.);
#385 = DIRECTION('',(-0.E+000,-0.E+000,-1.));
#386 = ORIENTED_EDGE('',*,*,#387,.T.);
#387 = EDGE_CURVE('',#380,#388,#390,.T.);
#388 = VERTEX_POINT('',#389);
#389 = CARTESIAN_POINT('',(2.74,0.2,-2.6));
#390 = LINE('',#391,#392);
#391 = CARTESIAN_POINT('',(2.34,0.2,-2.6));
#392 = VECTOR('',#393,1.);
#393 = DIRECTION('',(1.,0.E+000,0.E+000));
#394 = ORIENTED_EDGE('',*,*,#395,.F.);
#395 = EDGE_CURVE('',#243,#388,#396,.T.);
#396 = LINE('',#397,#398);
#397 = CARTESIAN_POINT('',(2.74,0.2,3.4));
#398 = VECTOR('',#399,1.);
#399 = DIRECTION('',(-0.E+000,-0.E+000,-1.));
#400 = PLANE('',#401);
#401 = AXIS2_PLACEMENT_3D('',#402,#403,#404);
#402 = CARTESIAN_POINT('',(2.34,0.2,3.4));
#403 = DIRECTION('',(0.E+000,-1.,0.E+000));
#404 = DIRECTION('',(1.,0.E+000,0.E+000));
#405 = ADVANCED_FACE('',(#406),#424,.F.);
#406 = FACE_BOUND('',#407,.F.);
#407 = EDGE_LOOP('',(#408,#409,#410,#418));
#408 = ORIENTED_EDGE('',*,*,#268,.T.);
#409 = ORIENTED_EDGE('',*,*,#395,.T.);
#410 = ORIENTED_EDGE('',*,*,#411,.T.);
#411 = EDGE_CURVE('',#388,#412,#414,.T.);
#412 = VERTEX_POINT('',#413);
#413 = CARTESIAN_POINT('',(2.74,-0.2,-2.6));
#414 = LINE('',#415,#416);
#415 = CARTESIAN_POINT('',(2.74,0.2,-2.6));
#416 = VECTOR('',#417,1.);
#417 = DIRECTION('',(0.E+000,-1.,0.E+000));
#418 = ORIENTED_EDGE('',*,*,#419,.F.);
#419 = EDGE_CURVE('',#261,#412,#420,.T.);
#420 = LINE('',#421,#422);
#421 = CARTESIAN_POINT('',(2.74,-0.2,3.4));
#422 = VECTOR('',#423,1.);
#423 = DIRECTION('',(-0.E+000,-0.E+000,-1.));
#424 = PLANE('',#425);
#425 = AXIS2_PLACEMENT_3D('',#426,#427,#428);
#426 = CARTESIAN_POINT('',(2.74,0.2,3.4));
#427 = DIRECTION('',(-1.,0.E+000,0.E+000));
#428 = DIRECTION('',(0.E+000,-1.,0.E+000));
#429 = ADVANCED_FACE('',(#430),#448,.F.);
#430 = FACE_BOUND('',#431,.F.);
#431 = EDGE_LOOP('',(#432,#433,#434,#442));
#432 = ORIENTED_EDGE('',*,*,#260,.T.);
#433 = ORIENTED_EDGE('',*,*,#419,.T.);
#434 = ORIENTED_EDGE('',*,*,#435,.T.);
#435 = EDGE_CURVE('',#412,#436,#438,.T.);
#436 = VERTEX_POINT('',#437);
#437 = CARTESIAN_POINT('',(2.34,-0.2,-2.6));
#438 = LINE('',#439,#440);
#439 = CARTESIAN_POINT('',(2.74,-0.2,-2.6));
#440 = VECTOR('',#441,1.);
#441 = DIRECTION('',(-1.,0.E+000,0.E+000));
#442 = ORIENTED_EDGE('',*,*,#443,.F.);
#443 = EDGE_CURVE('',#253,#436,#444,.T.);
#444 = LINE('',#445,#446);
#445 = CARTESIAN_POINT('',(2.34,-0.2,3.4));
#446 = VECTOR('',#447,1.);
#447 = DIRECTION('',(-0.E+000,-0.E+000,-1.));
#448 = PLANE('',#449);
#449 = AXIS2_PLACEMENT_3D('',#450,#451,#452);
#450 = CARTESIAN_POINT('',(2.74,-0.2,3.4));
#451 = DIRECTION('',(0.E+000,1.,0.E+000));
#452 = DIRECTION('',(-1.,0.E+000,0.E+000));
#453 = ADVANCED_FACE('',(#454),#465,.F.);
#454 = FACE_BOUND('',#455,.F.);
#455 = EDGE_LOOP('',(#456,#457,#458,#464));
#456 = ORIENTED_EDGE('',*,*,#252,.T.);
#457 = ORIENTED_EDGE('',*,*,#443,.T.);
#458 = ORIENTED_EDGE('',*,*,#459,.T.);
#459 = EDGE_CURVE('',#436,#380,#460,.T.);
#460 = LINE('',#461,#462);
#461 = CARTESIAN_POINT('',(2.34,-0.2,-2.6));
#462 = VECTOR('',#463,1.);
#463 = DIRECTION('',(0.E+000,1.,0.E+000));
#464 = ORIENTED_EDGE('',*,*,#379,.F.);
#465 = PLANE('',#466);
#466 = AXIS2_PLACEMENT_3D('',#467,#468,#469);
#467 = CARTESIAN_POINT('',(2.34,-0.2,3.4));
#468 = DIRECTION('',(1.,0.E+000,0.E+000));
#469 = DIRECTION('',(0.E+000,1.,0.E+000));
#470 = ADVANCED_FACE('',(#471),#477,.F.);
#471 = FACE_BOUND('',#472,.T.);
#472 = EDGE_LOOP('',(#473,#474,#475,#476));
#473 = ORIENTED_EDGE('',*,*,#291,.T.);
#474 = ORIENTED_EDGE('',*,*,#315,.T.);
#475 = ORIENTED_EDGE('',*,*,#339,.T.);
#476 = ORIENTED_EDGE('',*,*,#363,.T.);
#477 = PLANE('',#478);
#478 = AXIS2_PLACEMENT_3D('',#479,#480,#481);
#479 = CARTESIAN_POINT('',(-0.2,0.2,-2.6));
#480 = DIRECTION('',(0.E+000,0.E+000,1.));
#481 = DIRECTION('',(1.,0.E+000,0.E+000));
#482 = ADVANCED_FACE('',(#483),#489,.F.);
#483 = FACE_BOUND('',#484,.T.);
#484 = EDGE_LOOP('',(#485,#486,#487,#488));
#485 = ORIENTED_EDGE('',*,*,#387,.T.);
#486 = ORIENTED_EDGE('',*,*,#411,.T.);
#487 = ORIENTED_EDGE('',*,*,#435,.T.);
#488 = ORIENTED_EDGE('',*,*,#459,.T.);
#489 = PLANE('',#490);
#490 = AXIS2_PLACEMENT_3D('',#491,#492,#493);
#491 = CARTESIAN_POINT('',(2.34,0.2,-2.6));
#492 = DIRECTION('',(0.E+000,0.E+000,1.));
#493 = DIRECTION('',(1.,0.E+000,0.E+000));
#494 = ( GEOMETRIC_REPRESENTATION_CONTEXT(3) 
GLOBAL_UNCERTAINTY_ASSIGNED_CONTEXT((#498)) GLOBAL_UNIT_ASSIGNED_CONTEXT
((#495,#496,#497)) REPRESENTATION_CONTEXT('Context #1',
  '3D Context with UNIT and UNCERTAINTY') );
#495 = ( LENGTH_UNIT() NAMED_UNIT(*) SI_UNIT(.MILLI.,.METRE.) );
#496 = ( NAMED_UNIT(*) PLANE_ANGLE_UNIT() SI_UNIT($,.RADIAN.) );
#497 = ( NAMED_UNIT(*) SI_UNIT($,.STERADIAN.) SOLID_ANGLE_UNIT() );
#498 = UNCERTAINTY_MEASURE_WITH_UNIT(LENGTH_MEASURE(1.E-007),#495,
  'distance_accuracy_value','confusion accuracy');
#499 = PRODUCT_TYPE('part',$,(#7));
#500 = MECHANICAL_DESIGN_GEOMETRIC_PRESENTATION_REPRESENTATION('',(#501,
    #509,#516,#523,#530,#537,#544,#551,#558,#566,#573,#580,#587,#594,
    #601,#608,#615,#622),#494);
#501 = STYLED_ITEM('color',(#502),#17);
#502 = PRESENTATION_STYLE_ASSIGNMENT((#503));
#503 = SURFACE_STYLE_USAGE(.BOTH.,#504);
#504 = SURFACE_SIDE_STYLE('',(#505));
#505 = SURFACE_STYLE_FILL_AREA(#506);
#506 = FILL_AREA_STYLE('',(#507));
#507 = FILL_AREA_STYLE_COLOUR('',#508);
#508 = COLOUR_RGB('',0.699999988079,0.10000000149,5.000000074506E-002);
#509 = STYLED_ITEM('color',(#510),#34);
#510 = PRESENTATION_STYLE_ASSIGNMENT((#511));
#511 = SURFACE_STYLE_USAGE(.BOTH.,#512);
#512 = SURFACE_SIDE_STYLE('',(#513));
#513 = SURFACE_STYLE_FILL_AREA(#514);
#514 = FILL_AREA_STYLE('',(#515));
#515 = FILL_AREA_STYLE_COLOUR('',#508);
#516 = STYLED_ITEM('color',(#517),#59);
#517 = PRESENTATION_STYLE_ASSIGNMENT((#518));
#518 = SURFACE_STYLE_USAGE(.BOTH.,#519);
#519 = SURFACE_SIDE_STYLE('',(#520));
#520 = SURFACE_STYLE_FILL_AREA(#521);
#521 = FILL_AREA_STYLE('',(#522));
#522 = FILL_AREA_STYLE_COLOUR('',#508);
#523 = STYLED_ITEM('color',(#524),#102);
#524 = PRESENTATION_STYLE_ASSIGNMENT((#525));
#525 = SURFACE_STYLE_USAGE(.BOTH.,#526);
#526 = SURFACE_SIDE_STYLE('',(#527));
#527 = SURFACE_STYLE_FILL_AREA(#528);
#528 = FILL_AREA_STYLE('',(#529));
#529 = FILL_AREA_STYLE_COLOUR('',#508);
#530 = STYLED_ITEM('color',(#531),#133);
#531 = PRESENTATION_STYLE_ASSIGNMENT((#532));
#532 = SURFACE_STYLE_USAGE(.BOTH.,#533);
#533 = SURFACE_SIDE_STYLE('',(#534));
#534 = SURFACE_STYLE_FILL_AREA(#535);
#535 = FILL_AREA_STYLE('',(#536));
#536 = FILL_AREA_STYLE_COLOUR('',#508);
#537 = STYLED_ITEM('color',(#538),#157);
#538 = PRESENTATION_STYLE_ASSIGNMENT((#539));
#539 = SURFACE_STYLE_USAGE(.BOTH.,#540);
#540 = SURFACE_SIDE_STYLE('',(#541));
#541 = SURFACE_STYLE_FILL_AREA(#542);
#542 = FILL_AREA_STYLE('',(#543));
#543 = FILL_AREA_STYLE_COLOUR('',#508);
#544 = STYLED_ITEM('color',(#545),#181);
#545 = PRESENTATION_STYLE_ASSIGNMENT((#546));
#546 = SURFACE_STYLE_USAGE(.BOTH.,#547);
#547 = SURFACE_SIDE_STYLE('',(#548));
#548 = SURFACE_STYLE_FILL_AREA(#549);
#549 = FILL_AREA_STYLE('',(#550));
#550 = FILL_AREA_STYLE_COLOUR('',#508);
#551 = STYLED_ITEM('color',(#552),#198);
#552 = PRESENTATION_STYLE_ASSIGNMENT((#553));
#553 = SURFACE_STYLE_USAGE(.BOTH.,#554);
#554 = SURFACE_SIDE_STYLE('',(#555));
#555 = SURFACE_STYLE_FILL_AREA(#556);
#556 = FILL_AREA_STYLE('',(#557));
#557 = FILL_AREA_STYLE_COLOUR('',#508);
#558 = STYLED_ITEM('color',(#559),#278);
#559 = PRESENTATION_STYLE_ASSIGNMENT((#560));
#560 = SURFACE_STYLE_USAGE(.BOTH.,#561);
#561 = SURFACE_SIDE_STYLE('',(#562));
#562 = SURFACE_STYLE_FILL_AREA(#563);
#563 = FILL_AREA_STYLE('',(#564));
#564 = FILL_AREA_STYLE_COLOUR('',#565);
#565 = COLOUR_RGB('',0.824000000954,0.819999992847,0.78100001812);
#566 = STYLED_ITEM('color',(#567),#309);
#567 = PRESENTATION_STYLE_ASSIGNMENT((#568));
#568 = SURFACE_STYLE_USAGE(.BOTH.,#569);
#569 = SURFACE_SIDE_STYLE('',(#570));
#570 = SURFACE_STYLE_FILL_AREA(#571);
#571 = FILL_AREA_STYLE('',(#572));
#572 = FILL_AREA_STYLE_COLOUR('',#565);
#573 = STYLED_ITEM('color',(#574),#333);
#574 = PRESENTATION_STYLE_ASSIGNMENT((#575));
#575 = SURFACE_STYLE_USAGE(.BOTH.,#576);
#576 = SURFACE_SIDE_STYLE('',(#577));
#577 = SURFACE_STYLE_FILL_AREA(#578);
#578 = FILL_AREA_STYLE('',(#579));
#579 = FILL_AREA_STYLE_COLOUR('',#565);
#580 = STYLED_ITEM('color',(#581),#357);
#581 = PRESENTATION_STYLE_ASSIGNMENT((#582));
#582 = SURFACE_STYLE_USAGE(.BOTH.,#583);
#583 = SURFACE_SIDE_STYLE('',(#584));
#584 = SURFACE_STYLE_FILL_AREA(#585);
#585 = FILL_AREA_STYLE('',(#586));
#586 = FILL_AREA_STYLE_COLOUR('',#565);
#587 = STYLED_ITEM('color',(#588),#374);
#588 = PRESENTATION_STYLE_ASSIGNMENT((#589));
#589 = SURFACE_STYLE_USAGE(.BOTH.,#590);
#590 = SURFACE_SIDE_STYLE('',(#591));
#591 = SURFACE_STYLE_FILL_AREA(#592);
#592 = FILL_AREA_STYLE('',(#593));
#593 = FILL_AREA_STYLE_COLOUR('',#565);
#594 = STYLED_ITEM('color',(#595),#405);
#595 = PRESENTATION_STYLE_ASSIGNMENT((#596));
#596 = SURFACE_STYLE_USAGE(.BOTH.,#597);
#597 = SURFACE_SIDE_STYLE('',(#598));
#598 = SURFACE_STYLE_FILL_AREA(#599);
#599 = FILL_AREA_STYLE('',(#600));
#600 = FILL_AREA_STYLE_COLOUR('',#565);
#601 = STYLED_ITEM('color',(#602),#429);
#602 = PRESENTATION_STYLE_ASSIGNMENT((#603));
#603 = SURFACE_STYLE_USAGE(.BOTH.,#604);
#604 = SURFACE_SIDE_STYLE('',(#605));
#605 = SURFACE_STYLE_FILL_AREA(#606);
#606 = FILL_AREA_STYLE('',(#607));
#607 = FILL_AREA_STYLE_COLOUR('',#565);
#608 = STYLED_ITEM('color',(#609),#453);
#609 = PRESENTATION_STYLE_ASSIGNMENT((#610));
#610 = SURFACE_STYLE_USAGE(.BOTH.,#611);
#611 = SURFACE_SIDE_STYLE('',(#612));
#612 = SURFACE_STYLE_FILL_AREA(#613);
#613 = FILL_AREA_STYLE('',(#614));
#614 = FILL_AREA_STYLE_COLOUR('',#565);
#615 = STYLED_ITEM('color',(#616),#470);
#616 = PRESENTATION_STYLE_ASSIGNMENT((#617));
#617 = SURFACE_STYLE_USAGE(.BOTH.,#618);
#618 = SURFACE_SIDE_STYLE('',(#619));
#619 = SURFACE_STYLE_FILL_AREA(#620);
#620 = FILL_AREA_STYLE('',(#621));
#621 = FILL_AREA_STYLE_COLOUR('',#565);
#622 = STYLED_ITEM('color',(#623),#482);
#623 = PRESENTATION_STYLE_ASSIGNMENT((#624));
#624 = SURFACE_STYLE_USAGE(.BOTH.,#625);
#625 = SURFACE_SIDE_STYLE('',(#626));
#626 = SURFACE_STYLE_FILL_AREA(#627);
#627 = FILL_AREA_STYLE('',(#628));
#628 = FILL_AREA_STYLE_COLOUR('',#565);
ENDSEC;
END-ISO-10303-21;
