ISO-10303-21;
HEADER;
/* RV_Disc_D21.5mm_W6.1mm_P7.5mm.step 3D STEP model for use in ECAD systems
 * Copyright (C) 2018, kicad StepUp
 * 
 * This work is licensed under the [Creative Commons CC-BY-SA 4.0 License](https://creativecommons.org/licenses/by-sa/4.0/legalcode), 
 * with the following exception:
 * To the extent that the creation of electronic designs that use 'Licensed Material' can be considered to be 'Adapted Material', 
 * then the copyright holder waives article 3 of the license with respect to these designs and any generated files which use data provided 
 * as part of the 'Licensed Material'.
 * You are free to use the library data in your own projects without the obligation to share your project files under this or any other license agreement.
 * However, if you wish to redistribute these libraries, or parts thereof (including in modified form) as a collection then the exception above does not apply. 
 * Please refer to https://github.com/KiCad/kicad-packages3D/blob/master/LICENSE.md for further clarification of the exception.
 * Disclaimer of Warranties and Limitation of Liability.
 * These libraries are provided in the hope that they will be useful, but are provided without warranty of any kind, express or implied.
 * *USE 3D CAD DATA AT YOUR OWN RISK*
 * *DO NOT RELY UPON ANY INFORMATION FOUND HERE WITHOUT INDEPENDENT VERIFICATION.*
 * 
 */

FILE_DESCRIPTION(
/* description */ ('model of RV_Disc_D21.5mm_W6.1mm_P7.5mm'),
/* implementation_level */ '2;1');

FILE_NAME(
/* name */ 'RV_Disc_D21.5mm_W6.1mm_P7.5mm.step',
/* time_stamp */ '2018-11-11T21:04:37',
/* author */ ('kicad StepUp','ksu'),
/* organization */ ('FreeCAD'),
/* preprocessor_version */ 'OCC',
/* originating_system */ 'kicad StepUp',
/* authorisation */ '');

FILE_SCHEMA(('AUTOMOTIVE_DESIGN { 1 0 10303 214 1 1 1 1 }'));
ENDSEC;

DATA;
#1 = APPLICATION_PROTOCOL_DEFINITION('international standard',
'automotive_design',2000,#2);
#2 = APPLICATION_CONTEXT(
'core data for automotive mechanical design processes');
#3 = SHAPE_DEFINITION_REPRESENTATION(#4,#10);
#4 = PRODUCT_DEFINITION_SHAPE('','',#5);
#5 = PRODUCT_DEFINITION('design','',#6,#9);
#6 = PRODUCT_DEFINITION_FORMATION('','',#7);
#7 = PRODUCT('RV_Disc_D215mm_W61mm_P75mm','RV_Disc_D215mm_W61mm_P75mm',
'',(#8));
#8 = PRODUCT_CONTEXT('',#2,'mechanical');
#9 = PRODUCT_DEFINITION_CONTEXT('part definition',#2,'design');
#10 = ADVANCED_BREP_SHAPE_REPRESENTATION('',(#11,#15),#397);
#11 = AXIS2_PLACEMENT_3D('',#12,#13,#14);
#12 = CARTESIAN_POINT('',(0.E+000,0.E+000,0.E+000));
#13 = DIRECTION('',(0.E+000,0.E+000,1.));
#14 = DIRECTION('',(1.,0.E+000,-0.E+000));
#15 = MANIFOLD_SOLID_BREP('',#16);
#16 = CLOSED_SHELL('',(#17,#50,#158,#257,#266,#292,#301,#327,#353,#379,
#388));
#17 = ADVANCED_FACE('',(#18),#45,.T.);
#18 = FACE_BOUND('',#19,.F.);
#19 = EDGE_LOOP('',(#20,#30,#37,#38));
#20 = ORIENTED_EDGE('',*,*,#21,.T.);
#21 = EDGE_CURVE('',#22,#24,#26,.T.);
#22 = VERTEX_POINT('',#23);
#23 = CARTESIAN_POINT('',(14.5,-1.375609756098,10.78));
#24 = VERTEX_POINT('',#25);
#25 = CARTESIAN_POINT('',(14.5,-1.524390243902,10.78));
#26 = LINE('',#27,#28);
#27 = CARTESIAN_POINT('',(14.5,1.6,10.78));
#28 = VECTOR('',#29,1.);
#29 = DIRECTION('',(0.E+000,-1.,0.E+000));
#30 = ORIENTED_EDGE('',*,*,#31,.T.);
#31 = EDGE_CURVE('',#24,#24,#32,.T.);
#32 = CIRCLE('',#33,10.75);
#33 = AXIS2_PLACEMENT_3D('',#34,#35,#36);
#34 = CARTESIAN_POINT('',(3.75,-1.524390243902,10.78));
#35 = DIRECTION('',(1.137711779659E-033,-1.,-3.413135338977E-033));
#36 = DIRECTION('',(1.,1.137711779659E-033,9.447589593991E-034));
#37 = ORIENTED_EDGE('',*,*,#21,.F.);
#38 = ORIENTED_EDGE('',*,*,#39,.F.);
#39 = EDGE_CURVE('',#22,#22,#40,.T.);
#40 = CIRCLE('',#41,10.75);
#41 = AXIS2_PLACEMENT_3D('',#42,#43,#44);
#42 = CARTESIAN_POINT('',(3.75,-1.375609756098,10.78));
#43 = DIRECTION('',(1.137711779659E-033,-1.,-3.413135338977E-033));
#44 = DIRECTION('',(1.,1.137711779659E-033,-9.447589593991E-034));
#45 = CYLINDRICAL_SURFACE('',#46,10.75);
#46 = AXIS2_PLACEMENT_3D('',#47,#48,#49);
#47 = CARTESIAN_POINT('',(3.75,1.6,10.78));
#48 = DIRECTION('',(0.E+000,1.,0.E+000));
#49 = DIRECTION('',(1.,0.E+000,0.E+000));
#50 = ADVANCED_FACE('',(#51,#71),#153,.T.);
#51 = FACE_BOUND('',#52,.F.);
#52 = EDGE_LOOP('',(#53,#54,#63,#70));
#53 = ORIENTED_EDGE('',*,*,#39,.T.);
#54 = ORIENTED_EDGE('',*,*,#55,.T.);
#55 = EDGE_CURVE('',#22,#56,#58,.T.);
#56 = VERTEX_POINT('',#57);
#57 = CARTESIAN_POINT('',(11.524390243902,1.6,10.78));
#58 = CIRCLE('',#59,2.975609756098);
#59 = AXIS2_PLACEMENT_3D('',#60,#61,#62);
#60 = CARTESIAN_POINT('',(11.524390243902,-1.375609756098,10.78));
#61 = DIRECTION('',(9.447589593991E-034,-3.413135338977E-033,1.));
#62 = DIRECTION('',(1.,1.137711779659E-033,-9.447589593991E-034));
#63 = ORIENTED_EDGE('',*,*,#64,.F.);
#64 = EDGE_CURVE('',#56,#56,#65,.T.);
#65 = CIRCLE('',#66,7.774390243902);
#66 = AXIS2_PLACEMENT_3D('',#67,#68,#69);
#67 = CARTESIAN_POINT('',(3.75,1.6,10.78));
#68 = DIRECTION('',(1.137711779659E-033,-1.,-3.413135338977E-033));
#69 = DIRECTION('',(1.,1.137711779659E-033,-9.447589593991E-034));
#70 = ORIENTED_EDGE('',*,*,#55,.F.);
#71 = FACE_BOUND('',#72,.F.);
#72 = EDGE_LOOP('',(#73,#106));
#73 = ORIENTED_EDGE('',*,*,#74,.T.);
#74 = EDGE_CURVE('',#75,#77,#79,.T.);
#75 = VERTEX_POINT('',#76);
#76 = CARTESIAN_POINT('',(0.36,0.E+000,0.93432863045));
#77 = VERTEX_POINT('',#78);
#78 = CARTESIAN_POINT('',(-0.301761405186,-0.19631621008,1.08637854226)
);
#79 = B_SPLINE_CURVE_WITH_KNOTS('',7,(#80,#81,#82,#83,#84,#85,#86,#87,
#88,#89,#90,#91,#92,#93,#94,#95,#96,#97,#98,#99,#100,#101,#102,#103,
#104,#105),.UNSPECIFIED.,.F.,.F.,(8,6,6,6,8),(0.E+000,
9.946025162267E-002,0.297518859904,0.636865897199,1.),
.UNSPECIFIED.);
#80 = CARTESIAN_POINT('',(0.36,-1.665334536938E-016,0.93432863045));
#81 = CARTESIAN_POINT('',(0.36,-1.240109067029E-002,0.927490809524));
#82 = CARTESIAN_POINT('',(0.359501763972,-2.484689425608E-002,
0.920891920474));
#83 = CARTESIAN_POINT('',(0.358498474846,-3.731605411532E-002,
0.914545846263));
#84 = CARTESIAN_POINT('',(0.356984506479,-4.978600265995E-002,
0.908465920594));
#85 = CARTESIAN_POINT('',(0.354955423655,-6.223296135589E-002,
0.902664927909));
#86 = CARTESIAN_POINT('',(0.352407982083,-7.463194072306E-002,
0.897155103389));
#87 = CARTESIAN_POINT('',(0.343231006203,-0.111499536264,0.881579314249)
);
#88 = CARTESIAN_POINT('',(0.335058297908,-0.135750286169,0.872410300413)
);
#89 = CARTESIAN_POINT('',(0.324808944535,-0.159499190115,0.864533648378)
);
#90 = CARTESIAN_POINT('',(0.312496500016,-0.182521391675,0.858027907037)
);
#91 = CARTESIAN_POINT('',(0.298170032212,-0.204581170733,0.852952572158)
);
#92 = CARTESIAN_POINT('',(0.281920721036,-0.225441030455,0.84934395899)
);
#93 = CARTESIAN_POINT('',(0.232986325327,-0.278174358438,0.843559152117)
);
#94 = CARTESIAN_POINT('',(0.196859076935,-0.307274658546,0.844242806471)
);
#95 = CARTESIAN_POINT('',(0.156167093423,-0.33108954175,0.849301872492)
);
#96 = CARTESIAN_POINT('',(0.111909778191,-0.348633575259,0.85857783769)
);
#97 = CARTESIAN_POINT('',(6.544799182592E-002,-0.35917299722,
0.871698302564));
#98 = CARTESIAN_POINT('',(1.841301714515E-002,-0.362478831442,
0.888109261065));
#99 = CARTESIAN_POINT('',(-7.684339209827E-002,-0.355153634949,
0.927407887409));
#100 = CARTESIAN_POINT('',(-0.124695946277,-0.343546258826,
0.950577973922));
#101 = CARTESIAN_POINT('',(-0.169634654461,-0.324688807426,0.97584463265
));
#102 = CARTESIAN_POINT('',(-0.210472794842,-0.299525620925,
1.002535239039));
#103 = CARTESIAN_POINT('',(-0.246424554694,-0.269103909748,
1.030128020663));
#104 = CARTESIAN_POINT('',(-0.276980859102,-0.234406861914,
1.058199650021));
#105 = CARTESIAN_POINT('',(-0.301761405186,-0.19631621008,1.08637854226)
);
#106 = ORIENTED_EDGE('',*,*,#107,.T.);
#107 = EDGE_CURVE('',#77,#75,#108,.T.);
#108 = B_SPLINE_CURVE_WITH_KNOTS('',8,(#109,#110,#111,#112,#113,#114,
#115,#116,#117,#118,#119,#120,#121,#122,#123,#124,#125,#126,#127,
#128,#129,#130,#131,#132,#133,#134,#135,#136,#137,#138,#139,#140,
#141,#142,#143,#144,#145,#146,#147,#148,#149,#150,#151,#152),
.UNSPECIFIED.,.F.,.F.,(9,7,7,7,7,7,9),(0.E+000,5.540860130709E-002,
0.31127247484,0.481868882645,0.720433935395,0.818826441895,1.),
.UNSPECIFIED.);
#109 = CARTESIAN_POINT('',(-0.301761405186,-0.19631621008,1.08637854226)
);
#110 = CARTESIAN_POINT('',(-0.30670530569,-0.188716845959,1.092000437721
));
#111 = CARTESIAN_POINT('',(-0.31142306226,-0.180986592195,1.097625441475
));
#112 = CARTESIAN_POINT('',(-0.31591172202,-0.173132531033,1.103250474382
));
#113 = CARTESIAN_POINT('',(-0.320168506111,-0.165161731676,
1.108872434039));
#114 = CARTESIAN_POINT('',(-0.324190809695,-0.15708125029,1.114488194773
));
#115 = CARTESIAN_POINT('',(-0.327976201954,-0.148898130001,
1.120094607646));
#116 = CARTESIAN_POINT('',(-0.331522426086,-0.140619400896,
1.125688500452));
#117 = CARTESIAN_POINT('',(-0.350088987428,-9.361376251948E-002,
1.157025386806));
#118 = CARTESIAN_POINT('',(-0.360199005869,-5.310394253516E-002,
1.182436919386));
#119 = CARTESIAN_POINT('',(-0.364968114908,-1.13933662925E-002,
1.207200796273));
#120 = CARTESIAN_POINT('',(-0.364251365468,3.083938910474E-002,
1.230978808047));
#121 = CARTESIAN_POINT('',(-0.357953586656,7.288728991391E-002,
1.253372955957));
#122 = CARTESIAN_POINT('',(-0.346040251,0.113999330615,1.273898127229));
#123 = CARTESIAN_POINT('',(-0.328560914282,0.153370465379,1.291969830101
));
#124 = CARTESIAN_POINT('',(-0.290444770446,0.214651504635,1.316900167709
));
#125 = CARTESIAN_POINT('',(-0.272807270073,0.23799831019,1.325484568418)
);
#126 = CARTESIAN_POINT('',(-0.252843273245,0.259912488994,1.332482894961
));
#127 = CARTESIAN_POINT('',(-0.230654816172,0.280106126878,1.337679560704
));
#128 = CARTESIAN_POINT('',(-0.206403022553,0.298279912038,1.34085764899)
);
#129 = CARTESIAN_POINT('',(-0.180320383062,0.314142558782,1.341824000473
));
#130 = CARTESIAN_POINT('',(-0.152714815555,0.327438388324,1.340442752259
));
#131 = CARTESIAN_POINT('',(-8.376195994686E-002,0.352728932384,
1.331411693738));
#132 = CARTESIAN_POINT('',(-4.105175228841E-002,0.362193658871,
1.321447714385));
#133 = CARTESIAN_POINT('',(2.673483863635E-003,0.365557663113,
1.306639516004));
#134 = CARTESIAN_POINT('',(4.585796942805E-002,0.362783742909,
1.287473282759));
#135 = CARTESIAN_POINT('',(8.730496062544E-002,0.354424636799,
1.26491993559));
#136 = CARTESIAN_POINT('',(0.126259003722,0.341180620468,1.239947756178)
);
#137 = CARTESIAN_POINT('',(0.162293528669,0.323715733128,1.213354878765)
);
#138 = CARTESIAN_POINT('',(0.208733423005,0.293752950592,1.17432673627)
);
#139 = CARTESIAN_POINT('',(0.221759899161,0.284364378221,1.162751452234)
);
#140 = CARTESIAN_POINT('',(0.234231710217,0.274371577047,1.151041029655)
);
#141 = CARTESIAN_POINT('',(0.246129941874,0.263808066652,1.139237034956)
);
#142 = CARTESIAN_POINT('',(0.257436945149,0.252705964318,1.127378921112)
);
#143 = CARTESIAN_POINT('',(0.268135947823,0.241096194256,1.115504171512)
);
#144 = CARTESIAN_POINT('',(0.278210665876,0.229008696831,1.103648443814)
);
#145 = CARTESIAN_POINT('',(0.305016527175,0.193389554515,1.070112934909)
);
#146 = CARTESIAN_POINT('',(0.320214015344,0.168789160359,1.048563217359)
);
#147 = CARTESIAN_POINT('',(0.333138856629,0.142853108564,1.027407415572)
);
#148 = CARTESIAN_POINT('',(0.34368736595,0.115762532349,1.006845917061)
);
#149 = CARTESIAN_POINT('',(0.351751454293,8.770880067738E-002,
0.98707253023));
#150 = CARTESIAN_POINT('',(0.357222738143,5.890206795999E-002,
0.968275748931));
#151 = CARTESIAN_POINT('',(0.36,2.957761768764E-002,0.950637393811));
#152 = CARTESIAN_POINT('',(0.36,-1.665334536938E-016,0.93432863045));
#153 = TOROIDAL_SURFACE('',#154,7.774390243902,2.975609756098);
#154 = AXIS2_PLACEMENT_3D('',#155,#156,#157);
#155 = CARTESIAN_POINT('',(3.75,-1.375609756098,10.78));
#156 = DIRECTION('',(-1.137711779659E-033,1.,3.413135338977E-033));
#157 = DIRECTION('',(1.,1.137711779659E-033,-9.447589593991E-034));
#158 = ADVANCED_FACE('',(#159,#179),#252,.T.);
#159 = FACE_BOUND('',#160,.T.);
#160 = EDGE_LOOP('',(#161,#162,#171,#178));
#161 = ORIENTED_EDGE('',*,*,#31,.T.);
#162 = ORIENTED_EDGE('',*,*,#163,.T.);
#163 = EDGE_CURVE('',#24,#164,#166,.T.);
#164 = VERTEX_POINT('',#165);
#165 = CARTESIAN_POINT('',(11.524390243902,-4.5,10.78));
#166 = CIRCLE('',#167,2.975609756098);
#167 = AXIS2_PLACEMENT_3D('',#168,#169,#170);
#168 = CARTESIAN_POINT('',(11.524390243902,-1.524390243902,10.78));
#169 = DIRECTION('',(9.447589593991E-034,3.413135338977E-033,-1.));
#170 = DIRECTION('',(1.,1.137711779659E-033,9.447589593991E-034));
#171 = ORIENTED_EDGE('',*,*,#172,.F.);
#172 = EDGE_CURVE('',#164,#164,#173,.T.);
#173 = CIRCLE('',#174,7.774390243902);
#174 = AXIS2_PLACEMENT_3D('',#175,#176,#177);
#175 = CARTESIAN_POINT('',(3.75,-4.5,10.78));
#176 = DIRECTION('',(1.137711779659E-033,-1.,-3.413135338977E-033));
#177 = DIRECTION('',(1.,1.137711779659E-033,9.447589593991E-034));
#178 = ORIENTED_EDGE('',*,*,#163,.F.);
#179 = FACE_BOUND('',#180,.T.);
#180 = EDGE_LOOP('',(#181,#211));
#181 = ORIENTED_EDGE('',*,*,#182,.T.);
#182 = EDGE_CURVE('',#183,#185,#187,.T.);
#183 = VERTEX_POINT('',#184);
#184 = CARTESIAN_POINT('',(7.86,-2.9,1.212490150662));
#185 = VERTEX_POINT('',#186);
#186 = CARTESIAN_POINT('',(7.233451112863,-2.658025433638,0.847542739685
));
#187 = B_SPLINE_CURVE_WITH_KNOTS('',8,(#188,#189,#190,#191,#192,#193,
#194,#195,#196,#197,#198,#199,#200,#201,#202,#203,#204,#205,#206,
#207,#208,#209,#210),.UNSPECIFIED.,.F.,.F.,(9,7,7,9),(0.E+000,
0.165448905176,0.438204138174,1.),.UNSPECIFIED.);
#188 = CARTESIAN_POINT('',(7.86,-2.9,1.212490150662));
#189 = CARTESIAN_POINT('',(7.86,-2.883049539631,1.202872128889));
#190 = CARTESIAN_POINT('',(7.859087870521,-2.866129356104,1.193053435029
));
#191 = CARTESIAN_POINT('',(7.857269340258,-2.849287530184,1.183061883625
));
#192 = CARTESIAN_POINT('',(7.854551626819,-2.83257158239,1.17292345071)
);
#193 = CARTESIAN_POINT('',(7.850943507536,-2.81602860781,1.162662546274)
);
#194 = CARTESIAN_POINT('',(7.84645539029,-2.799705410908,1.152302286719)
);
#195 = CARTESIAN_POINT('',(7.841099384318,-2.78364864034,1.141864767324)
);
#196 = CARTESIAN_POINT('',(7.82465168698,-2.741950197268,1.11407210473)
);
#197 = CARTESIAN_POINT('',(7.812093665297,-2.716847968629,1.096622054533
));
#198 = CARTESIAN_POINT('',(7.797277631262,-2.692805524493,1.079115962528
));
#199 = CARTESIAN_POINT('',(7.780279762605,-2.670032859184,1.06164513396)
);
#200 = CARTESIAN_POINT('',(7.76119398491,-2.648743039407,1.044300846929)
);
#201 = CARTESIAN_POINT('',(7.740135884365,-2.629151126662,1.027177831348
));
#202 = CARTESIAN_POINT('',(7.717246637905,-2.61147165739,1.010377780829)
);
#203 = CARTESIAN_POINT('',(7.642131818818,-2.563871867365,0.96030603281)
);
#204 = CARTESIAN_POINT('',(7.583647877748,-2.540279241817,0.927862223412
));
#205 = CARTESIAN_POINT('',(7.519321202305,-2.528158213224,0.898448631626
));
#206 = CARTESIAN_POINT('',(7.452488814589,-2.529548238276,0.873778081566
));
#207 = CARTESIAN_POINT('',(7.387126032825,-2.54491326468,0.85536003979)
);
#208 = CARTESIAN_POINT('',(7.327034469007,-2.57320083605,0.844579166068)
);
#209 = CARTESIAN_POINT('',(7.275248208871,-2.611983530995,0.842097044796
));
#210 = CARTESIAN_POINT('',(7.233451112863,-2.658025433638,0.847542739685
));
#211 = ORIENTED_EDGE('',*,*,#212,.T.);
#212 = EDGE_CURVE('',#185,#183,#213,.T.);
#213 = B_SPLINE_CURVE_WITH_KNOTS('',7,(#214,#215,#216,#217,#218,#219,
#220,#221,#222,#223,#224,#225,#226,#227,#228,#229,#230,#231,#232,
#233,#234,#235,#236,#237,#238,#239,#240,#241,#242,#243,#244,#245,
#246,#247,#248,#249,#250,#251),.UNSPECIFIED.,.F.,.F.,(8,6,6,6,6,6,8)
,(0.E+000,0.19204960371,0.365966965503,0.534524999261,0.755227874526,
0.843405059112,1.),.UNSPECIFIED.);
#214 = CARTESIAN_POINT('',(7.233451112863,-2.658025433638,0.847542739685
));
#215 = CARTESIAN_POINT('',(7.2067185911,-2.687472842237,0.851025688766)
);
#216 = CARTESIAN_POINT('',(7.184041219587,-2.720079476692,0.857834160286
));
#217 = CARTESIAN_POINT('',(7.165877367402,-2.755074753426,0.867927525028
));
#218 = CARTESIAN_POINT('',(7.152437273416,-2.791635590886,0.881127726556
));
#219 = CARTESIAN_POINT('',(7.143736049776,-2.828992350105,0.897154674122
));
#220 = CARTESIAN_POINT('',(7.139655839588,-2.866476749867,0.91566212238)
);
#221 = CARTESIAN_POINT('',(7.140344307094,-2.937050126292,0.95493989242)
);
#222 = CARTESIAN_POINT('',(7.144313717077,-2.970224222378,0.975333760535
));
#223 = CARTESIAN_POINT('',(7.151792658846,-3.00262327158,0.997186325106)
);
#224 = CARTESIAN_POINT('',(7.162615000682,-3.033892832794,1.020208050158
));
#225 = CARTESIAN_POINT('',(7.176608386099,-3.063723725754,1.044098966827
));
#226 = CARTESIAN_POINT('',(7.193608637043,-3.091832702512,1.068548486281
));
#227 = CARTESIAN_POINT('',(7.23270230057,-3.143232672959,1.1171415696));
#228 = CARTESIAN_POINT('',(7.254612334232,-3.166632045095,1.141258692814
));
#229 = CARTESIAN_POINT('',(7.279055003985,-3.187888758177,1.165285117573
));
#230 = CARTESIAN_POINT('',(7.305890132344,-3.206728410748,1.188890213344
));
#231 = CARTESIAN_POINT('',(7.334948916466,-3.222837663321,1.211685790917
));
#232 = CARTESIAN_POINT('',(7.366004093997,-3.235869725421,1.233229443728
));
#233 = CARTESIAN_POINT('',(7.44159188548,-3.25802654272,1.279001404036)
);
#234 = CARTESIAN_POINT('',(7.487775620158,-3.26482862269,1.302272690952)
);
#235 = CARTESIAN_POINT('',(7.535762296744,-3.264569386817,1.32114677142)
);
#236 = CARTESIAN_POINT('',(7.583636801179,-3.256683729835,1.334268479685
));
#237 = CARTESIAN_POINT('',(7.629459514555,-3.241443904102,1.341203590472
));
#238 = CARTESIAN_POINT('',(7.671667773029,-3.219780251054,1.342320165708
));
#239 = CARTESIAN_POINT('',(7.724221579063,-3.182249107829,1.336795740798
));
#240 = CARTESIAN_POINT('',(7.738502268836,-3.17069707261,1.334408105183)
);
#241 = CARTESIAN_POINT('',(7.752002766839,-3.158375451671,1.331253183864
));
#242 = CARTESIAN_POINT('',(7.764677129042,-3.14535540722,1.327380210509)
);
#243 = CARTESIAN_POINT('',(7.776490047556,-3.131708742599,1.322841448526
));
#244 = CARTESIAN_POINT('',(7.7874152874,-3.117505670183,1.3176892581));
#245 = CARTESIAN_POINT('',(7.815226696476,-3.076718939373,1.30182188044)
);
#246 = CARTESIAN_POINT('',(7.830156200483,-3.049086297783,1.289894729464
));
#247 = CARTESIAN_POINT('',(7.842124476471,-3.020282135003,1.276469998978
));
#248 = CARTESIAN_POINT('',(7.851087879476,-2.990656178631,1.261806713567
));
#249 = CARTESIAN_POINT('',(7.857040312535,-2.960534624967,1.24613185953)
);
#250 = CARTESIAN_POINT('',(7.86,-2.930220477174,1.229637838755));
#251 = CARTESIAN_POINT('',(7.86,-2.9,1.212490150662));
#252 = TOROIDAL_SURFACE('',#253,7.774390243902,2.975609756098);
#253 = AXIS2_PLACEMENT_3D('',#254,#255,#256);
#254 = CARTESIAN_POINT('',(3.75,-1.524390243902,10.78));
#255 = DIRECTION('',(1.137711779659E-033,-1.,-3.413135338977E-033));
#256 = DIRECTION('',(1.,1.137711779659E-033,9.447589593991E-034));
#257 = ADVANCED_FACE('',(#258),#261,.F.);
#258 = FACE_BOUND('',#259,.F.);
#259 = EDGE_LOOP('',(#260));
#260 = ORIENTED_EDGE('',*,*,#64,.T.);
#261 = PLANE('',#262);
#262 = AXIS2_PLACEMENT_3D('',#263,#264,#265);
#263 = CARTESIAN_POINT('',(3.75,1.6,10.78));
#264 = DIRECTION('',(1.137711779659E-033,-1.,-3.413135338977E-033));
#265 = DIRECTION('',(0.E+000,3.413135338977E-033,-1.));
#266 = ADVANCED_FACE('',(#267),#287,.T.);
#267 = FACE_BOUND('',#268,.T.);
#268 = EDGE_LOOP('',(#269,#270,#278,#285,#286));
#269 = ORIENTED_EDGE('',*,*,#107,.T.);
#270 = ORIENTED_EDGE('',*,*,#271,.T.);
#271 = EDGE_CURVE('',#75,#272,#274,.T.);
#272 = VERTEX_POINT('',#273);
#273 = CARTESIAN_POINT('',(0.36,7.821920683353E-032,-2.856));
#274 = LINE('',#275,#276);
#275 = CARTESIAN_POINT('',(0.36,0.E+000,10.78));
#276 = VECTOR('',#277,1.);
#277 = DIRECTION('',(-0.E+000,-0.E+000,-1.));
#278 = ORIENTED_EDGE('',*,*,#279,.T.);
#279 = EDGE_CURVE('',#272,#272,#280,.T.);
#280 = CIRCLE('',#281,0.36);
#281 = AXIS2_PLACEMENT_3D('',#282,#283,#284);
#282 = CARTESIAN_POINT('',(-1.261168617892E-047,-7.406714929033E-030,
-2.856));
#283 = DIRECTION('',(-8.75811540203E-047,5.431889363439E-031,1.));
#284 = DIRECTION('',(1.,2.079148371074E-029,8.758115402029E-047));
#285 = ORIENTED_EDGE('',*,*,#271,.F.);
#286 = ORIENTED_EDGE('',*,*,#74,.T.);
#287 = CYLINDRICAL_SURFACE('',#288,0.36);
#288 = AXIS2_PLACEMENT_3D('',#289,#290,#291);
#289 = CARTESIAN_POINT('',(0.E+000,0.E+000,10.78));
#290 = DIRECTION('',(0.E+000,0.E+000,1.));
#291 = DIRECTION('',(1.,0.E+000,0.E+000));
#292 = ADVANCED_FACE('',(#293),#296,.T.);
#293 = FACE_BOUND('',#294,.T.);
#294 = EDGE_LOOP('',(#295));
#295 = ORIENTED_EDGE('',*,*,#172,.T.);
#296 = PLANE('',#297);
#297 = AXIS2_PLACEMENT_3D('',#298,#299,#300);
#298 = CARTESIAN_POINT('',(3.75,-4.5,10.78));
#299 = DIRECTION('',(1.137711779659E-033,-1.,-3.413135338977E-033));
#300 = DIRECTION('',(0.E+000,3.413135338977E-033,-1.));
#301 = ADVANCED_FACE('',(#302),#322,.T.);
#302 = FACE_BOUND('',#303,.T.);
#303 = EDGE_LOOP('',(#304,#305,#313,#320,#321));
#304 = ORIENTED_EDGE('',*,*,#182,.F.);
#305 = ORIENTED_EDGE('',*,*,#306,.T.);
#306 = EDGE_CURVE('',#183,#307,#309,.T.);
#307 = VERTEX_POINT('',#308);
#308 = CARTESIAN_POINT('',(7.86,-2.9,-2.856));
#309 = LINE('',#310,#311);
#310 = CARTESIAN_POINT('',(7.86,-2.9,10.78));
#311 = VECTOR('',#312,1.);
#312 = DIRECTION('',(-0.E+000,-0.E+000,-1.));
#313 = ORIENTED_EDGE('',*,*,#314,.T.);
#314 = EDGE_CURVE('',#307,#307,#315,.T.);
#315 = CIRCLE('',#316,0.36);
#316 = AXIS2_PLACEMENT_3D('',#317,#318,#319);
#317 = CARTESIAN_POINT('',(7.5,-2.9,-2.856));
#318 = DIRECTION('',(8.369473338572E-030,4.565167275585E-030,1.));
#319 = DIRECTION('',(1.,1.826066910234E-030,-8.369473338572E-030));
#320 = ORIENTED_EDGE('',*,*,#306,.F.);
#321 = ORIENTED_EDGE('',*,*,#212,.F.);
#322 = CYLINDRICAL_SURFACE('',#323,0.36);
#323 = AXIS2_PLACEMENT_3D('',#324,#325,#326);
#324 = CARTESIAN_POINT('',(7.5,-2.9,10.78));
#325 = DIRECTION('',(0.E+000,0.E+000,1.));
#326 = DIRECTION('',(1.,0.E+000,0.E+000));
#327 = ADVANCED_FACE('',(#328),#348,.T.);
#328 = FACE_BOUND('',#329,.F.);
#329 = EDGE_LOOP('',(#330,#339,#340,#341));
#330 = ORIENTED_EDGE('',*,*,#331,.F.);
#331 = EDGE_CURVE('',#272,#332,#334,.T.);
#332 = VERTEX_POINT('',#333);
#333 = CARTESIAN_POINT('',(0.216,-2.993973654347E-030,-3.));
#334 = CIRCLE('',#335,0.144);
#335 = AXIS2_PLACEMENT_3D('',#336,#337,#338);
#336 = CARTESIAN_POINT('',(0.216,-2.962685971613E-030,-2.856));
#337 = DIRECTION('',(-2.05742081362E-029,1.,-5.431889363439E-031));
#338 = DIRECTION('',(1.,2.05742081362E-029,8.758115402029E-047));
#339 = ORIENTED_EDGE('',*,*,#279,.T.);
#340 = ORIENTED_EDGE('',*,*,#331,.T.);
#341 = ORIENTED_EDGE('',*,*,#342,.F.);
#342 = EDGE_CURVE('',#332,#332,#343,.T.);
#343 = CIRCLE('',#344,0.216);
#344 = AXIS2_PLACEMENT_3D('',#345,#346,#347);
#345 = CARTESIAN_POINT('',(0.E+000,-7.484934135867E-030,-3.));
#346 = DIRECTION('',(-8.75811540203E-047,5.431889363439E-031,1.));
#347 = DIRECTION('',(1.,2.079148371074E-029,8.758115402029E-047));
#348 = TOROIDAL_SURFACE('',#349,0.216,0.144);
#349 = AXIS2_PLACEMENT_3D('',#350,#351,#352);
#350 = CARTESIAN_POINT('',(-1.261168617892E-047,-7.406714929033E-030,
-2.856));
#351 = DIRECTION('',(8.75811540203E-047,-5.431889363439E-031,-1.));
#352 = DIRECTION('',(1.,2.079148371074E-029,8.758115402029E-047));
#353 = ADVANCED_FACE('',(#354),#374,.T.);
#354 = FACE_BOUND('',#355,.F.);
#355 = EDGE_LOOP('',(#356,#365,#366,#367));
#356 = ORIENTED_EDGE('',*,*,#357,.F.);
#357 = EDGE_CURVE('',#307,#358,#360,.T.);
#358 = VERTEX_POINT('',#359);
#359 = CARTESIAN_POINT('',(7.716,-2.9,-3.));
#360 = CIRCLE('',#361,0.144);
#361 = AXIS2_PLACEMENT_3D('',#362,#363,#364);
#362 = CARTESIAN_POINT('',(7.716,-2.9,-2.856));
#363 = DIRECTION('',(-1.826066910234E-030,1.,-4.565167275585E-030));
#364 = DIRECTION('',(1.,1.826066910234E-030,-8.369473338572E-030));
#365 = ORIENTED_EDGE('',*,*,#314,.T.);
#366 = ORIENTED_EDGE('',*,*,#357,.T.);
#367 = ORIENTED_EDGE('',*,*,#368,.F.);
#368 = EDGE_CURVE('',#358,#358,#369,.T.);
#369 = CIRCLE('',#370,0.216);
#370 = AXIS2_PLACEMENT_3D('',#371,#372,#373);
#371 = CARTESIAN_POINT('',(7.5,-2.9,-3.));
#372 = DIRECTION('',(8.369473338572E-030,4.565167275585E-030,1.));
#373 = DIRECTION('',(1.,1.826066910234E-030,-8.369473338572E-030));
#374 = TOROIDAL_SURFACE('',#375,0.216,0.144);
#375 = AXIS2_PLACEMENT_3D('',#376,#377,#378);
#376 = CARTESIAN_POINT('',(7.5,-2.9,-2.856));
#377 = DIRECTION('',(-8.369473338572E-030,-4.565167275585E-030,-1.));
#378 = DIRECTION('',(1.,1.826066910234E-030,-8.369473338572E-030));
#379 = ADVANCED_FACE('',(#380),#383,.F.);
#380 = FACE_BOUND('',#381,.F.);
#381 = EDGE_LOOP('',(#382));
#382 = ORIENTED_EDGE('',*,*,#342,.T.);
#383 = PLANE('',#384);
#384 = AXIS2_PLACEMENT_3D('',#385,#386,#387);
#385 = CARTESIAN_POINT('',(-1.483767504926E-017,1.497958850874E-017,-3.)
);
#386 = DIRECTION('',(-8.75811540203E-047,5.431889363439E-031,1.));
#387 = DIRECTION('',(0.E+000,1.,-5.431889363439E-031));
#388 = ADVANCED_FACE('',(#389),#392,.F.);
#389 = FACE_BOUND('',#390,.F.);
#390 = EDGE_LOOP('',(#391));
#391 = ORIENTED_EDGE('',*,*,#368,.T.);
#392 = PLANE('',#393);
#393 = AXIS2_PLACEMENT_3D('',#394,#395,#396);
#394 = CARTESIAN_POINT('',(7.5,-2.9,-3.));
#395 = DIRECTION('',(8.369473338572E-030,4.565167275585E-030,1.));
#396 = DIRECTION('',(1.,0.E+000,-8.369473338572E-030));
#397 = ( GEOMETRIC_REPRESENTATION_CONTEXT(3)
GLOBAL_UNCERTAINTY_ASSIGNED_CONTEXT((#401)) GLOBAL_UNIT_ASSIGNED_CONTEXT
((#398,#399,#400)) REPRESENTATION_CONTEXT('Context #1',
'3D Context with UNIT and UNCERTAINTY') );
#398 = ( LENGTH_UNIT() NAMED_UNIT(*) SI_UNIT(.MILLI.,.METRE.) );
#399 = ( NAMED_UNIT(*) PLANE_ANGLE_UNIT() SI_UNIT($,.RADIAN.) );
#400 = ( NAMED_UNIT(*) SI_UNIT($,.STERADIAN.) SOLID_ANGLE_UNIT() );
#401 = UNCERTAINTY_MEASURE_WITH_UNIT(LENGTH_MEASURE(1.E-007),#398,
'distance_accuracy_value','confusion accuracy');
#402 = PRODUCT_RELATED_PRODUCT_CATEGORY('part',$,(#7));
#403 = MECHANICAL_DESIGN_GEOMETRIC_PRESENTATION_REPRESENTATION('',(#404,
#412,#419,#426,#433,#441,#448,#455,#462,#469,#476),#397);
#404 = STYLED_ITEM('color',(#405),#17);
#405 = PRESENTATION_STYLE_ASSIGNMENT((#406));
#406 = SURFACE_STYLE_USAGE(.BOTH.,#407);
#407 = SURFACE_SIDE_STYLE('',(#408));
#408 = SURFACE_STYLE_FILL_AREA(#409);
#409 = FILL_AREA_STYLE('',(#410));
#410 = FILL_AREA_STYLE_COLOUR('',#411);
#411 = COLOUR_RGB('',0.136999994516,0.402000010014,0.726999998093);
#412 = STYLED_ITEM('color',(#413),#50);
#413 = PRESENTATION_STYLE_ASSIGNMENT((#414));
#414 = SURFACE_STYLE_USAGE(.BOTH.,#415);
#415 = SURFACE_SIDE_STYLE('',(#416));
#416 = SURFACE_STYLE_FILL_AREA(#417);
#417 = FILL_AREA_STYLE('',(#418));
#418 = FILL_AREA_STYLE_COLOUR('',#411);
#419 = STYLED_ITEM('color',(#420),#158);
#420 = PRESENTATION_STYLE_ASSIGNMENT((#421));
#421 = SURFACE_STYLE_USAGE(.BOTH.,#422);
#422 = SURFACE_SIDE_STYLE('',(#423));
#423 = SURFACE_STYLE_FILL_AREA(#424);
#424 = FILL_AREA_STYLE('',(#425));
#425 = FILL_AREA_STYLE_COLOUR('',#411);
#426 = STYLED_ITEM('color',(#427),#257);
#427 = PRESENTATION_STYLE_ASSIGNMENT((#428));
#428 = SURFACE_STYLE_USAGE(.BOTH.,#429);
#429 = SURFACE_SIDE_STYLE('',(#430));
#430 = SURFACE_STYLE_FILL_AREA(#431);
#431 = FILL_AREA_STYLE('',(#432));
#432 = FILL_AREA_STYLE_COLOUR('',#411);
#433 = STYLED_ITEM('color',(#434),#266);
#434 = PRESENTATION_STYLE_ASSIGNMENT((#435));
#435 = SURFACE_STYLE_USAGE(.BOTH.,#436);
#436 = SURFACE_SIDE_STYLE('',(#437));
#437 = SURFACE_STYLE_FILL_AREA(#438);
#438 = FILL_AREA_STYLE('',(#439));
#439 = FILL_AREA_STYLE_COLOUR('',#440);
#440 = COLOUR_RGB('',0.824000000954,0.819999992847,0.78100001812);
#441 = STYLED_ITEM('color',(#442),#292);
#442 = PRESENTATION_STYLE_ASSIGNMENT((#443));
#443 = SURFACE_STYLE_USAGE(.BOTH.,#444);
#444 = SURFACE_SIDE_STYLE('',(#445));
#445 = SURFACE_STYLE_FILL_AREA(#446);
#446 = FILL_AREA_STYLE('',(#447));
#447 = FILL_AREA_STYLE_COLOUR('',#411);
#448 = STYLED_ITEM('color',(#449),#301);
#449 = PRESENTATION_STYLE_ASSIGNMENT((#450));
#450 = SURFACE_STYLE_USAGE(.BOTH.,#451);
#451 = SURFACE_SIDE_STYLE('',(#452));
#452 = SURFACE_STYLE_FILL_AREA(#453);
#453 = FILL_AREA_STYLE('',(#454));
#454 = FILL_AREA_STYLE_COLOUR('',#440);
#455 = STYLED_ITEM('color',(#456),#327);
#456 = PRESENTATION_STYLE_ASSIGNMENT((#457));
#457 = SURFACE_STYLE_USAGE(.BOTH.,#458);
#458 = SURFACE_SIDE_STYLE('',(#459));
#459 = SURFACE_STYLE_FILL_AREA(#460);
#460 = FILL_AREA_STYLE('',(#461));
#461 = FILL_AREA_STYLE_COLOUR('',#440);
#462 = STYLED_ITEM('color',(#463),#353);
#463 = PRESENTATION_STYLE_ASSIGNMENT((#464));
#464 = SURFACE_STYLE_USAGE(.BOTH.,#465);
#465 = SURFACE_SIDE_STYLE('',(#466));
#466 = SURFACE_STYLE_FILL_AREA(#467);
#467 = FILL_AREA_STYLE('',(#468));
#468 = FILL_AREA_STYLE_COLOUR('',#440);
#469 = STYLED_ITEM('color',(#470),#379);
#470 = PRESENTATION_STYLE_ASSIGNMENT((#471));
#471 = SURFACE_STYLE_USAGE(.BOTH.,#472);
#472 = SURFACE_SIDE_STYLE('',(#473));
#473 = SURFACE_STYLE_FILL_AREA(#474);
#474 = FILL_AREA_STYLE('',(#475));
#475 = FILL_AREA_STYLE_COLOUR('',#440);
#476 = STYLED_ITEM('color',(#477),#388);
#477 = PRESENTATION_STYLE_ASSIGNMENT((#478));
#478 = SURFACE_STYLE_USAGE(.BOTH.,#479);
#479 = SURFACE_SIDE_STYLE('',(#480));
#480 = SURFACE_STYLE_FILL_AREA(#481);
#481 = FILL_AREA_STYLE('',(#482));
#482 = FILL_AREA_STYLE_COLOUR('',#440);
ENDSEC;
END-ISO-10303-21;
