ISO-10303-21;
HEADER;
/* RV_Disc_D12mm_W5.4mm_P7.5mm.step 3D STEP model for use in ECAD systems
 * Copyright (C) 2018, kicad StepUp
 * 
 * This work is licensed under the [Creative Commons CC-BY-SA 4.0 License](https://creativecommons.org/licenses/by-sa/4.0/legalcode), 
 * with the following exception:
 * To the extent that the creation of electronic designs that use 'Licensed Material' can be considered to be 'Adapted Material', 
 * then the copyright holder waives article 3 of the license with respect to these designs and any generated files which use data provided 
 * as part of the 'Licensed Material'.
 * You are free to use the library data in your own projects without the obligation to share your project files under this or any other license agreement.
 * However, if you wish to redistribute these libraries, or parts thereof (including in modified form) as a collection then the exception above does not apply. 
 * Please refer to https://github.com/KiCad/kicad-packages3D/blob/master/LICENSE.md for further clarification of the exception.
 * Disclaimer of Warranties and Limitation of Liability.
 * These libraries are provided in the hope that they will be useful, but are provided without warranty of any kind, express or implied.
 * *USE 3D CAD DATA AT YOUR OWN RISK*
 * *DO NOT RELY UPON ANY INFORMATION FOUND HERE WITHOUT INDEPENDENT VERIFICATION.*
 * 
 */

FILE_DESCRIPTION(
/* description */ ('model of RV_Disc_D12mm_W5.4mm_P7.5mm'),
/* implementation_level */ '2;1');

FILE_NAME(
/* name */ 'RV_Disc_D12mm_W5.4mm_P7.5mm.step',
/* time_stamp */ '2018-11-11T20:36:17',
/* author */ ('kicad StepUp','ksu'),
/* organization */ ('FreeCAD'),
/* preprocessor_version */ 'OCC',
/* originating_system */ 'kicad StepUp',
/* authorisation */ '');

FILE_SCHEMA(('AUTOMOTIVE_DESIGN { 1 0 10303 214 1 1 1 1 }'));
ENDSEC;

DATA;
#1 = APPLICATION_PROTOCOL_DEFINITION('international standard',
'automotive_design',2000,#2);
#2 = APPLICATION_CONTEXT(
'core data for automotive mechanical design processes');
#3 = SHAPE_DEFINITION_REPRESENTATION(#4,#10);
#4 = PRODUCT_DEFINITION_SHAPE('','',#5);
#5 = PRODUCT_DEFINITION('design','',#6,#9);
#6 = PRODUCT_DEFINITION_FORMATION('','',#7);
#7 = PRODUCT('RV_Disc_D12mm_W54mm_P75mm','RV_Disc_D12mm_W54mm_P75mm','',
(#8));
#8 = PRODUCT_CONTEXT('',#2,'mechanical');
#9 = PRODUCT_DEFINITION_CONTEXT('part definition',#2,'design');
#10 = ADVANCED_BREP_SHAPE_REPRESENTATION('',(#11,#15),#395);
#11 = AXIS2_PLACEMENT_3D('',#12,#13,#14);
#12 = CARTESIAN_POINT('',(0.E+000,0.E+000,0.E+000));
#13 = DIRECTION('',(0.E+000,0.E+000,1.));
#14 = DIRECTION('',(1.,0.E+000,-0.E+000));
#15 = MANIFOLD_SOLID_BREP('',#16);
#16 = CLOSED_SHELL('',(#17,#50,#149,#255,#264,#290,#299,#325,#351,#377,
#386));
#17 = ADVANCED_FACE('',(#18),#45,.T.);
#18 = FACE_BOUND('',#19,.F.);
#19 = EDGE_LOOP('',(#20,#30,#37,#38));
#20 = ORIENTED_EDGE('',*,*,#21,.T.);
#21 = EDGE_CURVE('',#22,#24,#26,.T.);
#22 = VERTEX_POINT('',#23);
#23 = CARTESIAN_POINT('',(9.75,-1.134146341463,6.03));
#24 = VERTEX_POINT('',#25);
#25 = CARTESIAN_POINT('',(9.75,-1.265853658537,6.03));
#26 = LINE('',#27,#28);
#27 = CARTESIAN_POINT('',(9.75,1.5,6.03));
#28 = VECTOR('',#29,1.);
#29 = DIRECTION('',(0.E+000,-1.,0.E+000));
#30 = ORIENTED_EDGE('',*,*,#31,.T.);
#31 = EDGE_CURVE('',#24,#24,#32,.T.);
#32 = CIRCLE('',#33,6.);
#33 = AXIS2_PLACEMENT_3D('',#34,#35,#36);
#34 = CARTESIAN_POINT('',(3.75,-1.265853658537,6.03));
#35 = DIRECTION('',(0.E+000,-1.,0.E+000));
#36 = DIRECTION('',(1.,0.E+000,0.E+000));
#37 = ORIENTED_EDGE('',*,*,#21,.F.);
#38 = ORIENTED_EDGE('',*,*,#39,.F.);
#39 = EDGE_CURVE('',#22,#22,#40,.T.);
#40 = CIRCLE('',#41,6.);
#41 = AXIS2_PLACEMENT_3D('',#42,#43,#44);
#42 = CARTESIAN_POINT('',(3.75,-1.134146341463,6.03));
#43 = DIRECTION('',(0.E+000,-1.,0.E+000));
#44 = DIRECTION('',(1.,0.E+000,0.E+000));
#45 = CYLINDRICAL_SURFACE('',#46,6.);
#46 = AXIS2_PLACEMENT_3D('',#47,#48,#49);
#47 = CARTESIAN_POINT('',(3.75,1.5,6.03));
#48 = DIRECTION('',(0.E+000,1.,0.E+000));
#49 = DIRECTION('',(1.,0.E+000,0.E+000));
#50 = ADVANCED_FACE('',(#51,#71),#144,.T.);
#51 = FACE_BOUND('',#52,.F.);
#52 = EDGE_LOOP('',(#53,#54,#63,#70));
#53 = ORIENTED_EDGE('',*,*,#39,.T.);
#54 = ORIENTED_EDGE('',*,*,#55,.T.);
#55 = EDGE_CURVE('',#22,#56,#58,.T.);
#56 = VERTEX_POINT('',#57);
#57 = CARTESIAN_POINT('',(7.115853658537,1.5,6.03));
#58 = CIRCLE('',#59,2.634146341463);
#59 = AXIS2_PLACEMENT_3D('',#60,#61,#62);
#60 = CARTESIAN_POINT('',(7.115853658537,-1.134146341463,6.03));
#61 = DIRECTION('',(0.E+000,0.E+000,1.));
#62 = DIRECTION('',(1.,0.E+000,0.E+000));
#63 = ORIENTED_EDGE('',*,*,#64,.F.);
#64 = EDGE_CURVE('',#56,#56,#65,.T.);
#65 = CIRCLE('',#66,3.365853658537);
#66 = AXIS2_PLACEMENT_3D('',#67,#68,#69);
#67 = CARTESIAN_POINT('',(3.75,1.5,6.03));
#68 = DIRECTION('',(0.E+000,-1.,0.E+000));
#69 = DIRECTION('',(1.,0.E+000,0.E+000));
#70 = ORIENTED_EDGE('',*,*,#55,.F.);
#71 = FACE_BOUND('',#72,.F.);
#72 = EDGE_LOOP('',(#73,#103));
#73 = ORIENTED_EDGE('',*,*,#74,.T.);
#74 = EDGE_CURVE('',#75,#77,#79,.T.);
#75 = VERTEX_POINT('',#76);
#76 = CARTESIAN_POINT('',(0.36,0.E+000,1.393854095364));
#77 = VERTEX_POINT('',#78);
#78 = CARTESIAN_POINT('',(-0.290311451305,-0.212883210332,1.821994045363
));
#79 = B_SPLINE_CURVE_WITH_KNOTS('',8,(#80,#81,#82,#83,#84,#85,#86,#87,
#88,#89,#90,#91,#92,#93,#94,#95,#96,#97,#98,#99,#100,#101,#102),
.UNSPECIFIED.,.F.,.F.,(9,7,7,9),(0.E+000,0.198979868535,0.385365384152
,1.),.UNSPECIFIED.);
#80 = CARTESIAN_POINT('',(0.36,-5.551115123126E-017,1.393854095364));
#81 = CARTESIAN_POINT('',(0.36,-2.223188763579E-002,1.380715925056));
#82 = CARTESIAN_POINT('',(0.358430879452,-4.473802848283E-002,
1.368939181806));
#83 = CARTESIAN_POINT('',(0.355225128658,-6.738671521834E-002,
1.358646208995));
#84 = CARTESIAN_POINT('',(0.350327180223,-9.002448921375E-002,
1.349955649887));
#85 = CARTESIAN_POINT('',(0.343702690001,-0.112476138144,1.342974115871)
);
#86 = CARTESIAN_POINT('',(0.335347313319,-0.134548607839,1.337787274597)
);
#87 = CARTESIAN_POINT('',(0.325294976491,-0.156038828381,1.334450357988)
);
#88 = CARTESIAN_POINT('',(0.302694916597,-0.196141462715,1.331599008922)
);
#89 = CARTESIAN_POINT('',(0.290341687316,-0.214856500258,1.331855546267)
);
#90 = CARTESIAN_POINT('',(0.276630932692,-0.232722115627,1.333762141264)
);
#91 = CARTESIAN_POINT('',(0.261655223226,-0.249586610432,1.337300019467)
);
#92 = CARTESIAN_POINT('',(0.245529092772,-0.265319153952,1.342422322069)
);
#93 = CARTESIAN_POINT('',(0.228383474396,-0.279812374933,1.34905921102)
);
#94 = CARTESIAN_POINT('',(0.210360202348,-0.292983430581,1.357122950125)
);
#95 = CARTESIAN_POINT('',(0.129763655515,-0.343653275683,1.397477956236)
);
#96 = CARTESIAN_POINT('',(6.020959940615E-002,-0.367370912652,
1.44274998692));
#97 = CARTESIAN_POINT('',(-1.20604519947E-002,-0.374265178614,
1.498724634911));
#98 = CARTESIAN_POINT('',(-8.221493248668E-002,-0.365293765889,
1.561089799183));
#99 = CARTESIAN_POINT('',(-0.146970213942,-0.342533531682,1.626736412967
));
#100 = CARTESIAN_POINT('',(-0.204122519349,-0.308321617668,
1.693179766952));
#101 = CARTESIAN_POINT('',(-0.252372279818,-0.264621324946,
1.758790573502));
#102 = CARTESIAN_POINT('',(-0.290311451305,-0.212883210332,
1.821994045363));
#103 = ORIENTED_EDGE('',*,*,#104,.T.);
#104 = EDGE_CURVE('',#77,#75,#105,.T.);
#105 = B_SPLINE_CURVE_WITH_KNOTS('',7,(#106,#107,#108,#109,#110,#111,
#112,#113,#114,#115,#116,#117,#118,#119,#120,#121,#122,#123,#124,
#125,#126,#127,#128,#129,#130,#131,#132,#133,#134,#135,#136,#137,
#138,#139,#140,#141,#142,#143),.UNSPECIFIED.,.F.,.F.,(8,6,6,6,6,6,8)
,(0.E+000,0.207473867563,0.27173377396,0.378019029825,0.54245210061,
0.733331742452,1.),.UNSPECIFIED.);
#106 = CARTESIAN_POINT('',(-0.290311451305,-0.212883210332,
1.821994045363));
#107 = CARTESIAN_POINT('',(-0.313120310478,-0.181778488646,
1.859991688233));
#108 = CARTESIAN_POINT('',(-0.332064367822,-0.147791114349,
1.897000181974));
#109 = CARTESIAN_POINT('',(-0.346816346631,-0.111336502486,
1.932600845166));
#110 = CARTESIAN_POINT('',(-0.357018535858,-7.28575812248E-002,
1.966303388513));
#111 = CARTESIAN_POINT('',(-0.362293486363,-3.287403264778E-002,
1.997500588385));
#112 = CARTESIAN_POINT('',(-0.362275357397,7.977313796167E-003,
2.025439867072));
#113 = CARTESIAN_POINT('',(-0.35492328767,6.158911342535E-002,
2.056574542646));
#114 = CARTESIAN_POINT('',(-0.35264837598,7.427175728438E-002,
2.063535554098));
#115 = CARTESIAN_POINT('',(-0.349828967412,8.693397020539E-002,
2.070067380595));
#116 = CARTESIAN_POINT('',(-0.346458017838,9.954814864368E-002,
2.076140649624));
#117 = CARTESIAN_POINT('',(-0.342530419991,0.112084190463,2.081724852277
));
#118 = CARTESIAN_POINT('',(-0.338043773594,0.124509703356,2.086789145831
));
#119 = CARTESIAN_POINT('',(-0.324655406551,0.157102056366,2.098769285456
));
#120 = CARTESIAN_POINT('',(-0.31478347337,0.177021478319,2.104731589459)
);
#121 = CARTESIAN_POINT('',(-0.303390402777,0.196384939551,2.109049370814
));
#122 = CARTESIAN_POINT('',(-0.290512146046,0.215015622343,2.111589674325
));
#123 = CARTESIAN_POINT('',(-0.276223749824,0.232731726424,2.11224437487)
);
#124 = CARTESIAN_POINT('',(-0.260644944297,0.249359400306,2.110949618279
));
#125 = CARTESIAN_POINT('',(-0.21809878873,0.288561459303,2.102691938423)
);
#126 = CARTESIAN_POINT('',(-0.189544422719,0.309430221908,2.093011690752
));
#127 = CARTESIAN_POINT('',(-0.15889784826,0.326784402167,2.078664115897)
);
#128 = CARTESIAN_POINT('',(-0.126903146929,0.340343629702,2.060007332948
));
#129 = CARTESIAN_POINT('',(-9.426127329066E-002,0.350093440297,
2.037656875644));
#130 = CARTESIAN_POINT('',(-6.156323562759E-002,0.35617255888,
2.012304703294));
#131 = CARTESIAN_POINT('',(8.18800810491E-003,0.361865196737,
1.952500621445));
#132 = CARTESIAN_POINT('',(4.510344591968E-002,0.360281682941,
1.917234007774));
#133 = CARTESIAN_POINT('',(8.088422945729E-002,0.354421523354,
1.879747501878));
#134 = CARTESIAN_POINT('',(0.115124771118,0.344673934454,1.840864746255)
);
#135 = CARTESIAN_POINT('',(0.147539663971,0.331388432224,1.801261548249)
);
#136 = CARTESIAN_POINT('',(0.177909536148,0.31483919054,1.761467998429)
);
#137 = CARTESIAN_POINT('',(0.245305139024,0.267805346929,1.666681886423)
);
#138 = CARTESIAN_POINT('',(0.280089570674,0.234463332751,1.612062579414)
);
#139 = CARTESIAN_POINT('',(0.309843997348,0.195763230511,1.559266078294)
);
#140 = CARTESIAN_POINT('',(0.333792587433,0.152139915001,1.509513331095)
);
#141 = CARTESIAN_POINT('',(0.350918268707,0.104196106903,1.464247500721)
);
#142 = CARTESIAN_POINT('',(0.36,5.293667381829E-002,1.425137585436));
#143 = CARTESIAN_POINT('',(0.36,-5.551115123126E-017,1.393854095364));
#144 = TOROIDAL_SURFACE('',#145,3.365853658537,2.634146341463);
#145 = AXIS2_PLACEMENT_3D('',#146,#147,#148);
#146 = CARTESIAN_POINT('',(3.75,-1.134146341463,6.03));
#147 = DIRECTION('',(0.E+000,1.,0.E+000));
#148 = DIRECTION('',(1.,0.E+000,0.E+000));
#149 = ADVANCED_FACE('',(#150,#170),#250,.T.);
#150 = FACE_BOUND('',#151,.T.);
#151 = EDGE_LOOP('',(#152,#153,#162,#169));
#152 = ORIENTED_EDGE('',*,*,#31,.T.);
#153 = ORIENTED_EDGE('',*,*,#154,.T.);
#154 = EDGE_CURVE('',#24,#155,#157,.T.);
#155 = VERTEX_POINT('',#156);
#156 = CARTESIAN_POINT('',(7.115853658537,-3.9,6.03));
#157 = CIRCLE('',#158,2.634146341463);
#158 = AXIS2_PLACEMENT_3D('',#159,#160,#161);
#159 = CARTESIAN_POINT('',(7.115853658537,-1.265853658537,6.03));
#160 = DIRECTION('',(0.E+000,0.E+000,-1.));
#161 = DIRECTION('',(1.,0.E+000,0.E+000));
#162 = ORIENTED_EDGE('',*,*,#163,.F.);
#163 = EDGE_CURVE('',#155,#155,#164,.T.);
#164 = CIRCLE('',#165,3.365853658537);
#165 = AXIS2_PLACEMENT_3D('',#166,#167,#168);
#166 = CARTESIAN_POINT('',(3.75,-3.9,6.03));
#167 = DIRECTION('',(0.E+000,-1.,0.E+000));
#168 = DIRECTION('',(1.,0.E+000,0.E+000));
#169 = ORIENTED_EDGE('',*,*,#154,.F.);
#170 = FACE_BOUND('',#171,.T.);
#171 = EDGE_LOOP('',(#172,#191));
#172 = ORIENTED_EDGE('',*,*,#173,.T.);
#173 = EDGE_CURVE('',#174,#176,#178,.T.);
#174 = VERTEX_POINT('',#175);
#175 = CARTESIAN_POINT('',(7.86,-2.4,2.018286045955));
#176 = VERTEX_POINT('',#177);
#177 = CARTESIAN_POINT('',(7.474167329479,-2.040928039059,1.47534857863)
);
#178 = B_SPLINE_CURVE_WITH_KNOTS('',6,(#179,#180,#181,#182,#183,#184,
#185,#186,#187,#188,#189,#190),.UNSPECIFIED.,.F.,.F.,(7,5,7),(
0.E+000,0.524152388164,1.),.UNSPECIFIED.);
#179 = CARTESIAN_POINT('',(7.86,-2.4,2.018286045955));
#180 = CARTESIAN_POINT('',(7.86,-2.346945476172,1.982052727949));
#181 = CARTESIAN_POINT('',(7.850617476904,-2.295199063936,1.939798151437
));
#182 = CARTESIAN_POINT('',(7.832719132595,-2.246375132058,1.893475508318
));
#183 = CARTESIAN_POINT('',(7.807210958799,-2.201692589835,1.844464935181
));
#184 = CARTESIAN_POINT('',(7.774963025078,-2.162182768765,1.793846867384
));
#185 = CARTESIAN_POINT('',(7.702242123235,-2.098653987735,1.696140254304
));
#186 = CARTESIAN_POINT('',(7.66284858112,-2.073584787608,1.649220349625)
);
#187 = CARTESIAN_POINT('',(7.619337627027,-2.054425013902,1.60262891633)
);
#188 = CARTESIAN_POINT('',(7.57251180296,-2.042054382846,1.557261082772)
);
#189 = CARTESIAN_POINT('',(7.523578160686,-2.037373281625,1.514336281876
));
#190 = CARTESIAN_POINT('',(7.474167329479,-2.040928039059,1.47534857863)
);
#191 = ORIENTED_EDGE('',*,*,#192,.T.);
#192 = EDGE_CURVE('',#176,#174,#193,.T.);
#193 = B_SPLINE_CURVE_WITH_KNOTS('',7,(#194,#195,#196,#197,#198,#199,
#200,#201,#202,#203,#204,#205,#206,#207,#208,#209,#210,#211,#212,
#213,#214,#215,#216,#217,#218,#219,#220,#221,#222,#223,#224,#225,
#226,#227,#228,#229,#230,#231,#232,#233,#234,#235,#236,#237,#238,
#239,#240,#241,#242,#243,#244,#245,#246,#247,#248,#249),
.UNSPECIFIED.,.F.,.F.,(8,6,6,6,6,6,6,6,6,8),(0.E+000,0.123533855305,
0.204005200325,0.305353258243,0.360212029928,0.533413854134,
0.742816294443,0.828649915643,0.930536949005,1.),.UNSPECIFIED.);
#194 = CARTESIAN_POINT('',(7.474167329479,-2.040928039059,1.47534857863)
);
#195 = CARTESIAN_POINT('',(7.444539123136,-2.043059577514,1.45197039032)
);
#196 = CARTESIAN_POINT('',(7.414761679188,-2.048068865131,1.429982272691
));
#197 = CARTESIAN_POINT('',(7.385178436885,-2.056054256157,1.409692514564
));
#198 = CARTESIAN_POINT('',(7.35617727729,-2.067063675468,1.391429751954)
);
#199 = CARTESIAN_POINT('',(7.328184236773,-2.081067741316,1.375532580469
));
#200 = CARTESIAN_POINT('',(7.301638998832,-2.097936985843,1.362320276062
));
#201 = CARTESIAN_POINT('',(7.26087088207,-2.13011669541,1.345350948764)
);
#202 = CARTESIAN_POINT('',(7.245577177733,-2.143921358213,1.339902954187
));
#203 = CARTESIAN_POINT('',(7.231188988283,-2.158765983713,1.335772278722
));
#204 = CARTESIAN_POINT('',(7.217814083426,-2.174558224159,1.333014732617
));
#205 = CARTESIAN_POINT('',(7.205545668803,-2.191187302551,1.331666556564
));
#206 = CARTESIAN_POINT('',(7.194457989276,-2.208526753098,1.331740680184
));
#207 = CARTESIAN_POINT('',(7.172188914395,-2.248994074656,1.335089834589
));
#208 = CARTESIAN_POINT('',(7.161725756157,-2.272463532917,1.339190869717
));
#209 = CARTESIAN_POINT('',(7.153315982872,-2.296570267825,1.345500901149
));
#210 = CARTESIAN_POINT('',(7.1469893685,-2.321037594368,1.353930227448)
);
#211 = CARTESIAN_POINT('',(7.142717892434,-2.345611160727,1.364345252218
));
#212 = CARTESIAN_POINT('',(7.140433289288,-2.370071189619,1.37658749034)
);
#213 = CARTESIAN_POINT('',(7.13983665925,-2.407311891648,1.398016778304)
);
#214 = CARTESIAN_POINT('',(7.14018306397,-2.420304481125,1.406030028425)
);
#215 = CARTESIAN_POINT('',(7.141071322866,-2.433182723263,1.414505080448
));
#216 = CARTESIAN_POINT('',(7.142485806326,-2.445921396408,1.423415890753
));
#217 = CARTESIAN_POINT('',(7.144409949061,-2.458498136393,1.432736480555
));
#218 = CARTESIAN_POINT('',(7.146826861113,-2.47089325905,1.44244141571)
);
#219 = CARTESIAN_POINT('',(7.158854054061,-2.521596196082,1.484283410399
));
#220 = CARTESIAN_POINT('',(7.17272886812,-2.558096439944,1.519628050437)
);
#221 = CARTESIAN_POINT('',(7.190817797691,-2.592090646269,1.557793060225
));
#222 = CARTESIAN_POINT('',(7.212629663602,-2.623232716143,1.598084816532
));
#223 = CARTESIAN_POINT('',(7.237744522247,-2.651265577095,1.639873886952
));
#224 = CARTESIAN_POINT('',(7.265822708169,-2.675955301088,1.682573947269
));
#225 = CARTESIAN_POINT('',(7.333781477734,-2.722495973428,1.777594441393
));
#226 = CARTESIAN_POINT('',(7.374794552013,-2.74260101403,1.829909800033)
);
#227 = CARTESIAN_POINT('',(7.419217391847,-2.756982162025,1.881640936432
));
#228 = CARTESIAN_POINT('',(7.46658048836,-2.764903393482,1.931523887599)
);
#229 = CARTESIAN_POINT('',(7.516091138357,-2.765439752401,1.977737225822
));
#230 = CARTESIAN_POINT('',(7.56633697653,-2.75758752373,2.017870948523)
);
#231 = CARTESIAN_POINT('',(7.635345522715,-2.734260523357,2.062906975305
));
#232 = CARTESIAN_POINT('',(7.655166540164,-2.72602609184,2.074608736534)
);
#233 = CARTESIAN_POINT('',(7.674584619498,-2.716332098508,2.084765061186
));
#234 = CARTESIAN_POINT('',(7.693428573253,-2.705199847641,2.093243387806
));
#235 = CARTESIAN_POINT('',(7.711523605271,-2.692686296399,2.099946400087
));
#236 = CARTESIAN_POINT('',(7.728701481242,-2.678888188538,2.104822816275
));
#237 = CARTESIAN_POINT('',(7.763941074446,-2.646202477243,2.111498228458
));
#238 = CARTESIAN_POINT('',(7.781576161927,-2.626837395639,2.112552851444
));
#239 = CARTESIAN_POINT('',(7.797469298012,-2.606074805245,2.111037727914
));
#240 = CARTESIAN_POINT('',(7.811452326857,-2.58418493806,2.107068055427)
);
#241 = CARTESIAN_POINT('',(7.823434657762,-2.561444988466,2.100828276181
));
#242 = CARTESIAN_POINT('',(7.833389511852,-2.538114871704,2.092533290111
));
#243 = CARTESIAN_POINT('',(7.846745458202,-2.498273888262,2.075488219395
));
#244 = CARTESIAN_POINT('',(7.851224981572,-2.481952739603,2.067721771723
));
#245 = CARTESIAN_POINT('',(7.854775181274,-2.465530500871,2.059165042596
));
#246 = CARTESIAN_POINT('',(7.85740874303,-2.449070250945,2.049883195829)
);
#247 = CARTESIAN_POINT('',(7.859143438182,-2.432628970409,2.039938562707
));
#248 = CARTESIAN_POINT('',(7.86,-2.416257416823,2.029388966332));
#249 = CARTESIAN_POINT('',(7.86,-2.4,2.018286045955));
#250 = TOROIDAL_SURFACE('',#251,3.365853658537,2.634146341463);
#251 = AXIS2_PLACEMENT_3D('',#252,#253,#254);
#252 = CARTESIAN_POINT('',(3.75,-1.265853658537,6.03));
#253 = DIRECTION('',(0.E+000,-1.,0.E+000));
#254 = DIRECTION('',(1.,0.E+000,0.E+000));
#255 = ADVANCED_FACE('',(#256),#259,.F.);
#256 = FACE_BOUND('',#257,.F.);
#257 = EDGE_LOOP('',(#258));
#258 = ORIENTED_EDGE('',*,*,#64,.T.);
#259 = PLANE('',#260);
#260 = AXIS2_PLACEMENT_3D('',#261,#262,#263);
#261 = CARTESIAN_POINT('',(3.75,1.5,6.03));
#262 = DIRECTION('',(-0.E+000,-1.,-0.E+000));
#263 = DIRECTION('',(0.E+000,0.E+000,-1.));
#264 = ADVANCED_FACE('',(#265),#285,.T.);
#265 = FACE_BOUND('',#266,.T.);
#266 = EDGE_LOOP('',(#267,#268,#276,#283,#284));
#267 = ORIENTED_EDGE('',*,*,#104,.T.);
#268 = ORIENTED_EDGE('',*,*,#269,.T.);
#269 = EDGE_CURVE('',#75,#270,#272,.T.);
#270 = VERTEX_POINT('',#271);
#271 = CARTESIAN_POINT('',(0.36,0.E+000,-2.856));
#272 = LINE('',#273,#274);
#273 = CARTESIAN_POINT('',(0.36,0.E+000,6.03));
#274 = VECTOR('',#275,1.);
#275 = DIRECTION('',(-0.E+000,-0.E+000,-1.));
#276 = ORIENTED_EDGE('',*,*,#277,.T.);
#277 = EDGE_CURVE('',#270,#270,#278,.T.);
#278 = CIRCLE('',#279,0.36);
#279 = AXIS2_PLACEMENT_3D('',#280,#281,#282);
#280 = CARTESIAN_POINT('',(0.E+000,0.E+000,-2.856));
#281 = DIRECTION('',(0.E+000,0.E+000,1.));
#282 = DIRECTION('',(1.,0.E+000,0.E+000));
#283 = ORIENTED_EDGE('',*,*,#269,.F.);
#284 = ORIENTED_EDGE('',*,*,#74,.T.);
#285 = CYLINDRICAL_SURFACE('',#286,0.36);
#286 = AXIS2_PLACEMENT_3D('',#287,#288,#289);
#287 = CARTESIAN_POINT('',(0.E+000,0.E+000,6.03));
#288 = DIRECTION('',(0.E+000,0.E+000,1.));
#289 = DIRECTION('',(1.,0.E+000,0.E+000));
#290 = ADVANCED_FACE('',(#291),#294,.T.);
#291 = FACE_BOUND('',#292,.T.);
#292 = EDGE_LOOP('',(#293));
#293 = ORIENTED_EDGE('',*,*,#163,.T.);
#294 = PLANE('',#295);
#295 = AXIS2_PLACEMENT_3D('',#296,#297,#298);
#296 = CARTESIAN_POINT('',(3.75,-3.9,6.03));
#297 = DIRECTION('',(-0.E+000,-1.,-0.E+000));
#298 = DIRECTION('',(0.E+000,0.E+000,-1.));
#299 = ADVANCED_FACE('',(#300),#320,.T.);
#300 = FACE_BOUND('',#301,.T.);
#301 = EDGE_LOOP('',(#302,#303,#311,#318,#319));
#302 = ORIENTED_EDGE('',*,*,#173,.F.);
#303 = ORIENTED_EDGE('',*,*,#304,.T.);
#304 = EDGE_CURVE('',#174,#305,#307,.T.);
#305 = VERTEX_POINT('',#306);
#306 = CARTESIAN_POINT('',(7.86,-2.4,-2.856));
#307 = LINE('',#308,#309);
#308 = CARTESIAN_POINT('',(7.86,-2.4,6.03));
#309 = VECTOR('',#310,1.);
#310 = DIRECTION('',(-0.E+000,-0.E+000,-1.));
#311 = ORIENTED_EDGE('',*,*,#312,.T.);
#312 = EDGE_CURVE('',#305,#305,#313,.T.);
#313 = CIRCLE('',#314,0.36);
#314 = AXIS2_PLACEMENT_3D('',#315,#316,#317);
#315 = CARTESIAN_POINT('',(7.5,-2.4,-2.856));
#316 = DIRECTION('',(4.184736669286E-030,2.282583637792E-030,1.));
#317 = DIRECTION('',(1.,9.130334551169E-031,-4.184736669286E-030));
#318 = ORIENTED_EDGE('',*,*,#304,.F.);
#319 = ORIENTED_EDGE('',*,*,#192,.F.);
#320 = CYLINDRICAL_SURFACE('',#321,0.36);
#321 = AXIS2_PLACEMENT_3D('',#322,#323,#324);
#322 = CARTESIAN_POINT('',(7.5,-2.4,6.03));
#323 = DIRECTION('',(0.E+000,0.E+000,1.));
#324 = DIRECTION('',(1.,0.E+000,0.E+000));
#325 = ADVANCED_FACE('',(#326),#346,.T.);
#326 = FACE_BOUND('',#327,.F.);
#327 = EDGE_LOOP('',(#328,#337,#338,#339));
#328 = ORIENTED_EDGE('',*,*,#329,.F.);
#329 = EDGE_CURVE('',#270,#330,#332,.T.);
#330 = VERTEX_POINT('',#331);
#331 = CARTESIAN_POINT('',(0.216,0.E+000,-3.));
#332 = CIRCLE('',#333,0.144);
#333 = AXIS2_PLACEMENT_3D('',#334,#335,#336);
#334 = CARTESIAN_POINT('',(0.216,0.E+000,-2.856));
#335 = DIRECTION('',(-0.E+000,1.,0.E+000));
#336 = DIRECTION('',(1.,0.E+000,0.E+000));
#337 = ORIENTED_EDGE('',*,*,#277,.T.);
#338 = ORIENTED_EDGE('',*,*,#329,.T.);
#339 = ORIENTED_EDGE('',*,*,#340,.F.);
#340 = EDGE_CURVE('',#330,#330,#341,.T.);
#341 = CIRCLE('',#342,0.216);
#342 = AXIS2_PLACEMENT_3D('',#343,#344,#345);
#343 = CARTESIAN_POINT('',(0.E+000,0.E+000,-3.));
#344 = DIRECTION('',(0.E+000,0.E+000,1.));
#345 = DIRECTION('',(1.,0.E+000,0.E+000));
#346 = TOROIDAL_SURFACE('',#347,0.216,0.144);
#347 = AXIS2_PLACEMENT_3D('',#348,#349,#350);
#348 = CARTESIAN_POINT('',(0.E+000,0.E+000,-2.856));
#349 = DIRECTION('',(-0.E+000,-0.E+000,-1.));
#350 = DIRECTION('',(1.,0.E+000,0.E+000));
#351 = ADVANCED_FACE('',(#352),#372,.T.);
#352 = FACE_BOUND('',#353,.F.);
#353 = EDGE_LOOP('',(#354,#363,#364,#365));
#354 = ORIENTED_EDGE('',*,*,#355,.F.);
#355 = EDGE_CURVE('',#305,#356,#358,.T.);
#356 = VERTEX_POINT('',#357);
#357 = CARTESIAN_POINT('',(7.716,-2.4,-3.));
#358 = CIRCLE('',#359,0.144);
#359 = AXIS2_PLACEMENT_3D('',#360,#361,#362);
#360 = CARTESIAN_POINT('',(7.716,-2.4,-2.856));
#361 = DIRECTION('',(-9.130334551169E-031,1.,-2.282583637792E-030));
#362 = DIRECTION('',(1.,9.130334551169E-031,-4.184736669286E-030));
#363 = ORIENTED_EDGE('',*,*,#312,.T.);
#364 = ORIENTED_EDGE('',*,*,#355,.T.);
#365 = ORIENTED_EDGE('',*,*,#366,.F.);
#366 = EDGE_CURVE('',#356,#356,#367,.T.);
#367 = CIRCLE('',#368,0.216);
#368 = AXIS2_PLACEMENT_3D('',#369,#370,#371);
#369 = CARTESIAN_POINT('',(7.5,-2.4,-3.));
#370 = DIRECTION('',(4.184736669286E-030,2.282583637792E-030,1.));
#371 = DIRECTION('',(1.,9.130334551169E-031,-4.184736669286E-030));
#372 = TOROIDAL_SURFACE('',#373,0.216,0.144);
#373 = AXIS2_PLACEMENT_3D('',#374,#375,#376);
#374 = CARTESIAN_POINT('',(7.5,-2.4,-2.856));
#375 = DIRECTION('',(-4.184736669286E-030,-2.282583637792E-030,-1.));
#376 = DIRECTION('',(1.,9.130334551169E-031,-4.184736669286E-030));
#377 = ADVANCED_FACE('',(#378),#381,.F.);
#378 = FACE_BOUND('',#379,.F.);
#379 = EDGE_LOOP('',(#380));
#380 = ORIENTED_EDGE('',*,*,#340,.T.);
#381 = PLANE('',#382);
#382 = AXIS2_PLACEMENT_3D('',#383,#384,#385);
#383 = CARTESIAN_POINT('',(-1.483767504926E-017,1.497958850874E-017,-3.)
);
#384 = DIRECTION('',(0.E+000,0.E+000,1.));
#385 = DIRECTION('',(1.,0.E+000,0.E+000));
#386 = ADVANCED_FACE('',(#387),#390,.F.);
#387 = FACE_BOUND('',#388,.F.);
#388 = EDGE_LOOP('',(#389));
#389 = ORIENTED_EDGE('',*,*,#366,.T.);
#390 = PLANE('',#391);
#391 = AXIS2_PLACEMENT_3D('',#392,#393,#394);
#392 = CARTESIAN_POINT('',(7.5,-2.4,-3.));
#393 = DIRECTION('',(4.184736669286E-030,2.282583637792E-030,1.));
#394 = DIRECTION('',(1.,0.E+000,-4.184736669286E-030));
#395 = ( GEOMETRIC_REPRESENTATION_CONTEXT(3)
GLOBAL_UNCERTAINTY_ASSIGNED_CONTEXT((#399)) GLOBAL_UNIT_ASSIGNED_CONTEXT
((#396,#397,#398)) REPRESENTATION_CONTEXT('Context #1',
'3D Context with UNIT and UNCERTAINTY') );
#396 = ( LENGTH_UNIT() NAMED_UNIT(*) SI_UNIT(.MILLI.,.METRE.) );
#397 = ( NAMED_UNIT(*) PLANE_ANGLE_UNIT() SI_UNIT($,.RADIAN.) );
#398 = ( NAMED_UNIT(*) SI_UNIT($,.STERADIAN.) SOLID_ANGLE_UNIT() );
#399 = UNCERTAINTY_MEASURE_WITH_UNIT(LENGTH_MEASURE(1.E-007),#396,
'distance_accuracy_value','confusion accuracy');
#400 = PRODUCT_RELATED_PRODUCT_CATEGORY('part',$,(#7));
#401 = MECHANICAL_DESIGN_GEOMETRIC_PRESENTATION_REPRESENTATION('',(#402,
#410,#417,#424,#431,#439,#446,#453,#460,#467,#474),#395);
#402 = STYLED_ITEM('color',(#403),#17);
#403 = PRESENTATION_STYLE_ASSIGNMENT((#404));
#404 = SURFACE_STYLE_USAGE(.BOTH.,#405);
#405 = SURFACE_SIDE_STYLE('',(#406));
#406 = SURFACE_STYLE_FILL_AREA(#407);
#407 = FILL_AREA_STYLE('',(#408));
#408 = FILL_AREA_STYLE_COLOUR('',#409);
#409 = COLOUR_RGB('',0.136999994516,0.402000010014,0.726999998093);
#410 = STYLED_ITEM('color',(#411),#50);
#411 = PRESENTATION_STYLE_ASSIGNMENT((#412));
#412 = SURFACE_STYLE_USAGE(.BOTH.,#413);
#413 = SURFACE_SIDE_STYLE('',(#414));
#414 = SURFACE_STYLE_FILL_AREA(#415);
#415 = FILL_AREA_STYLE('',(#416));
#416 = FILL_AREA_STYLE_COLOUR('',#409);
#417 = STYLED_ITEM('color',(#418),#149);
#418 = PRESENTATION_STYLE_ASSIGNMENT((#419));
#419 = SURFACE_STYLE_USAGE(.BOTH.,#420);
#420 = SURFACE_SIDE_STYLE('',(#421));
#421 = SURFACE_STYLE_FILL_AREA(#422);
#422 = FILL_AREA_STYLE('',(#423));
#423 = FILL_AREA_STYLE_COLOUR('',#409);
#424 = STYLED_ITEM('color',(#425),#255);
#425 = PRESENTATION_STYLE_ASSIGNMENT((#426));
#426 = SURFACE_STYLE_USAGE(.BOTH.,#427);
#427 = SURFACE_SIDE_STYLE('',(#428));
#428 = SURFACE_STYLE_FILL_AREA(#429);
#429 = FILL_AREA_STYLE('',(#430));
#430 = FILL_AREA_STYLE_COLOUR('',#409);
#431 = STYLED_ITEM('color',(#432),#264);
#432 = PRESENTATION_STYLE_ASSIGNMENT((#433));
#433 = SURFACE_STYLE_USAGE(.BOTH.,#434);
#434 = SURFACE_SIDE_STYLE('',(#435));
#435 = SURFACE_STYLE_FILL_AREA(#436);
#436 = FILL_AREA_STYLE('',(#437));
#437 = FILL_AREA_STYLE_COLOUR('',#438);
#438 = COLOUR_RGB('',0.824000000954,0.819999992847,0.78100001812);
#439 = STYLED_ITEM('color',(#440),#290);
#440 = PRESENTATION_STYLE_ASSIGNMENT((#441));
#441 = SURFACE_STYLE_USAGE(.BOTH.,#442);
#442 = SURFACE_SIDE_STYLE('',(#443));
#443 = SURFACE_STYLE_FILL_AREA(#444);
#444 = FILL_AREA_STYLE('',(#445));
#445 = FILL_AREA_STYLE_COLOUR('',#409);
#446 = STYLED_ITEM('color',(#447),#299);
#447 = PRESENTATION_STYLE_ASSIGNMENT((#448));
#448 = SURFACE_STYLE_USAGE(.BOTH.,#449);
#449 = SURFACE_SIDE_STYLE('',(#450));
#450 = SURFACE_STYLE_FILL_AREA(#451);
#451 = FILL_AREA_STYLE('',(#452));
#452 = FILL_AREA_STYLE_COLOUR('',#438);
#453 = STYLED_ITEM('color',(#454),#325);
#454 = PRESENTATION_STYLE_ASSIGNMENT((#455));
#455 = SURFACE_STYLE_USAGE(.BOTH.,#456);
#456 = SURFACE_SIDE_STYLE('',(#457));
#457 = SURFACE_STYLE_FILL_AREA(#458);
#458 = FILL_AREA_STYLE('',(#459));
#459 = FILL_AREA_STYLE_COLOUR('',#438);
#460 = STYLED_ITEM('color',(#461),#351);
#461 = PRESENTATION_STYLE_ASSIGNMENT((#462));
#462 = SURFACE_STYLE_USAGE(.BOTH.,#463);
#463 = SURFACE_SIDE_STYLE('',(#464));
#464 = SURFACE_STYLE_FILL_AREA(#465);
#465 = FILL_AREA_STYLE('',(#466));
#466 = FILL_AREA_STYLE_COLOUR('',#438);
#467 = STYLED_ITEM('color',(#468),#377);
#468 = PRESENTATION_STYLE_ASSIGNMENT((#469));
#469 = SURFACE_STYLE_USAGE(.BOTH.,#470);
#470 = SURFACE_SIDE_STYLE('',(#471));
#471 = SURFACE_STYLE_FILL_AREA(#472);
#472 = FILL_AREA_STYLE('',(#473));
#473 = FILL_AREA_STYLE_COLOUR('',#438);
#474 = STYLED_ITEM('color',(#475),#386);
#475 = PRESENTATION_STYLE_ASSIGNMENT((#476));
#476 = SURFACE_STYLE_USAGE(.BOTH.,#477);
#477 = SURFACE_SIDE_STYLE('',(#478));
#478 = SURFACE_STYLE_FILL_AREA(#479);
#479 = FILL_AREA_STYLE('',(#480));
#480 = FILL_AREA_STYLE_COLOUR('',#438);
ENDSEC;
END-ISO-10303-21;
