ISO-10303-21;
HEADER;
/* RV_Disc_D15.5mm_W7.5mm_P7.5mm.step 3D STEP model for use in ECAD systems
 * Copyright (C) 2018, kicad StepUp
 * 
 * This work is licensed under the [Creative Commons CC-BY-SA 4.0 License](https://creativecommons.org/licenses/by-sa/4.0/legalcode), 
 * with the following exception:
 * To the extent that the creation of electronic designs that use 'Licensed Material' can be considered to be 'Adapted Material', 
 * then the copyright holder waives article 3 of the license with respect to these designs and any generated files which use data provided 
 * as part of the 'Licensed Material'.
 * You are free to use the library data in your own projects without the obligation to share your project files under this or any other license agreement.
 * However, if you wish to redistribute these libraries, or parts thereof (including in modified form) as a collection then the exception above does not apply. 
 * Please refer to https://github.com/KiCad/kicad-packages3D/blob/master/LICENSE.md for further clarification of the exception.
 * Disclaimer of Warranties and Limitation of Liability.
 * These libraries are provided in the hope that they will be useful, but are provided without warranty of any kind, express or implied.
 * *USE 3D CAD DATA AT YOUR OWN RISK*
 * *DO NOT RELY UPON ANY INFORMATION FOUND HERE WITHOUT INDEPENDENT VERIFICATION.*
 * 
 */

FILE_DESCRIPTION(
/* description */ ('model of RV_Disc_D15.5mm_W7.5mm_P7.5mm'),
/* implementation_level */ '2;1');

FILE_NAME(
/* name */ 'RV_Disc_D15.5mm_W7.5mm_P7.5mm.step',
/* time_stamp */ '2018-11-11T21:01:45',
/* author */ ('kicad StepUp','ksu'),
/* organization */ ('FreeCAD'),
/* preprocessor_version */ 'OCC',
/* originating_system */ 'kicad StepUp',
/* authorisation */ '');

FILE_SCHEMA(('AUTOMOTIVE_DESIGN { 1 0 10303 214 1 1 1 1 }'));
ENDSEC;

DATA;
#1 = APPLICATION_PROTOCOL_DEFINITION('international standard',
'automotive_design',2000,#2);
#2 = APPLICATION_CONTEXT(
'core data for automotive mechanical design processes');
#3 = SHAPE_DEFINITION_REPRESENTATION(#4,#10);
#4 = PRODUCT_DEFINITION_SHAPE('','',#5);
#5 = PRODUCT_DEFINITION('design','',#6,#9);
#6 = PRODUCT_DEFINITION_FORMATION('','',#7);
#7 = PRODUCT('RV_Disc_D155mm_W75mm_P75mm','RV_Disc_D155mm_W75mm_P75mm',
'',(#8));
#8 = PRODUCT_CONTEXT('',#2,'mechanical');
#9 = PRODUCT_DEFINITION_CONTEXT('part definition',#2,'design');
#10 = ADVANCED_BREP_SHAPE_REPRESENTATION('',(#11,#15),#382);
#11 = AXIS2_PLACEMENT_3D('',#12,#13,#14);
#12 = CARTESIAN_POINT('',(0.E+000,0.E+000,0.E+000));
#13 = DIRECTION('',(0.E+000,0.E+000,1.));
#14 = DIRECTION('',(1.,0.E+000,-0.E+000));
#15 = MANIFOLD_SOLID_BREP('',#16);
#16 = CLOSED_SHELL('',(#17,#50,#156,#242,#251,#277,#286,#312,#338,#364,
#373));
#17 = ADVANCED_FACE('',(#18),#45,.T.);
#18 = FACE_BOUND('',#19,.F.);
#19 = EDGE_LOOP('',(#20,#30,#37,#38));
#20 = ORIENTED_EDGE('',*,*,#21,.T.);
#21 = EDGE_CURVE('',#22,#24,#26,.T.);
#22 = VERTEX_POINT('',#23);
#23 = CARTESIAN_POINT('',(11.5,-1.908536585366,7.78));
#24 = VERTEX_POINT('',#25);
#25 = CARTESIAN_POINT('',(11.5,-2.091463414634,7.78));
#26 = LINE('',#27,#28);
#27 = CARTESIAN_POINT('',(11.5,1.75,7.78));
#28 = VECTOR('',#29,1.);
#29 = DIRECTION('',(0.E+000,-1.,0.E+000));
#30 = ORIENTED_EDGE('',*,*,#31,.T.);
#31 = EDGE_CURVE('',#24,#24,#32,.T.);
#32 = CIRCLE('',#33,7.75);
#33 = AXIS2_PLACEMENT_3D('',#34,#35,#36);
#34 = CARTESIAN_POINT('',(3.75,-2.091463414634,7.78));
#35 = DIRECTION('',(1.09450004193E-033,-1.,7.66150029351E-033));
#36 = DIRECTION('',(1.,1.09450004193E-033,-3.616758596464E-033));
#37 = ORIENTED_EDGE('',*,*,#21,.F.);
#38 = ORIENTED_EDGE('',*,*,#39,.F.);
#39 = EDGE_CURVE('',#22,#22,#40,.T.);
#40 = CIRCLE('',#41,7.75);
#41 = AXIS2_PLACEMENT_3D('',#42,#43,#44);
#42 = CARTESIAN_POINT('',(3.75,-1.908536585366,7.78));
#43 = DIRECTION('',(1.09450004193E-033,-1.,7.66150029351E-033));
#44 = DIRECTION('',(1.,1.09450004193E-033,3.616758596464E-033));
#45 = CYLINDRICAL_SURFACE('',#46,7.75);
#46 = AXIS2_PLACEMENT_3D('',#47,#48,#49);
#47 = CARTESIAN_POINT('',(3.75,1.75,7.78));
#48 = DIRECTION('',(0.E+000,1.,0.E+000));
#49 = DIRECTION('',(1.,0.E+000,0.E+000));
#50 = ADVANCED_FACE('',(#51,#71),#151,.T.);
#51 = FACE_BOUND('',#52,.F.);
#52 = EDGE_LOOP('',(#53,#54,#63,#70));
#53 = ORIENTED_EDGE('',*,*,#39,.T.);
#54 = ORIENTED_EDGE('',*,*,#55,.T.);
#55 = EDGE_CURVE('',#22,#56,#58,.T.);
#56 = VERTEX_POINT('',#57);
#57 = CARTESIAN_POINT('',(7.841463414634,1.75,7.78));
#58 = CIRCLE('',#59,3.658536585366);
#59 = AXIS2_PLACEMENT_3D('',#60,#61,#62);
#60 = CARTESIAN_POINT('',(7.841463414634,-1.908536585366,7.78));
#61 = DIRECTION('',(-3.616758596464E-033,7.66150029351E-033,1.));
#62 = DIRECTION('',(1.,1.09450004193E-033,3.616758596464E-033));
#63 = ORIENTED_EDGE('',*,*,#64,.F.);
#64 = EDGE_CURVE('',#56,#56,#65,.T.);
#65 = CIRCLE('',#66,4.091463414634);
#66 = AXIS2_PLACEMENT_3D('',#67,#68,#69);
#67 = CARTESIAN_POINT('',(3.75,1.75,7.78));
#68 = DIRECTION('',(1.09450004193E-033,-1.,7.66150029351E-033));
#69 = DIRECTION('',(1.,1.09450004193E-033,3.616758596464E-033));
#70 = ORIENTED_EDGE('',*,*,#55,.F.);
#71 = FACE_BOUND('',#72,.F.);
#72 = EDGE_LOOP('',(#73,#97));
#73 = ORIENTED_EDGE('',*,*,#74,.T.);
#74 = EDGE_CURVE('',#75,#77,#79,.T.);
#75 = VERTEX_POINT('',#76);
#76 = CARTESIAN_POINT('',(0.36,0.E+000,1.413561228412));
#77 = VERTEX_POINT('',#78);
#78 = CARTESIAN_POINT('',(7.932216890825E-002,-0.351152379345,
1.352305003641));
#79 = B_SPLINE_CURVE_WITH_KNOTS('',6,(#80,#81,#82,#83,#84,#85,#86,#87,
#88,#89,#90,#91,#92,#93,#94,#95,#96),.UNSPECIFIED.,.F.,.F.,(7,5,5,7)
,(0.E+000,0.192075815866,0.556002992229,1.),.UNSPECIFIED.);
#80 = CARTESIAN_POINT('',(0.36,-2.775557561563E-016,1.413561228412));
#81 = CARTESIAN_POINT('',(0.36,-1.449706907984E-002,1.403518492997));
#82 = CARTESIAN_POINT('',(0.359299444077,-2.909414288127E-002,
1.393909473974));
#83 = CARTESIAN_POINT('',(0.357880236205,-4.375408613156E-002,
1.384768427622));
#84 = CARTESIAN_POINT('',(0.355725745103,-5.843495125777E-002,
1.376130600062));
#85 = CARTESIAN_POINT('',(0.352822561325,-7.309008567098E-002,
1.368031056643));
#86 = CARTESIAN_POINT('',(0.342227049224,-0.115289551874,1.346241027011)
);
#87 = CARTESIAN_POINT('',(0.332572746411,-0.142638781872,1.33402977847)
);
#88 = CARTESIAN_POINT('',(0.32014313995,-0.169359059447,1.32410421141));
#89 = CARTESIAN_POINT('',(0.304950598811,-0.195038823236,1.316675701828)
);
#90 = CARTESIAN_POINT('',(0.287127169574,-0.219231927095,1.311891475167)
);
#91 = CARTESIAN_POINT('',(0.242327614903,-0.268744939801,1.307224827801)
);
#92 = CARTESIAN_POINT('',(0.214186246641,-0.293157442188,1.308650941887)
);
#93 = CARTESIAN_POINT('',(0.183028117837,-0.314016445535,1.314147751752)
);
#94 = CARTESIAN_POINT('',(0.149598839158,-0.330768889576,1.323526123793)
);
#95 = CARTESIAN_POINT('',(0.114752014799,-0.343149095342,1.336407728841)
);
#96 = CARTESIAN_POINT('',(7.932216890825E-002,-0.351152379345,
1.352305003641));
#97 = ORIENTED_EDGE('',*,*,#98,.T.);
#98 = EDGE_CURVE('',#77,#75,#99,.T.);
#99 = B_SPLINE_CURVE_WITH_KNOTS('',8,(#100,#101,#102,#103,#104,#105,#106
,#107,#108,#109,#110,#111,#112,#113,#114,#115,#116,#117,#118,#119,
#120,#121,#122,#123,#124,#125,#126,#127,#128,#129,#130,#131,#132,
#133,#134,#135,#136,#137,#138,#139,#140,#141,#142,#143,#144,#145,
#146,#147,#148,#149,#150),.UNSPECIFIED.,.F.,.F.,(9,7,7,7,7,7,7,9),(
0.E+000,0.242567786334,0.433283711626,0.481863481544,0.565742559917,
0.739814754526,0.836408647909,1.),.UNSPECIFIED.);
#100 = CARTESIAN_POINT('',(7.932216890825E-002,-0.351152379345,
1.352305003641));
#101 = CARTESIAN_POINT('',(2.280474502466E-002,-0.363919157836,
1.377664216923));
#102 = CARTESIAN_POINT('',(-3.492601921771E-002,-0.366033721967,
1.410242157219));
#103 = CARTESIAN_POINT('',(-9.134938468796E-002,-0.357694355061,
1.448435373806));
#104 = CARTESIAN_POINT('',(-0.14436079129,-0.339911598152,1.490561088311
));
#105 = CARTESIAN_POINT('',(-0.192497698005,-0.314006132016,
1.535228424008));
#106 = CARTESIAN_POINT('',(-0.234781326187,-0.281316654898,
1.581283260223));
#107 = CARTESIAN_POINT('',(-0.270567535421,-0.243020025482,
1.627825993163));
#108 = CARTESIAN_POINT('',(-0.321827521426,-0.166357423816,
1.710397810912));
#109 = CARTESIAN_POINT('',(-0.339963527337,-0.129823396175,
1.746475725971));
#110 = CARTESIAN_POINT('',(-0.3533977141,-9.102344150796E-002,
1.781868084296));
#111 = CARTESIAN_POINT('',(-0.361851936436,-5.04895100871E-002,
1.816123812941));
#112 = CARTESIAN_POINT('',(-0.365047913566,-8.796578868024E-003,
1.848720089049));
#113 = CARTESIAN_POINT('',(-0.362722959461,3.340672355544E-002,
1.879033006932));
#114 = CARTESIAN_POINT('',(-0.35465845413,7.537192071221E-002,
1.906317912978));
#115 = CARTESIAN_POINT('',(-0.337170877382,0.126636146334,1.935655217613
));
#116 = CARTESIAN_POINT('',(-0.333240670446,0.136968475803,1.941356071626
));
#117 = CARTESIAN_POINT('',(-0.328928986972,0.147210578105,1.946787232688
));
#118 = CARTESIAN_POINT('',(-0.324235136038,0.157346133076,1.951933266858
));
#119 = CARTESIAN_POINT('',(-0.319159397265,0.167357938769,1.95677827043)
);
#120 = CARTESIAN_POINT('',(-0.313703234091,0.177228018803,1.961306096373
));
#121 = CARTESIAN_POINT('',(-0.307869507045,0.186937729706,1.965500580778
));
#122 = CARTESIAN_POINT('',(-0.290945832153,0.212922850262,1.975984970535
));
#123 = CARTESIAN_POINT('',(-0.279115239304,0.228844717235,1.981583736487
));
#124 = CARTESIAN_POINT('',(-0.266195616318,0.244131304012,1.98605849207)
);
#125 = CARTESIAN_POINT('',(-0.252227066799,0.258676265375,1.989328834549
));
#126 = CARTESIAN_POINT('',(-0.237268490285,0.272372820462,1.991323616794
));
#127 = CARTESIAN_POINT('',(-0.221399576305,0.285118524209,1.991987501033
));
#128 = CARTESIAN_POINT('',(-0.20472139232,0.296821065841,1.991287983141)
);
#129 = CARTESIAN_POINT('',(-0.15131669103,0.329369869341,1.98493724493)
);
#130 = CARTESIAN_POINT('',(-0.112262529945,0.346550696168,1.97476434253)
);
#131 = CARTESIAN_POINT('',(-7.136851244927E-002,0.358180668549,
1.95866120327));
#132 = CARTESIAN_POINT('',(-2.992243804137E-002,0.364089653785,
1.937207724755));
#133 = CARTESIAN_POINT('',(1.098767256254E-002,0.364542319114,
1.911359624618));
#134 = CARTESIAN_POINT('',(5.05572415536E-002,0.360022900953,
1.882159341517));
#135 = CARTESIAN_POINT('',(8.822593967064E-002,0.351050555713,
1.85052155646));
#136 = CARTESIAN_POINT('',(0.143262372092,0.330927842548,1.798725180315)
);
#137 = CARTESIAN_POINT('',(0.162227144509,0.322515487711,1.779702333635)
);
#138 = CARTESIAN_POINT('',(0.180460077755,0.312945139683,1.76025899016)
);
#139 = CARTESIAN_POINT('',(0.197912710039,0.30228481929,1.740503156542)
);
#140 = CARTESIAN_POINT('',(0.214541758692,0.290597744285,1.72053427049)
);
#141 = CARTESIAN_POINT('',(0.230307262729,0.277942578806,1.700444156106)
);
#142 = CARTESIAN_POINT('',(0.245170725417,0.264373682833,1.680317979226)
);
#143 = CARTESIAN_POINT('',(0.282672446588,0.225498792293,1.626223026185)
);
#144 = CARTESIAN_POINT('',(0.303540882697,0.198592391633,1.592353039947)
);
#145 = CARTESIAN_POINT('',(0.321519398129,0.169466299864,1.559004876435)
);
#146 = CARTESIAN_POINT('',(0.336400754727,0.138356009529,1.526549751287)
);
#147 = CARTESIAN_POINT('',(0.34794798778,0.105517223294,1.495368751033)
);
#148 = CARTESIAN_POINT('',(0.35590222787,7.125128026236E-002,
1.465862112151));
#149 = CARTESIAN_POINT('',(0.36,3.592715081702E-002,1.438449491542));
#150 = CARTESIAN_POINT('',(0.36,-2.775557561563E-016,1.413561228412));
#151 = TOROIDAL_SURFACE('',#152,4.091463414634,3.658536585366);
#152 = AXIS2_PLACEMENT_3D('',#153,#154,#155);
#153 = CARTESIAN_POINT('',(3.75,-1.908536585366,7.78));
#154 = DIRECTION('',(-1.09450004193E-033,1.,-7.66150029351E-033));
#155 = DIRECTION('',(1.,1.09450004193E-033,3.616758596464E-033));
#156 = ADVANCED_FACE('',(#157,#177),#237,.T.);
#157 = FACE_BOUND('',#158,.T.);
#158 = EDGE_LOOP('',(#159,#160,#169,#176));
#159 = ORIENTED_EDGE('',*,*,#31,.T.);
#160 = ORIENTED_EDGE('',*,*,#161,.T.);
#161 = EDGE_CURVE('',#24,#162,#164,.T.);
#162 = VERTEX_POINT('',#163);
#163 = CARTESIAN_POINT('',(7.841463414634,-5.75,7.78));
#164 = CIRCLE('',#165,3.658536585366);
#165 = AXIS2_PLACEMENT_3D('',#166,#167,#168);
#166 = CARTESIAN_POINT('',(7.841463414634,-2.091463414634,7.78));
#167 = DIRECTION('',(-3.616758596464E-033,-7.66150029351E-033,-1.));
#168 = DIRECTION('',(1.,1.09450004193E-033,-3.616758596464E-033));
#169 = ORIENTED_EDGE('',*,*,#170,.F.);
#170 = EDGE_CURVE('',#162,#162,#171,.T.);
#171 = CIRCLE('',#172,4.091463414634);
#172 = AXIS2_PLACEMENT_3D('',#173,#174,#175);
#173 = CARTESIAN_POINT('',(3.75,-5.75,7.78));
#174 = DIRECTION('',(1.09450004193E-033,-1.,7.66150029351E-033));
#175 = DIRECTION('',(1.,1.09450004193E-033,-3.616758596464E-033));
#176 = ORIENTED_EDGE('',*,*,#161,.F.);
#177 = FACE_BOUND('',#178,.T.);
#178 = EDGE_LOOP('',(#179,#202));
#179 = ORIENTED_EDGE('',*,*,#180,.T.);
#180 = EDGE_CURVE('',#181,#183,#185,.T.);
#181 = VERTEX_POINT('',#182);
#182 = CARTESIAN_POINT('',(7.86,-4.,1.852813261556));
#183 = VERTEX_POINT('',#184);
#184 = CARTESIAN_POINT('',(7.292684221549,-3.705686955768,1.312037994095
));
#185 = B_SPLINE_CURVE_WITH_KNOTS('',8,(#186,#187,#188,#189,#190,#191,
#192,#193,#194,#195,#196,#197,#198,#199,#200,#201),.UNSPECIFIED.,.F.
,.F.,(9,7,9),(0.E+000,0.285625902741,1.),.UNSPECIFIED.);
#186 = CARTESIAN_POINT('',(7.86,-4.,1.852813261556));
#187 = CARTESIAN_POINT('',(7.86,-3.972677700381,1.832483278405));
#188 = CARTESIAN_POINT('',(7.857630012175,-3.945584384914,1.811163215915
));
#189 = CARTESIAN_POINT('',(7.852959923036,-3.918909015701,1.789038133829
));
#190 = CARTESIAN_POINT('',(7.846062633192,-3.892827499726,1.766273258965
));
#191 = CARTESIAN_POINT('',(7.837014068003,-3.867505781318,1.743017997031
));
#192 = CARTESIAN_POINT('',(7.825893188242,-3.843102934627,1.719409944437
));
#193 = CARTESIAN_POINT('',(7.812782000755,-3.819774256093,1.695578900105
));
#194 = CARTESIAN_POINT('',(7.760208226828,-3.742400674202,1.611804905546
));
#195 = CARTESIAN_POINT('',(7.710831580157,-3.694958911107,1.551509004902
));
#196 = CARTESIAN_POINT('',(7.650857361773,-3.657354226912,1.492376545917
));
#197 = CARTESIAN_POINT('',(7.581608787315,-3.632390589241,1.436448079465
));
#198 = CARTESIAN_POINT('',(7.505824798407,-3.623307136689,1.386755588733
));
#199 = CARTESIAN_POINT('',(7.428068361909,-3.632974260955,1.347005834259
));
#200 = CARTESIAN_POINT('',(7.35512842289,-3.661700906,1.321582391407));
#201 = CARTESIAN_POINT('',(7.292684221549,-3.705686955768,1.312037994095
));
#202 = ORIENTED_EDGE('',*,*,#203,.T.);
#203 = EDGE_CURVE('',#183,#181,#204,.T.);
#204 = B_SPLINE_CURVE_WITH_KNOTS('',7,(#205,#206,#207,#208,#209,#210,
#211,#212,#213,#214,#215,#216,#217,#218,#219,#220,#221,#222,#223,
#224,#225,#226,#227,#228,#229,#230,#231,#232,#233,#234,#235,#236),
.UNSPECIFIED.,.F.,.F.,(8,6,6,6,6,8),(0.E+000,0.232246614992,
0.423391866373,0.660145485838,0.893692810681,1.),.UNSPECIFIED.);
#205 = CARTESIAN_POINT('',(7.292684221549,-3.705686955768,1.312037994095
));
#206 = CARTESIAN_POINT('',(7.249654494694,-3.735997339539,1.305461037379
));
#207 = CARTESIAN_POINT('',(7.211775159418,-3.773660456931,1.306591192871
));
#208 = CARTESIAN_POINT('',(7.181109537203,-3.817246395224,1.315951424634
));
#209 = CARTESIAN_POINT('',(7.158780813421,-3.864542704255,1.333131315121
));
#210 = CARTESIAN_POINT('',(7.144844637886,-3.913429343142,1.357085490525
));
#211 = CARTESIAN_POINT('',(7.138850901971,-3.962235188184,1.386573226138
));
#212 = CARTESIAN_POINT('',(7.14118417441,-4.048770692487,1.448198585199)
);
#213 = CARTESIAN_POINT('',(7.147166452173,-4.08699067115,1.478985441875)
);
#214 = CARTESIAN_POINT('',(7.157734610969,-4.123749791667,1.512140116653
));
#215 = CARTESIAN_POINT('',(7.172516451329,-4.15857358763,1.547085414773)
);
#216 = CARTESIAN_POINT('',(7.191163840286,-4.191085847042,1.583279983076
));
#217 = CARTESIAN_POINT('',(7.213377783327,-4.220958192801,1.620207025316
));
#218 = CARTESIAN_POINT('',(7.270523865719,-4.281158092827,1.703324700814
));
#219 = CARTESIAN_POINT('',(7.307150121417,-4.309813531755,1.749513039983
));
#220 = CARTESIAN_POINT('',(7.348349301967,-4.333300218208,1.795017304969
));
#221 = CARTESIAN_POINT('',(7.393700714242,-4.350810083733,1.838676650756
));
#222 = CARTESIAN_POINT('',(7.442530865284,-4.361324362721,1.878900076589
));
#223 = CARTESIAN_POINT('',(7.493651495059,-4.36367655613,1.913630408849)
);
#224 = CARTESIAN_POINT('',(7.596071482318,-4.350711491572,1.968004690105
));
#225 = CARTESIAN_POINT('',(7.647467537573,-4.335620488357,1.98790478707)
);
#226 = CARTESIAN_POINT('',(7.696533348198,-4.311259556288,1.998274379582
));
#227 = CARTESIAN_POINT('',(7.740454602793,-4.278481693997,1.998177939615
));
#228 = CARTESIAN_POINT('',(7.777305050552,-4.239250994659,1.988642814057
));
#229 = CARTESIAN_POINT('',(7.806203765963,-4.195820407866,1.971341041494
));
#230 = CARTESIAN_POINT('',(7.836625666471,-4.129624323395,1.937622609847
));
#231 = CARTESIAN_POINT('',(7.844514548124,-4.108428180119,1.925826843224
));
#232 = CARTESIAN_POINT('',(7.850774793225,-4.086895863955,1.912926139318
));
#233 = CARTESIAN_POINT('',(7.855422556779,-4.065167323497,1.899056091531
));
#234 = CARTESIAN_POINT('',(7.858486057298,-4.043368871778,1.884341778721
));
#235 = CARTESIAN_POINT('',(7.86,-4.021613301454,1.868895292005));
#236 = CARTESIAN_POINT('',(7.86,-4.,1.852813261556));
#237 = TOROIDAL_SURFACE('',#238,4.091463414634,3.658536585366);
#238 = AXIS2_PLACEMENT_3D('',#239,#240,#241);
#239 = CARTESIAN_POINT('',(3.75,-2.091463414634,7.78));
#240 = DIRECTION('',(1.09450004193E-033,-1.,7.66150029351E-033));
#241 = DIRECTION('',(1.,1.09450004193E-033,-3.616758596464E-033));
#242 = ADVANCED_FACE('',(#243),#246,.F.);
#243 = FACE_BOUND('',#244,.F.);
#244 = EDGE_LOOP('',(#245));
#245 = ORIENTED_EDGE('',*,*,#64,.T.);
#246 = PLANE('',#247);
#247 = AXIS2_PLACEMENT_3D('',#248,#249,#250);
#248 = CARTESIAN_POINT('',(3.75,1.75,7.78));
#249 = DIRECTION('',(1.09450004193E-033,-1.,7.66150029351E-033));
#250 = DIRECTION('',(0.E+000,-7.66150029351E-033,-1.));
#251 = ADVANCED_FACE('',(#252),#272,.T.);
#252 = FACE_BOUND('',#253,.T.);
#253 = EDGE_LOOP('',(#254,#255,#263,#270,#271));
#254 = ORIENTED_EDGE('',*,*,#98,.T.);
#255 = ORIENTED_EDGE('',*,*,#256,.T.);
#256 = EDGE_CURVE('',#75,#257,#259,.T.);
#257 = VERTEX_POINT('',#258);
#258 = CARTESIAN_POINT('',(0.36,0.E+000,-2.856));
#259 = LINE('',#260,#261);
#260 = CARTESIAN_POINT('',(0.36,0.E+000,7.78));
#261 = VECTOR('',#262,1.);
#262 = DIRECTION('',(-0.E+000,-0.E+000,-1.));
#263 = ORIENTED_EDGE('',*,*,#264,.T.);
#264 = EDGE_CURVE('',#257,#257,#265,.T.);
#265 = CIRCLE('',#266,0.36);
#266 = AXIS2_PLACEMENT_3D('',#267,#268,#269);
#267 = CARTESIAN_POINT('',(0.E+000,0.E+000,-2.856));
#268 = DIRECTION('',(0.E+000,0.E+000,1.));
#269 = DIRECTION('',(1.,0.E+000,0.E+000));
#270 = ORIENTED_EDGE('',*,*,#256,.F.);
#271 = ORIENTED_EDGE('',*,*,#74,.T.);
#272 = CYLINDRICAL_SURFACE('',#273,0.36);
#273 = AXIS2_PLACEMENT_3D('',#274,#275,#276);
#274 = CARTESIAN_POINT('',(0.E+000,0.E+000,7.78));
#275 = DIRECTION('',(0.E+000,0.E+000,1.));
#276 = DIRECTION('',(1.,0.E+000,0.E+000));
#277 = ADVANCED_FACE('',(#278),#281,.T.);
#278 = FACE_BOUND('',#279,.T.);
#279 = EDGE_LOOP('',(#280));
#280 = ORIENTED_EDGE('',*,*,#170,.T.);
#281 = PLANE('',#282);
#282 = AXIS2_PLACEMENT_3D('',#283,#284,#285);
#283 = CARTESIAN_POINT('',(3.75,-5.75,7.78));
#284 = DIRECTION('',(1.09450004193E-033,-1.,7.66150029351E-033));
#285 = DIRECTION('',(0.E+000,-7.66150029351E-033,-1.));
#286 = ADVANCED_FACE('',(#287),#307,.T.);
#287 = FACE_BOUND('',#288,.T.);
#288 = EDGE_LOOP('',(#289,#290,#298,#305,#306));
#289 = ORIENTED_EDGE('',*,*,#180,.F.);
#290 = ORIENTED_EDGE('',*,*,#291,.T.);
#291 = EDGE_CURVE('',#181,#292,#294,.T.);
#292 = VERTEX_POINT('',#293);
#293 = CARTESIAN_POINT('',(7.86,-4.,-2.856));
#294 = LINE('',#295,#296);
#295 = CARTESIAN_POINT('',(7.86,-4.,7.78));
#296 = VECTOR('',#297,1.);
#297 = DIRECTION('',(-0.E+000,-0.E+000,-1.));
#298 = ORIENTED_EDGE('',*,*,#299,.T.);
#299 = EDGE_CURVE('',#292,#292,#300,.T.);
#300 = CIRCLE('',#301,0.36);
#301 = AXIS2_PLACEMENT_3D('',#302,#303,#304);
#302 = CARTESIAN_POINT('',(7.5,-4.,-2.856));
#303 = DIRECTION('',(0.E+000,0.E+000,1.));
#304 = DIRECTION('',(1.,0.E+000,0.E+000));
#305 = ORIENTED_EDGE('',*,*,#291,.F.);
#306 = ORIENTED_EDGE('',*,*,#203,.F.);
#307 = CYLINDRICAL_SURFACE('',#308,0.36);
#308 = AXIS2_PLACEMENT_3D('',#309,#310,#311);
#309 = CARTESIAN_POINT('',(7.5,-4.,7.78));
#310 = DIRECTION('',(0.E+000,0.E+000,1.));
#311 = DIRECTION('',(1.,0.E+000,0.E+000));
#312 = ADVANCED_FACE('',(#313),#333,.T.);
#313 = FACE_BOUND('',#314,.F.);
#314 = EDGE_LOOP('',(#315,#324,#325,#326));
#315 = ORIENTED_EDGE('',*,*,#316,.F.);
#316 = EDGE_CURVE('',#257,#317,#319,.T.);
#317 = VERTEX_POINT('',#318);
#318 = CARTESIAN_POINT('',(0.216,0.E+000,-3.));
#319 = CIRCLE('',#320,0.144);
#320 = AXIS2_PLACEMENT_3D('',#321,#322,#323);
#321 = CARTESIAN_POINT('',(0.216,0.E+000,-2.856));
#322 = DIRECTION('',(-0.E+000,1.,0.E+000));
#323 = DIRECTION('',(1.,0.E+000,0.E+000));
#324 = ORIENTED_EDGE('',*,*,#264,.T.);
#325 = ORIENTED_EDGE('',*,*,#316,.T.);
#326 = ORIENTED_EDGE('',*,*,#327,.F.);
#327 = EDGE_CURVE('',#317,#317,#328,.T.);
#328 = CIRCLE('',#329,0.216);
#329 = AXIS2_PLACEMENT_3D('',#330,#331,#332);
#330 = CARTESIAN_POINT('',(0.E+000,0.E+000,-3.));
#331 = DIRECTION('',(0.E+000,0.E+000,1.));
#332 = DIRECTION('',(1.,0.E+000,0.E+000));
#333 = TOROIDAL_SURFACE('',#334,0.216,0.144);
#334 = AXIS2_PLACEMENT_3D('',#335,#336,#337);
#335 = CARTESIAN_POINT('',(0.E+000,0.E+000,-2.856));
#336 = DIRECTION('',(-0.E+000,-0.E+000,-1.));
#337 = DIRECTION('',(1.,0.E+000,0.E+000));
#338 = ADVANCED_FACE('',(#339),#359,.T.);
#339 = FACE_BOUND('',#340,.F.);
#340 = EDGE_LOOP('',(#341,#350,#351,#352));
#341 = ORIENTED_EDGE('',*,*,#342,.F.);
#342 = EDGE_CURVE('',#292,#343,#345,.T.);
#343 = VERTEX_POINT('',#344);
#344 = CARTESIAN_POINT('',(7.716,-4.,-3.));
#345 = CIRCLE('',#346,0.144);
#346 = AXIS2_PLACEMENT_3D('',#347,#348,#349);
#347 = CARTESIAN_POINT('',(7.716,-4.,-2.856));
#348 = DIRECTION('',(-0.E+000,1.,0.E+000));
#349 = DIRECTION('',(1.,0.E+000,0.E+000));
#350 = ORIENTED_EDGE('',*,*,#299,.T.);
#351 = ORIENTED_EDGE('',*,*,#342,.T.);
#352 = ORIENTED_EDGE('',*,*,#353,.F.);
#353 = EDGE_CURVE('',#343,#343,#354,.T.);
#354 = CIRCLE('',#355,0.216);
#355 = AXIS2_PLACEMENT_3D('',#356,#357,#358);
#356 = CARTESIAN_POINT('',(7.5,-4.,-3.));
#357 = DIRECTION('',(0.E+000,0.E+000,1.));
#358 = DIRECTION('',(1.,0.E+000,0.E+000));
#359 = TOROIDAL_SURFACE('',#360,0.216,0.144);
#360 = AXIS2_PLACEMENT_3D('',#361,#362,#363);
#361 = CARTESIAN_POINT('',(7.5,-4.,-2.856));
#362 = DIRECTION('',(-0.E+000,-0.E+000,-1.));
#363 = DIRECTION('',(1.,0.E+000,0.E+000));
#364 = ADVANCED_FACE('',(#365),#368,.F.);
#365 = FACE_BOUND('',#366,.F.);
#366 = EDGE_LOOP('',(#367));
#367 = ORIENTED_EDGE('',*,*,#327,.T.);
#368 = PLANE('',#369);
#369 = AXIS2_PLACEMENT_3D('',#370,#371,#372);
#370 = CARTESIAN_POINT('',(-1.483767504926E-017,1.497958850874E-017,-3.)
);
#371 = DIRECTION('',(0.E+000,0.E+000,1.));
#372 = DIRECTION('',(1.,0.E+000,0.E+000));
#373 = ADVANCED_FACE('',(#374),#377,.F.);
#374 = FACE_BOUND('',#375,.F.);
#375 = EDGE_LOOP('',(#376));
#376 = ORIENTED_EDGE('',*,*,#353,.T.);
#377 = PLANE('',#378);
#378 = AXIS2_PLACEMENT_3D('',#379,#380,#381);
#379 = CARTESIAN_POINT('',(7.5,-4.,-3.));
#380 = DIRECTION('',(0.E+000,0.E+000,1.));
#381 = DIRECTION('',(1.,0.E+000,0.E+000));
#382 = ( GEOMETRIC_REPRESENTATION_CONTEXT(3)
GLOBAL_UNCERTAINTY_ASSIGNED_CONTEXT((#386)) GLOBAL_UNIT_ASSIGNED_CONTEXT
((#383,#384,#385)) REPRESENTATION_CONTEXT('Context #1',
'3D Context with UNIT and UNCERTAINTY') );
#383 = ( LENGTH_UNIT() NAMED_UNIT(*) SI_UNIT(.MILLI.,.METRE.) );
#384 = ( NAMED_UNIT(*) PLANE_ANGLE_UNIT() SI_UNIT($,.RADIAN.) );
#385 = ( NAMED_UNIT(*) SI_UNIT($,.STERADIAN.) SOLID_ANGLE_UNIT() );
#386 = UNCERTAINTY_MEASURE_WITH_UNIT(LENGTH_MEASURE(1.E-007),#383,
'distance_accuracy_value','confusion accuracy');
#387 = PRODUCT_RELATED_PRODUCT_CATEGORY('part',$,(#7));
#388 = MECHANICAL_DESIGN_GEOMETRIC_PRESENTATION_REPRESENTATION('',(#389,
#397,#404,#411,#418,#426,#433,#440,#447,#454,#461),#382);
#389 = STYLED_ITEM('color',(#390),#17);
#390 = PRESENTATION_STYLE_ASSIGNMENT((#391));
#391 = SURFACE_STYLE_USAGE(.BOTH.,#392);
#392 = SURFACE_SIDE_STYLE('',(#393));
#393 = SURFACE_STYLE_FILL_AREA(#394);
#394 = FILL_AREA_STYLE('',(#395));
#395 = FILL_AREA_STYLE_COLOUR('',#396);
#396 = COLOUR_RGB('',0.136999994516,0.402000010014,0.726999998093);
#397 = STYLED_ITEM('color',(#398),#50);
#398 = PRESENTATION_STYLE_ASSIGNMENT((#399));
#399 = SURFACE_STYLE_USAGE(.BOTH.,#400);
#400 = SURFACE_SIDE_STYLE('',(#401));
#401 = SURFACE_STYLE_FILL_AREA(#402);
#402 = FILL_AREA_STYLE('',(#403));
#403 = FILL_AREA_STYLE_COLOUR('',#396);
#404 = STYLED_ITEM('color',(#405),#156);
#405 = PRESENTATION_STYLE_ASSIGNMENT((#406));
#406 = SURFACE_STYLE_USAGE(.BOTH.,#407);
#407 = SURFACE_SIDE_STYLE('',(#408));
#408 = SURFACE_STYLE_FILL_AREA(#409);
#409 = FILL_AREA_STYLE('',(#410));
#410 = FILL_AREA_STYLE_COLOUR('',#396);
#411 = STYLED_ITEM('color',(#412),#242);
#412 = PRESENTATION_STYLE_ASSIGNMENT((#413));
#413 = SURFACE_STYLE_USAGE(.BOTH.,#414);
#414 = SURFACE_SIDE_STYLE('',(#415));
#415 = SURFACE_STYLE_FILL_AREA(#416);
#416 = FILL_AREA_STYLE('',(#417));
#417 = FILL_AREA_STYLE_COLOUR('',#396);
#418 = STYLED_ITEM('color',(#419),#251);
#419 = PRESENTATION_STYLE_ASSIGNMENT((#420));
#420 = SURFACE_STYLE_USAGE(.BOTH.,#421);
#421 = SURFACE_SIDE_STYLE('',(#422));
#422 = SURFACE_STYLE_FILL_AREA(#423);
#423 = FILL_AREA_STYLE('',(#424));
#424 = FILL_AREA_STYLE_COLOUR('',#425);
#425 = COLOUR_RGB('',0.824000000954,0.819999992847,0.78100001812);
#426 = STYLED_ITEM('color',(#427),#277);
#427 = PRESENTATION_STYLE_ASSIGNMENT((#428));
#428 = SURFACE_STYLE_USAGE(.BOTH.,#429);
#429 = SURFACE_SIDE_STYLE('',(#430));
#430 = SURFACE_STYLE_FILL_AREA(#431);
#431 = FILL_AREA_STYLE('',(#432));
#432 = FILL_AREA_STYLE_COLOUR('',#396);
#433 = STYLED_ITEM('color',(#434),#286);
#434 = PRESENTATION_STYLE_ASSIGNMENT((#435));
#435 = SURFACE_STYLE_USAGE(.BOTH.,#436);
#436 = SURFACE_SIDE_STYLE('',(#437));
#437 = SURFACE_STYLE_FILL_AREA(#438);
#438 = FILL_AREA_STYLE('',(#439));
#439 = FILL_AREA_STYLE_COLOUR('',#425);
#440 = STYLED_ITEM('color',(#441),#312);
#441 = PRESENTATION_STYLE_ASSIGNMENT((#442));
#442 = SURFACE_STYLE_USAGE(.BOTH.,#443);
#443 = SURFACE_SIDE_STYLE('',(#444));
#444 = SURFACE_STYLE_FILL_AREA(#445);
#445 = FILL_AREA_STYLE('',(#446));
#446 = FILL_AREA_STYLE_COLOUR('',#425);
#447 = STYLED_ITEM('color',(#448),#338);
#448 = PRESENTATION_STYLE_ASSIGNMENT((#449));
#449 = SURFACE_STYLE_USAGE(.BOTH.,#450);
#450 = SURFACE_SIDE_STYLE('',(#451));
#451 = SURFACE_STYLE_FILL_AREA(#452);
#452 = FILL_AREA_STYLE('',(#453));
#453 = FILL_AREA_STYLE_COLOUR('',#425);
#454 = STYLED_ITEM('color',(#455),#364);
#455 = PRESENTATION_STYLE_ASSIGNMENT((#456));
#456 = SURFACE_STYLE_USAGE(.BOTH.,#457);
#457 = SURFACE_SIDE_STYLE('',(#458));
#458 = SURFACE_STYLE_FILL_AREA(#459);
#459 = FILL_AREA_STYLE('',(#460));
#460 = FILL_AREA_STYLE_COLOUR('',#425);
#461 = STYLED_ITEM('color',(#462),#373);
#462 = PRESENTATION_STYLE_ASSIGNMENT((#463));
#463 = SURFACE_STYLE_USAGE(.BOTH.,#464);
#464 = SURFACE_SIDE_STYLE('',(#465));
#465 = SURFACE_STYLE_FILL_AREA(#466);
#466 = FILL_AREA_STYLE('',(#467));
#467 = FILL_AREA_STYLE_COLOUR('',#425);
ENDSEC;
END-ISO-10303-21;
