ISO-10303-21;
HEADER;
FILE_DESCRIPTION(('FreeCAD Model'),'2;1');
FILE_NAME(
  'D:/KiCAD/packages3D-source/Package_TO_SOT_THT.3dshapes\\TO-46-2.step'
  ,'2017-11-26T14:57:36',('kicad StepUp'),('ksu MCAD'),
  'Open CASCADE STEP processor 6.8','FreeCAD','Unknown');
FILE_SCHEMA(('AUTOMOTIVE_DESIGN_CC2 { 1 2 10303 214 -1 1 5 4 }'));
ENDSEC;
DATA;
#1 = APPLICATION_PROTOCOL_DEFINITION('committee draft',
  'automotive_design',1997,#2);
#2 = APPLICATION_CONTEXT(
  'core data for automotive mechanical design processes');
#3 = SHAPE_DEFINITION_REPRESENTATION(#4,#10);
#4 = PRODUCT_DEFINITION_SHAPE('','',#5);
#5 = PRODUCT_DEFINITION('design','',#6,#9);
#6 = PRODUCT_DEFINITION_FORMATION('','',#7);
#7 = PRODUCT('TO-46-2','TO-46-2','',(#8));
#8 = MECHANICAL_CONTEXT('',#2,'mechanical');
#9 = PRODUCT_DEFINITION_CONTEXT('part definition',#2,'design');
#10 = ADVANCED_BREP_SHAPE_REPRESENTATION('',(#11,#15),#467);
#11 = AXIS2_PLACEMENT_3D('',#12,#13,#14);
#12 = CARTESIAN_POINT('',(0.E+000,0.E+000,0.E+000));
#13 = DIRECTION('',(0.E+000,0.E+000,1.));
#14 = DIRECTION('',(1.,0.E+000,-0.E+000));
#15 = MANIFOLD_SOLID_BREP('',#16);
#16 = CLOSED_SHELL('',(#17,#57,#88,#119,#137,#155,#188,#212,#243,#270,
    #305,#335,#360,#385,#410,#419,#428,#458));
#17 = ADVANCED_FACE('',(#18),#52,.T.);
#18 = FACE_BOUND('',#19,.T.);
#19 = EDGE_LOOP('',(#20,#30,#38,#46));
#20 = ORIENTED_EDGE('',*,*,#21,.T.);
#21 = EDGE_CURVE('',#22,#24,#26,.T.);
#22 = VERTEX_POINT('',#23);
#23 = CARTESIAN_POINT('',(-2.018046532518,2.46780266634,5.));
#24 = VERTEX_POINT('',#25);
#25 = CARTESIAN_POINT('',(-2.018046532518,2.46780266634,5.5));
#26 = LINE('',#27,#28);
#27 = CARTESIAN_POINT('',(-2.018046532518,2.46780266634,5.));
#28 = VECTOR('',#29,1.);
#29 = DIRECTION('',(0.E+000,0.E+000,1.));
#30 = ORIENTED_EDGE('',*,*,#31,.T.);
#31 = EDGE_CURVE('',#24,#32,#34,.T.);
#32 = VERTEX_POINT('',#33);
#33 = CARTESIAN_POINT('',(-1.197802666342,3.288046532517,5.5));
#34 = LINE('',#35,#36);
#35 = CARTESIAN_POINT('',(-2.018046532518,2.46780266634,5.5));
#36 = VECTOR('',#37,1.);
#37 = DIRECTION('',(0.707106781186,0.707106781187,0.E+000));
#38 = ORIENTED_EDGE('',*,*,#39,.F.);
#39 = EDGE_CURVE('',#40,#32,#42,.T.);
#40 = VERTEX_POINT('',#41);
#41 = CARTESIAN_POINT('',(-1.197802666342,3.288046532517,5.));
#42 = LINE('',#43,#44);
#43 = CARTESIAN_POINT('',(-1.197802666342,3.288046532517,5.));
#44 = VECTOR('',#45,1.);
#45 = DIRECTION('',(0.E+000,0.E+000,1.));
#46 = ORIENTED_EDGE('',*,*,#47,.F.);
#47 = EDGE_CURVE('',#22,#40,#48,.T.);
#48 = LINE('',#49,#50);
#49 = CARTESIAN_POINT('',(-2.018046532518,2.46780266634,5.));
#50 = VECTOR('',#51,1.);
#51 = DIRECTION('',(0.707106781186,0.707106781187,0.E+000));
#52 = PLANE('',#53);
#53 = AXIS2_PLACEMENT_3D('',#54,#55,#56);
#54 = CARTESIAN_POINT('',(-2.018046532518,2.46780266634,5.));
#55 = DIRECTION('',(-0.707106781187,0.707106781186,0.E+000));
#56 = DIRECTION('',(0.707106781186,0.707106781187,0.E+000));
#57 = ADVANCED_FACE('',(#58),#83,.T.);
#58 = FACE_BOUND('',#59,.T.);
#59 = EDGE_LOOP('',(#60,#68,#76,#82));
#60 = ORIENTED_EDGE('',*,*,#61,.F.);
#61 = EDGE_CURVE('',#62,#22,#64,.T.);
#62 = VERTEX_POINT('',#63);
#63 = CARTESIAN_POINT('',(-1.149300869869,1.599057003691,5.));
#64 = LINE('',#65,#66);
#65 = CARTESIAN_POINT('',(0.859878066912,-0.410121933088,5.));
#66 = VECTOR('',#67,1.);
#67 = DIRECTION('',(-0.707106781187,0.707106781186,0.E+000));
#68 = ORIENTED_EDGE('',*,*,#69,.T.);
#69 = EDGE_CURVE('',#62,#70,#72,.T.);
#70 = VERTEX_POINT('',#71);
#71 = CARTESIAN_POINT('',(-1.149300869869,1.599057003691,5.5));
#72 = LINE('',#73,#74);
#73 = CARTESIAN_POINT('',(-1.149300869869,1.599057003691,5.));
#74 = VECTOR('',#75,1.);
#75 = DIRECTION('',(0.E+000,4.440892098501E-016,1.));
#76 = ORIENTED_EDGE('',*,*,#77,.T.);
#77 = EDGE_CURVE('',#70,#24,#78,.T.);
#78 = LINE('',#79,#80);
#79 = CARTESIAN_POINT('',(0.859878066912,-0.410121933088,5.5));
#80 = VECTOR('',#81,1.);
#81 = DIRECTION('',(-0.707106781187,0.707106781186,0.E+000));
#82 = ORIENTED_EDGE('',*,*,#21,.F.);
#83 = PLANE('',#84);
#84 = AXIS2_PLACEMENT_3D('',#85,#86,#87);
#85 = CARTESIAN_POINT('',(0.859878066912,-0.410121933088,5.));
#86 = DIRECTION('',(-0.707106781186,-0.707106781187,0.E+000));
#87 = DIRECTION('',(-0.707106781187,0.707106781186,0.E+000));
#88 = ADVANCED_FACE('',(#89),#114,.F.);
#89 = FACE_BOUND('',#90,.F.);
#90 = EDGE_LOOP('',(#91,#99,#107,#113));
#91 = ORIENTED_EDGE('',*,*,#92,.F.);
#92 = EDGE_CURVE('',#93,#40,#95,.T.);
#93 = VERTEX_POINT('',#94);
#94 = CARTESIAN_POINT('',(-0.329057003693,2.419300869868,5.));
#95 = LINE('',#96,#97);
#96 = CARTESIAN_POINT('',(1.680121933088,0.410121933088,5.));
#97 = VECTOR('',#98,1.);
#98 = DIRECTION('',(-0.707106781187,0.707106781186,0.E+000));
#99 = ORIENTED_EDGE('',*,*,#100,.T.);
#100 = EDGE_CURVE('',#93,#101,#103,.T.);
#101 = VERTEX_POINT('',#102);
#102 = CARTESIAN_POINT('',(-0.329057003693,2.419300869868,5.5));
#103 = LINE('',#104,#105);
#104 = CARTESIAN_POINT('',(-0.329057003693,2.419300869868,5.));
#105 = VECTOR('',#106,1.);
#106 = DIRECTION('',(0.E+000,4.440892098501E-016,1.));
#107 = ORIENTED_EDGE('',*,*,#108,.T.);
#108 = EDGE_CURVE('',#101,#32,#109,.T.);
#109 = LINE('',#110,#111);
#110 = CARTESIAN_POINT('',(1.680121933088,0.410121933088,5.5));
#111 = VECTOR('',#112,1.);
#112 = DIRECTION('',(-0.707106781187,0.707106781186,0.E+000));
#113 = ORIENTED_EDGE('',*,*,#39,.F.);
#114 = PLANE('',#115);
#115 = AXIS2_PLACEMENT_3D('',#116,#117,#118);
#116 = CARTESIAN_POINT('',(1.680121933088,0.410121933088,5.));
#117 = DIRECTION('',(-0.707106781186,-0.707106781187,0.E+000));
#118 = DIRECTION('',(-0.707106781187,0.707106781186,0.E+000));
#119 = ADVANCED_FACE('',(#120),#132,.T.);
#120 = FACE_BOUND('',#121,.T.);
#121 = EDGE_LOOP('',(#122,#129,#130,#131));
#122 = ORIENTED_EDGE('',*,*,#123,.T.);
#123 = EDGE_CURVE('',#93,#62,#124,.T.);
#124 = CIRCLE('',#125,2.9);
#125 = AXIS2_PLACEMENT_3D('',#126,#127,#128);
#126 = CARTESIAN_POINT('',(1.27,2.22044604925E-015,5.));
#127 = DIRECTION('',(0.E+000,4.440892098501E-016,1.));
#128 = DIRECTION('',(-1.,3.828355257328E-016,-1.700131261252E-031));
#129 = ORIENTED_EDGE('',*,*,#61,.T.);
#130 = ORIENTED_EDGE('',*,*,#47,.T.);
#131 = ORIENTED_EDGE('',*,*,#92,.F.);
#132 = PLANE('',#133);
#133 = AXIS2_PLACEMENT_3D('',#134,#135,#136);
#134 = CARTESIAN_POINT('',(0.859878066912,-0.410121933088,5.));
#135 = DIRECTION('',(0.E+000,0.E+000,-1.));
#136 = DIRECTION('',(-1.,0.E+000,0.E+000));
#137 = ADVANCED_FACE('',(#138),#150,.F.);
#138 = FACE_BOUND('',#139,.F.);
#139 = EDGE_LOOP('',(#140,#147,#148,#149));
#140 = ORIENTED_EDGE('',*,*,#141,.T.);
#141 = EDGE_CURVE('',#101,#70,#142,.T.);
#142 = CIRCLE('',#143,2.9);
#143 = AXIS2_PLACEMENT_3D('',#144,#145,#146);
#144 = CARTESIAN_POINT('',(1.27,2.442490654175E-015,5.5));
#145 = DIRECTION('',(-2.189528850508E-047,4.440892098501E-016,1.));
#146 = DIRECTION('',(-1.,4.211190783061E-016,-1.870144387377E-031));
#147 = ORIENTED_EDGE('',*,*,#77,.T.);
#148 = ORIENTED_EDGE('',*,*,#31,.T.);
#149 = ORIENTED_EDGE('',*,*,#108,.F.);
#150 = PLANE('',#151);
#151 = AXIS2_PLACEMENT_3D('',#152,#153,#154);
#152 = CARTESIAN_POINT('',(0.859878066912,-0.410121933088,5.5));
#153 = DIRECTION('',(0.E+000,0.E+000,-1.));
#154 = DIRECTION('',(-1.,0.E+000,0.E+000));
#155 = ADVANCED_FACE('',(#156),#183,.T.);
#156 = FACE_BOUND('',#157,.T.);
#157 = EDGE_LOOP('',(#158,#167,#175,#182));
#158 = ORIENTED_EDGE('',*,*,#159,.T.);
#159 = EDGE_CURVE('',#62,#160,#162,.T.);
#160 = VERTEX_POINT('',#161);
#161 = CARTESIAN_POINT('',(-1.63,3.330669073875E-015,5.));
#162 = CIRCLE('',#163,2.9);
#163 = AXIS2_PLACEMENT_3D('',#164,#165,#166);
#164 = CARTESIAN_POINT('',(1.27,2.22044604925E-015,5.));
#165 = DIRECTION('',(0.E+000,4.440892098501E-016,1.));
#166 = DIRECTION('',(-1.,3.828355257328E-016,-1.700131261252E-031));
#167 = ORIENTED_EDGE('',*,*,#168,.T.);
#168 = EDGE_CURVE('',#160,#169,#171,.T.);
#169 = VERTEX_POINT('',#170);
#170 = CARTESIAN_POINT('',(-1.63,3.663735981263E-015,5.5));
#171 = LINE('',#172,#173);
#172 = CARTESIAN_POINT('',(-1.63,3.330669073875E-015,5.));
#173 = VECTOR('',#174,1.);
#174 = DIRECTION('',(0.E+000,6.661338147751E-016,1.));
#175 = ORIENTED_EDGE('',*,*,#176,.F.);
#176 = EDGE_CURVE('',#70,#169,#177,.T.);
#177 = CIRCLE('',#178,2.9);
#178 = AXIS2_PLACEMENT_3D('',#179,#180,#181);
#179 = CARTESIAN_POINT('',(1.27,2.442490654175E-015,5.5));
#180 = DIRECTION('',(-2.189528850508E-047,4.440892098501E-016,1.));
#181 = DIRECTION('',(-1.,4.211190783061E-016,-1.870144387377E-031));
#182 = ORIENTED_EDGE('',*,*,#69,.F.);
#183 = CYLINDRICAL_SURFACE('',#184,2.9);
#184 = AXIS2_PLACEMENT_3D('',#185,#186,#187);
#185 = CARTESIAN_POINT('',(1.27,2.22044604925E-015,5.));
#186 = DIRECTION('',(0.E+000,4.440892098501E-016,1.));
#187 = DIRECTION('',(-1.,3.828355257328E-016,-1.700131261252E-031));
#188 = ADVANCED_FACE('',(#189),#207,.T.);
#189 = FACE_BOUND('',#190,.T.);
#190 = EDGE_LOOP('',(#191,#192,#199,#200));
#191 = ORIENTED_EDGE('',*,*,#168,.F.);
#192 = ORIENTED_EDGE('',*,*,#193,.T.);
#193 = EDGE_CURVE('',#160,#93,#194,.T.);
#194 = CIRCLE('',#195,2.9);
#195 = AXIS2_PLACEMENT_3D('',#196,#197,#198);
#196 = CARTESIAN_POINT('',(1.27,2.22044604925E-015,5.));
#197 = DIRECTION('',(0.E+000,4.440892098501E-016,1.));
#198 = DIRECTION('',(-1.,3.828355257328E-016,-1.700131261252E-031));
#199 = ORIENTED_EDGE('',*,*,#100,.T.);
#200 = ORIENTED_EDGE('',*,*,#201,.F.);
#201 = EDGE_CURVE('',#169,#101,#202,.T.);
#202 = CIRCLE('',#203,2.9);
#203 = AXIS2_PLACEMENT_3D('',#204,#205,#206);
#204 = CARTESIAN_POINT('',(1.27,2.442490654175E-015,5.5));
#205 = DIRECTION('',(-2.189528850508E-047,4.440892098501E-016,1.));
#206 = DIRECTION('',(-1.,4.211190783061E-016,-1.870144387377E-031));
#207 = CYLINDRICAL_SURFACE('',#208,2.9);
#208 = AXIS2_PLACEMENT_3D('',#209,#210,#211);
#209 = CARTESIAN_POINT('',(1.27,2.22044604925E-015,5.));
#210 = DIRECTION('',(0.E+000,4.440892098501E-016,1.));
#211 = DIRECTION('',(-1.,3.828355257328E-016,-1.700131261252E-031));
#212 = ADVANCED_FACE('',(#213),#238,.F.);
#213 = FACE_BOUND('',#214,.T.);
#214 = EDGE_LOOP('',(#215,#216,#224,#232));
#215 = ORIENTED_EDGE('',*,*,#123,.F.);
#216 = ORIENTED_EDGE('',*,*,#217,.F.);
#217 = EDGE_CURVE('',#218,#93,#220,.T.);
#218 = VERTEX_POINT('',#219);
#219 = CARTESIAN_POINT('',(1.680121933088,0.410121933088,5.));
#220 = LINE('',#221,#222);
#221 = CARTESIAN_POINT('',(1.680121933088,0.410121933088,5.));
#222 = VECTOR('',#223,1.);
#223 = DIRECTION('',(-0.707106781187,0.707106781186,0.E+000));
#224 = ORIENTED_EDGE('',*,*,#225,.F.);
#225 = EDGE_CURVE('',#226,#218,#228,.T.);
#226 = VERTEX_POINT('',#227);
#227 = CARTESIAN_POINT('',(0.859878066912,-0.410121933088,5.));
#228 = LINE('',#229,#230);
#229 = CARTESIAN_POINT('',(0.859878066912,-0.410121933088,5.));
#230 = VECTOR('',#231,1.);
#231 = DIRECTION('',(0.707106781186,0.707106781187,0.E+000));
#232 = ORIENTED_EDGE('',*,*,#233,.T.);
#233 = EDGE_CURVE('',#226,#62,#234,.T.);
#234 = LINE('',#235,#236);
#235 = CARTESIAN_POINT('',(0.859878066912,-0.410121933088,5.));
#236 = VECTOR('',#237,1.);
#237 = DIRECTION('',(-0.707106781187,0.707106781186,0.E+000));
#238 = PLANE('',#239);
#239 = AXIS2_PLACEMENT_3D('',#240,#241,#242);
#240 = CARTESIAN_POINT('',(1.27,2.22044604925E-015,5.));
#241 = DIRECTION('',(0.E+000,4.440892098501E-016,1.));
#242 = DIRECTION('',(-1.,3.828355257328E-016,-1.700131261252E-031));
#243 = ADVANCED_FACE('',(#244),#265,.T.);
#244 = FACE_BOUND('',#245,.T.);
#245 = EDGE_LOOP('',(#246,#254,#255,#256,#257,#258));
#246 = ORIENTED_EDGE('',*,*,#247,.F.);
#247 = EDGE_CURVE('',#169,#248,#250,.T.);
#248 = VERTEX_POINT('',#249);
#249 = CARTESIAN_POINT('',(-1.24669852308,3.665750121216E-015,
    5.503023626647));
#250 = LINE('',#251,#252);
#251 = CARTESIAN_POINT('',(-1.63,3.663735981263E-015,5.5));
#252 = VECTOR('',#253,1.);
#253 = DIRECTION('',(0.999968888204,5.254551340147E-018,
    7.888131819161E-003));
#254 = ORIENTED_EDGE('',*,*,#201,.T.);
#255 = ORIENTED_EDGE('',*,*,#141,.T.);
#256 = ORIENTED_EDGE('',*,*,#176,.T.);
#257 = ORIENTED_EDGE('',*,*,#247,.T.);
#258 = ORIENTED_EDGE('',*,*,#259,.F.);
#259 = EDGE_CURVE('',#248,#248,#260,.T.);
#260 = CIRCLE('',#261,2.51669852308);
#261 = AXIS2_PLACEMENT_3D('',#262,#263,#264);
#262 = CARTESIAN_POINT('',(1.27,2.443833414144E-015,5.503023626647));
#263 = DIRECTION('',(4.379057701015E-047,4.440892098501E-016,1.));
#264 = DIRECTION('',(-1.,4.855236715347E-016,-2.156158236554E-031));
#265 = CONICAL_SURFACE('',#266,2.9,1.56290811317);
#266 = AXIS2_PLACEMENT_3D('',#267,#268,#269);
#267 = CARTESIAN_POINT('',(1.27,2.442490654175E-015,5.5));
#268 = DIRECTION('',(0.E+000,-4.440892098501E-016,-1.));
#269 = DIRECTION('',(-1.,4.211190783061E-016,-1.870144387377E-031));
#270 = ADVANCED_FACE('',(#271,#278,#289),#300,.F.);
#271 = FACE_BOUND('',#272,.T.);
#272 = EDGE_LOOP('',(#273,#274,#275,#276,#277));
#273 = ORIENTED_EDGE('',*,*,#193,.F.);
#274 = ORIENTED_EDGE('',*,*,#159,.F.);
#275 = ORIENTED_EDGE('',*,*,#233,.F.);
#276 = ORIENTED_EDGE('',*,*,#225,.T.);
#277 = ORIENTED_EDGE('',*,*,#217,.T.);
#278 = FACE_BOUND('',#279,.T.);
#279 = EDGE_LOOP('',(#280));
#280 = ORIENTED_EDGE('',*,*,#281,.T.);
#281 = EDGE_CURVE('',#282,#282,#284,.T.);
#282 = VERTEX_POINT('',#283);
#283 = CARTESIAN_POINT('',(2.78,0.E+000,5.));
#284 = CIRCLE('',#285,0.24);
#285 = AXIS2_PLACEMENT_3D('',#286,#287,#288);
#286 = CARTESIAN_POINT('',(2.54,0.E+000,5.));
#287 = DIRECTION('',(0.E+000,0.E+000,1.));
#288 = DIRECTION('',(1.,0.E+000,0.E+000));
#289 = FACE_BOUND('',#290,.T.);
#290 = EDGE_LOOP('',(#291));
#291 = ORIENTED_EDGE('',*,*,#292,.T.);
#292 = EDGE_CURVE('',#293,#293,#295,.T.);
#293 = VERTEX_POINT('',#294);
#294 = CARTESIAN_POINT('',(0.24,0.E+000,5.));
#295 = CIRCLE('',#296,0.24);
#296 = AXIS2_PLACEMENT_3D('',#297,#298,#299);
#297 = CARTESIAN_POINT('',(0.E+000,0.E+000,5.));
#298 = DIRECTION('',(0.E+000,0.E+000,1.));
#299 = DIRECTION('',(1.,0.E+000,0.E+000));
#300 = PLANE('',#301);
#301 = AXIS2_PLACEMENT_3D('',#302,#303,#304);
#302 = CARTESIAN_POINT('',(1.27,2.22044604925E-015,5.));
#303 = DIRECTION('',(0.E+000,4.440892098501E-016,1.));
#304 = DIRECTION('',(-1.,3.828355257328E-016,-1.700131261252E-031));
#305 = ADVANCED_FACE('',(#306),#326,.T.);
#306 = FACE_BOUND('',#307,.T.);
#307 = EDGE_LOOP('',(#308,#309,#318,#325));
#308 = ORIENTED_EDGE('',*,*,#259,.T.);
#309 = ORIENTED_EDGE('',*,*,#310,.T.);
#310 = EDGE_CURVE('',#248,#311,#313,.T.);
#311 = VERTEX_POINT('',#312);
#312 = CARTESIAN_POINT('',(-1.13,3.744102589641E-015,5.620646342514));
#313 = CIRCLE('',#314,0.117626375435);
#314 = AXIS2_PLACEMENT_3D('',#315,#316,#317);
#315 = CARTESIAN_POINT('',(-1.247626375435,3.744102589641E-015,
    5.620646342514));
#316 = DIRECTION('',(0.E+000,-1.,6.661338147751E-016));
#317 = DIRECTION('',(1.,0.E+000,0.E+000));
#318 = ORIENTED_EDGE('',*,*,#319,.F.);
#319 = EDGE_CURVE('',#311,#311,#320,.T.);
#320 = CIRCLE('',#321,2.4);
#321 = AXIS2_PLACEMENT_3D('',#322,#323,#324);
#322 = CARTESIAN_POINT('',(1.27,2.496068393094E-015,5.620646342514));
#323 = DIRECTION('',(0.E+000,4.440892098501E-016,1.));
#324 = DIRECTION('',(-1.,5.200142485612E-016,-2.309327167543E-031));
#325 = ORIENTED_EDGE('',*,*,#310,.F.);
#326 = SURFACE_OF_REVOLUTION('',#327,#332);
#327 = CIRCLE('',#328,0.117626375435);
#328 = AXIS2_PLACEMENT_3D('',#329,#330,#331);
#329 = CARTESIAN_POINT('',(-1.247626375435,3.744102589641E-015,
    5.620646342514));
#330 = DIRECTION('',(0.E+000,-1.,6.661338147751E-016));
#331 = DIRECTION('',(1.,0.E+000,0.E+000));
#332 = AXIS1_PLACEMENT('',#333,#334);
#333 = CARTESIAN_POINT('',(1.27,1.13272413671E-015,2.550668));
#334 = DIRECTION('',(0.E+000,4.440892098501E-016,1.));
#335 = ADVANCED_FACE('',(#336),#355,.T.);
#336 = FACE_BOUND('',#337,.T.);
#337 = EDGE_LOOP('',(#338,#339,#347,#354));
#338 = ORIENTED_EDGE('',*,*,#281,.F.);
#339 = ORIENTED_EDGE('',*,*,#340,.T.);
#340 = EDGE_CURVE('',#282,#341,#343,.T.);
#341 = VERTEX_POINT('',#342);
#342 = CARTESIAN_POINT('',(2.78,0.E+000,-5.));
#343 = LINE('',#344,#345);
#344 = CARTESIAN_POINT('',(2.78,0.E+000,5.));
#345 = VECTOR('',#346,1.);
#346 = DIRECTION('',(-0.E+000,-0.E+000,-1.));
#347 = ORIENTED_EDGE('',*,*,#348,.T.);
#348 = EDGE_CURVE('',#341,#341,#349,.T.);
#349 = CIRCLE('',#350,0.24);
#350 = AXIS2_PLACEMENT_3D('',#351,#352,#353);
#351 = CARTESIAN_POINT('',(2.54,0.E+000,-5.));
#352 = DIRECTION('',(0.E+000,0.E+000,1.));
#353 = DIRECTION('',(1.,0.E+000,0.E+000));
#354 = ORIENTED_EDGE('',*,*,#340,.F.);
#355 = CYLINDRICAL_SURFACE('',#356,0.24);
#356 = AXIS2_PLACEMENT_3D('',#357,#358,#359);
#357 = CARTESIAN_POINT('',(2.54,0.E+000,5.));
#358 = DIRECTION('',(0.E+000,0.E+000,1.));
#359 = DIRECTION('',(1.,0.E+000,0.E+000));
#360 = ADVANCED_FACE('',(#361),#380,.T.);
#361 = FACE_BOUND('',#362,.T.);
#362 = EDGE_LOOP('',(#363,#364,#372,#379));
#363 = ORIENTED_EDGE('',*,*,#292,.F.);
#364 = ORIENTED_EDGE('',*,*,#365,.T.);
#365 = EDGE_CURVE('',#293,#366,#368,.T.);
#366 = VERTEX_POINT('',#367);
#367 = CARTESIAN_POINT('',(0.24,0.E+000,-5.));
#368 = LINE('',#369,#370);
#369 = CARTESIAN_POINT('',(0.24,0.E+000,5.));
#370 = VECTOR('',#371,1.);
#371 = DIRECTION('',(-0.E+000,-0.E+000,-1.));
#372 = ORIENTED_EDGE('',*,*,#373,.T.);
#373 = EDGE_CURVE('',#366,#366,#374,.T.);
#374 = CIRCLE('',#375,0.24);
#375 = AXIS2_PLACEMENT_3D('',#376,#377,#378);
#376 = CARTESIAN_POINT('',(0.E+000,0.E+000,-5.));
#377 = DIRECTION('',(0.E+000,0.E+000,1.));
#378 = DIRECTION('',(1.,0.E+000,0.E+000));
#379 = ORIENTED_EDGE('',*,*,#365,.F.);
#380 = CYLINDRICAL_SURFACE('',#381,0.24);
#381 = AXIS2_PLACEMENT_3D('',#382,#383,#384);
#382 = CARTESIAN_POINT('',(0.E+000,0.E+000,5.));
#383 = DIRECTION('',(0.E+000,0.E+000,1.));
#384 = DIRECTION('',(1.,0.E+000,0.E+000));
#385 = ADVANCED_FACE('',(#386),#405,.T.);
#386 = FACE_BOUND('',#387,.T.);
#387 = EDGE_LOOP('',(#388,#389,#397,#404));
#388 = ORIENTED_EDGE('',*,*,#319,.T.);
#389 = ORIENTED_EDGE('',*,*,#390,.T.);
#390 = EDGE_CURVE('',#311,#391,#393,.T.);
#391 = VERTEX_POINT('',#392);
#392 = CARTESIAN_POINT('',(-1.13,4.647562481896E-015,6.976920220549));
#393 = LINE('',#394,#395);
#394 = CARTESIAN_POINT('',(-1.13,3.744102589641E-015,5.620646342514));
#395 = VECTOR('',#396,1.);
#396 = DIRECTION('',(0.E+000,6.661338147751E-016,1.));
#397 = ORIENTED_EDGE('',*,*,#398,.F.);
#398 = EDGE_CURVE('',#391,#391,#399,.T.);
#399 = CIRCLE('',#400,2.4);
#400 = AXIS2_PLACEMENT_3D('',#401,#402,#403);
#401 = CARTESIAN_POINT('',(1.27,3.098374987931E-015,6.976920220549));
#402 = DIRECTION('',(0.E+000,4.440892098501E-016,1.));
#403 = DIRECTION('',(-1.,6.454947891522E-016,-2.866572708769E-031));
#404 = ORIENTED_EDGE('',*,*,#390,.F.);
#405 = CYLINDRICAL_SURFACE('',#406,2.4);
#406 = AXIS2_PLACEMENT_3D('',#407,#408,#409);
#407 = CARTESIAN_POINT('',(1.27,2.496068393094E-015,5.620646342514));
#408 = DIRECTION('',(0.E+000,4.440892098501E-016,1.));
#409 = DIRECTION('',(-1.,5.200142485612E-016,-2.309327167543E-031));
#410 = ADVANCED_FACE('',(#411),#414,.T.);
#411 = FACE_BOUND('',#412,.F.);
#412 = EDGE_LOOP('',(#413));
#413 = ORIENTED_EDGE('',*,*,#348,.T.);
#414 = PLANE('',#415);
#415 = AXIS2_PLACEMENT_3D('',#416,#417,#418);
#416 = CARTESIAN_POINT('',(2.78,0.E+000,-5.));
#417 = DIRECTION('',(0.E+000,0.E+000,-1.));
#418 = DIRECTION('',(-1.,0.E+000,0.E+000));
#419 = ADVANCED_FACE('',(#420),#423,.T.);
#420 = FACE_BOUND('',#421,.F.);
#421 = EDGE_LOOP('',(#422));
#422 = ORIENTED_EDGE('',*,*,#373,.T.);
#423 = PLANE('',#424);
#424 = AXIS2_PLACEMENT_3D('',#425,#426,#427);
#425 = CARTESIAN_POINT('',(0.24,0.E+000,-5.));
#426 = DIRECTION('',(0.E+000,0.E+000,-1.));
#427 = DIRECTION('',(-1.,0.E+000,0.E+000));
#428 = ADVANCED_FACE('',(#429),#449,.F.);
#429 = FACE_BOUND('',#430,.F.);
#430 = EDGE_LOOP('',(#431,#440,#447,#448));
#431 = ORIENTED_EDGE('',*,*,#432,.T.);
#432 = EDGE_CURVE('',#433,#433,#435,.T.);
#433 = VERTEX_POINT('',#434);
#434 = CARTESIAN_POINT('',(-0.906920220549,4.796163466381E-015,7.2));
#435 = CIRCLE('',#436,2.176920220549);
#436 = AXIS2_PLACEMENT_3D('',#437,#438,#439);
#437 = CARTESIAN_POINT('',(1.27,3.19744231092E-015,7.2));
#438 = DIRECTION('',(0.E+000,4.440892098501E-016,1.));
#439 = DIRECTION('',(-1.,7.343958406784E-016,-3.26137268604E-031));
#440 = ORIENTED_EDGE('',*,*,#441,.T.);
#441 = EDGE_CURVE('',#433,#391,#442,.T.);
#442 = CIRCLE('',#443,0.223079779451);
#443 = AXIS2_PLACEMENT_3D('',#444,#445,#446);
#444 = CARTESIAN_POINT('',(-0.906920220549,4.647562481896E-015,
    6.976920220549));
#445 = DIRECTION('',(0.E+000,-1.,6.661338147751E-016));
#446 = DIRECTION('',(1.,0.E+000,0.E+000));
#447 = ORIENTED_EDGE('',*,*,#398,.F.);
#448 = ORIENTED_EDGE('',*,*,#441,.F.);
#449 = SURFACE_OF_REVOLUTION('',#450,#455);
#450 = CIRCLE('',#451,0.223079779451);
#451 = AXIS2_PLACEMENT_3D('',#452,#453,#454);
#452 = CARTESIAN_POINT('',(-0.906920220549,4.647562481896E-015,
    6.976920220549));
#453 = DIRECTION('',(0.E+000,-1.,6.661338147751E-016));
#454 = DIRECTION('',(1.,0.E+000,0.E+000));
#455 = AXIS1_PLACEMENT('',#456,#457);
#456 = CARTESIAN_POINT('',(1.27,1.13272413671E-015,2.550668));
#457 = DIRECTION('',(0.E+000,4.440892098501E-016,1.));
#458 = ADVANCED_FACE('',(#459),#462,.T.);
#459 = FACE_BOUND('',#460,.T.);
#460 = EDGE_LOOP('',(#461));
#461 = ORIENTED_EDGE('',*,*,#432,.T.);
#462 = PLANE('',#463);
#463 = AXIS2_PLACEMENT_3D('',#464,#465,#466);
#464 = CARTESIAN_POINT('',(1.27,3.19744231092E-015,7.2));
#465 = DIRECTION('',(0.E+000,4.440892098501E-016,1.));
#466 = DIRECTION('',(-1.,7.343958406784E-016,-3.26137268604E-031));
#467 = ( GEOMETRIC_REPRESENTATION_CONTEXT(3) 
GLOBAL_UNCERTAINTY_ASSIGNED_CONTEXT((#471)) GLOBAL_UNIT_ASSIGNED_CONTEXT
((#468,#469,#470)) REPRESENTATION_CONTEXT('Context #1',
  '3D Context with UNIT and UNCERTAINTY') );
#468 = ( LENGTH_UNIT() NAMED_UNIT(*) SI_UNIT(.MILLI.,.METRE.) );
#469 = ( NAMED_UNIT(*) PLANE_ANGLE_UNIT() SI_UNIT($,.RADIAN.) );
#470 = ( NAMED_UNIT(*) SI_UNIT($,.STERADIAN.) SOLID_ANGLE_UNIT() );
#471 = UNCERTAINTY_MEASURE_WITH_UNIT(LENGTH_MEASURE(1.E-007),#468,
  'distance_accuracy_value','confusion accuracy');
#472 = PRODUCT_TYPE('part',$,(#7));
#473 = MECHANICAL_DESIGN_GEOMETRIC_PRESENTATION_REPRESENTATION('',(#474,
    #482,#489,#496,#503,#510,#517,#524,#531,#538,#545,#552,#560,#567,
    #574,#581,#588,#595),#467);
#474 = STYLED_ITEM('color',(#475),#17);
#475 = PRESENTATION_STYLE_ASSIGNMENT((#476));
#476 = SURFACE_STYLE_USAGE(.BOTH.,#477);
#477 = SURFACE_SIDE_STYLE('',(#478));
#478 = SURFACE_STYLE_FILL_AREA(#479);
#479 = FILL_AREA_STYLE('',(#480));
#480 = FILL_AREA_STYLE_COLOUR('',#481);
#481 = COLOUR_RGB('',0.40000000596,0.40000000596,0.40000000596);
#482 = STYLED_ITEM('color',(#483),#57);
#483 = PRESENTATION_STYLE_ASSIGNMENT((#484));
#484 = SURFACE_STYLE_USAGE(.BOTH.,#485);
#485 = SURFACE_SIDE_STYLE('',(#486));
#486 = SURFACE_STYLE_FILL_AREA(#487);
#487 = FILL_AREA_STYLE('',(#488));
#488 = FILL_AREA_STYLE_COLOUR('',#481);
#489 = STYLED_ITEM('color',(#490),#88);
#490 = PRESENTATION_STYLE_ASSIGNMENT((#491));
#491 = SURFACE_STYLE_USAGE(.BOTH.,#492);
#492 = SURFACE_SIDE_STYLE('',(#493));
#493 = SURFACE_STYLE_FILL_AREA(#494);
#494 = FILL_AREA_STYLE('',(#495));
#495 = FILL_AREA_STYLE_COLOUR('',#481);
#496 = STYLED_ITEM('color',(#497),#119);
#497 = PRESENTATION_STYLE_ASSIGNMENT((#498));
#498 = SURFACE_STYLE_USAGE(.BOTH.,#499);
#499 = SURFACE_SIDE_STYLE('',(#500));
#500 = SURFACE_STYLE_FILL_AREA(#501);
#501 = FILL_AREA_STYLE('',(#502));
#502 = FILL_AREA_STYLE_COLOUR('',#481);
#503 = STYLED_ITEM('color',(#504),#137);
#504 = PRESENTATION_STYLE_ASSIGNMENT((#505));
#505 = SURFACE_STYLE_USAGE(.BOTH.,#506);
#506 = SURFACE_SIDE_STYLE('',(#507));
#507 = SURFACE_STYLE_FILL_AREA(#508);
#508 = FILL_AREA_STYLE('',(#509));
#509 = FILL_AREA_STYLE_COLOUR('',#481);
#510 = STYLED_ITEM('color',(#511),#155);
#511 = PRESENTATION_STYLE_ASSIGNMENT((#512));
#512 = SURFACE_STYLE_USAGE(.BOTH.,#513);
#513 = SURFACE_SIDE_STYLE('',(#514));
#514 = SURFACE_STYLE_FILL_AREA(#515);
#515 = FILL_AREA_STYLE('',(#516));
#516 = FILL_AREA_STYLE_COLOUR('',#481);
#517 = STYLED_ITEM('color',(#518),#188);
#518 = PRESENTATION_STYLE_ASSIGNMENT((#519));
#519 = SURFACE_STYLE_USAGE(.BOTH.,#520);
#520 = SURFACE_SIDE_STYLE('',(#521));
#521 = SURFACE_STYLE_FILL_AREA(#522);
#522 = FILL_AREA_STYLE('',(#523));
#523 = FILL_AREA_STYLE_COLOUR('',#481);
#524 = STYLED_ITEM('color',(#525),#212);
#525 = PRESENTATION_STYLE_ASSIGNMENT((#526));
#526 = SURFACE_STYLE_USAGE(.BOTH.,#527);
#527 = SURFACE_SIDE_STYLE('',(#528));
#528 = SURFACE_STYLE_FILL_AREA(#529);
#529 = FILL_AREA_STYLE('',(#530));
#530 = FILL_AREA_STYLE_COLOUR('',#481);
#531 = STYLED_ITEM('color',(#532),#243);
#532 = PRESENTATION_STYLE_ASSIGNMENT((#533));
#533 = SURFACE_STYLE_USAGE(.BOTH.,#534);
#534 = SURFACE_SIDE_STYLE('',(#535));
#535 = SURFACE_STYLE_FILL_AREA(#536);
#536 = FILL_AREA_STYLE('',(#537));
#537 = FILL_AREA_STYLE_COLOUR('',#481);
#538 = STYLED_ITEM('color',(#539),#270);
#539 = PRESENTATION_STYLE_ASSIGNMENT((#540));
#540 = SURFACE_STYLE_USAGE(.BOTH.,#541);
#541 = SURFACE_SIDE_STYLE('',(#542));
#542 = SURFACE_STYLE_FILL_AREA(#543);
#543 = FILL_AREA_STYLE('',(#544));
#544 = FILL_AREA_STYLE_COLOUR('',#481);
#545 = STYLED_ITEM('color',(#546),#305);
#546 = PRESENTATION_STYLE_ASSIGNMENT((#547));
#547 = SURFACE_STYLE_USAGE(.BOTH.,#548);
#548 = SURFACE_SIDE_STYLE('',(#549));
#549 = SURFACE_STYLE_FILL_AREA(#550);
#550 = FILL_AREA_STYLE('',(#551));
#551 = FILL_AREA_STYLE_COLOUR('',#481);
#552 = STYLED_ITEM('color',(#553),#335);
#553 = PRESENTATION_STYLE_ASSIGNMENT((#554));
#554 = SURFACE_STYLE_USAGE(.BOTH.,#555);
#555 = SURFACE_SIDE_STYLE('',(#556));
#556 = SURFACE_STYLE_FILL_AREA(#557);
#557 = FILL_AREA_STYLE('',(#558));
#558 = FILL_AREA_STYLE_COLOUR('',#559);
#559 = COLOUR_RGB('',0.85900002718,0.737999975681,0.495999991894);
#560 = STYLED_ITEM('color',(#561),#360);
#561 = PRESENTATION_STYLE_ASSIGNMENT((#562));
#562 = SURFACE_STYLE_USAGE(.BOTH.,#563);
#563 = SURFACE_SIDE_STYLE('',(#564));
#564 = SURFACE_STYLE_FILL_AREA(#565);
#565 = FILL_AREA_STYLE('',(#566));
#566 = FILL_AREA_STYLE_COLOUR('',#559);
#567 = STYLED_ITEM('color',(#568),#385);
#568 = PRESENTATION_STYLE_ASSIGNMENT((#569));
#569 = SURFACE_STYLE_USAGE(.BOTH.,#570);
#570 = SURFACE_SIDE_STYLE('',(#571));
#571 = SURFACE_STYLE_FILL_AREA(#572);
#572 = FILL_AREA_STYLE('',(#573));
#573 = FILL_AREA_STYLE_COLOUR('',#481);
#574 = STYLED_ITEM('color',(#575),#410);
#575 = PRESENTATION_STYLE_ASSIGNMENT((#576));
#576 = SURFACE_STYLE_USAGE(.BOTH.,#577);
#577 = SURFACE_SIDE_STYLE('',(#578));
#578 = SURFACE_STYLE_FILL_AREA(#579);
#579 = FILL_AREA_STYLE('',(#580));
#580 = FILL_AREA_STYLE_COLOUR('',#559);
#581 = STYLED_ITEM('color',(#582),#419);
#582 = PRESENTATION_STYLE_ASSIGNMENT((#583));
#583 = SURFACE_STYLE_USAGE(.BOTH.,#584);
#584 = SURFACE_SIDE_STYLE('',(#585));
#585 = SURFACE_STYLE_FILL_AREA(#586);
#586 = FILL_AREA_STYLE('',(#587));
#587 = FILL_AREA_STYLE_COLOUR('',#559);
#588 = STYLED_ITEM('color',(#589),#428);
#589 = PRESENTATION_STYLE_ASSIGNMENT((#590));
#590 = SURFACE_STYLE_USAGE(.BOTH.,#591);
#591 = SURFACE_SIDE_STYLE('',(#592));
#592 = SURFACE_STYLE_FILL_AREA(#593);
#593 = FILL_AREA_STYLE('',(#594));
#594 = FILL_AREA_STYLE_COLOUR('',#481);
#595 = STYLED_ITEM('color',(#596),#458);
#596 = PRESENTATION_STYLE_ASSIGNMENT((#597));
#597 = SURFACE_STYLE_USAGE(.BOTH.,#598);
#598 = SURFACE_SIDE_STYLE('',(#599));
#599 = SURFACE_STYLE_FILL_AREA(#600);
#600 = FILL_AREA_STYLE('',(#601));
#601 = FILL_AREA_STYLE_COLOUR('',#481);
ENDSEC;
END-ISO-10303-21;
