ISO-10303-21;
HEADER;
/* C_Disc_D9.0mm_W2.5mm_P5.00mm.step 3D STEP model for use in ECAD systems
 * Copyright (C) 2017, kicad StepUp
 * 
 * This program is free software: you can redistribute it and/or modify
 * it under the terms of the GNU General Public License as published by
 * the Free Software Foundation, either version 3 of the License, or
 * any later version.
 * 
 * This program is distributed in the hope that it will be useful,
 * but WITHOUT ANY WARRANTY; without even the implied warranty of
 * MERCHANTABILITY or FITNESS FOR A PARTICULAR PURPOSE.  See the
 * GNU General Public License for more details.
 * 
 * You should have received a copy of the GNU General Public License
 * along with this program.  If not, see http://www.gnu.org/licenses/.
 * 
 * As a special exception, if you create a design which uses this symbol,
 * and embed this symbol or unaltered portions of this symbol into the design,
 * this symbol does not by itself cause the resulting design to be covered by
 * the GNU General Public License.
 * This exception does not however invalidate any other reasons why the design
 * itself might be covered by the GNU General Public License. 
 * If you modify this symbol, you may extend this exception to your version of the symbol,
 * but you are not obligated to do so.
 * If you do not wish to do so, delete this exception statement from your version
 * Risk disclaimer
 * *USE 3D CAD DATA AT YOUR OWN RISK*
 * *DO NOT RELY UPON ANY INFORMATION FOUND HERE WITHOUT INDEPENDENT VERIFICATION.*
 * 
 */

FILE_DESCRIPTION(
/* description */ ('model of C_Disc_D9.0mm_W2.5mm_P5.00mm'),
/* implementation_level */ '2;1');

FILE_NAME(
/* name */ 'C_Disc_D9.0mm_W2.5mm_P5.00mm.step',
/* time_stamp */ '2017-07-29T15:42:30',
/* author */ ('kicad StepUp','ksu'),
/* organization */ ('FreeCAD'),
/* preprocessor_version */ 'OCC',
/* originating_system */ 'kicad StepUp',
/* authorisation */ '');

FILE_SCHEMA(('AUTOMOTIVE_DESIGN_CC2 { 1 2 10303 214 -1 1 5 4 }'));
ENDSEC;

DATA;
#1 = APPLICATION_PROTOCOL_DEFINITION('committee draft',
'automotive_design',1997,#2);
#2 = APPLICATION_CONTEXT(
'core data for automotive mechanical design processes');
#3 = SHAPE_DEFINITION_REPRESENTATION(#4,#10);
#4 = PRODUCT_DEFINITION_SHAPE('','',#5);
#5 = PRODUCT_DEFINITION('design','',#6,#9);
#6 = PRODUCT_DEFINITION_FORMATION('','',#7);
#7 = PRODUCT('C_Disc_D90mm_W25mm_P500mm','C_Disc_D90mm_W25mm_P500mm','',
(#8));
#8 = MECHANICAL_CONTEXT('',#2,'mechanical');
#9 = PRODUCT_DEFINITION_CONTEXT('part definition',#2,'design');
#10 = ADVANCED_BREP_SHAPE_REPRESENTATION('',(#11,#15),#393);
#11 = AXIS2_PLACEMENT_3D('',#12,#13,#14);
#12 = CARTESIAN_POINT('',(0.,0.,0.));
#13 = DIRECTION('',(0.,0.,1.));
#14 = DIRECTION('',(1.,0.,-0.));
#15 = MANIFOLD_SOLID_BREP('',#16);
#16 = CLOSED_SHELL('',(#17,#34,#171,#272,#357,#384));
#17 = ADVANCED_FACE('',(#18),#29,.T.);
#18 = FACE_BOUND('',#19,.F.);
#19 = EDGE_LOOP('',(#20));
#20 = ORIENTED_EDGE('',*,*,#21,.T.);
#21 = EDGE_CURVE('',#22,#22,#24,.T.);
#22 = VERTEX_POINT('',#23);
#23 = CARTESIAN_POINT('',(1.942890293094E-16,-0.25,-2.));
#24 = CIRCLE('',#25,0.25);
#25 = AXIS2_PLACEMENT_3D('',#26,#27,#28);
#26 = CARTESIAN_POINT('',(1.665334536938E-16,0.,-2.));
#27 = DIRECTION('',(-0.,0.,1.));
#28 = DIRECTION('',(1.110223024625E-16,-1.,0.));
#29 = PLANE('',#30);
#30 = AXIS2_PLACEMENT_3D('',#31,#32,#33);
#31 = CARTESIAN_POINT('',(1.942890293094E-16,-0.25,-2.));
#32 = DIRECTION('',(0.,0.,-1.));
#33 = DIRECTION('',(-1.110223024625E-16,1.,0.));
#34 = ADVANCED_FACE('',(#35),#166,.T.);
#35 = FACE_BOUND('',#36,.F.);
#36 = EDGE_LOOP('',(#37,#38,#46,#74,#130,#165));
#37 = ORIENTED_EDGE('',*,*,#21,.F.);
#38 = ORIENTED_EDGE('',*,*,#39,.T.);
#39 = EDGE_CURVE('',#22,#40,#42,.T.);
#40 = VERTEX_POINT('',#41);
#41 = CARTESIAN_POINT('',(0.,-0.25,1.406256115466));
#42 = LINE('',#43,#44);
#43 = CARTESIAN_POINT('',(1.942890293094E-16,-0.25,-2.));
#44 = VECTOR('',#45,1.);
#45 = DIRECTION('',(0.,0.,1.));
#46 = ORIENTED_EDGE('',*,*,#47,.T.);
#47 = EDGE_CURVE('',#40,#48,#50,.T.);
#48 = VERTEX_POINT('',#49);
#49 = CARTESIAN_POINT('',(0.25,0.,0.70288568297));
#50 = B_SPLINE_CURVE_WITH_KNOTS('',8,(#51,#52,#53,#54,#55,#56,#57,#58,
#59,#60,#61,#62,#63,#64,#65,#66,#67,#68,#69,#70,#71,#72,#73),
.UNSPECIFIED.,.F.,.F.,(9,7,7,9),(0.,0.252764059923,0.622695704863,1.),
.UNSPECIFIED.);
#51 = CARTESIAN_POINT('',(0.,-0.25,1.406256115466));
#52 = CARTESIAN_POINT('',(1.819976815621E-02,-0.249999998247,
1.392009690308));
#53 = CARTESIAN_POINT('',(3.505044701005E-02,-0.248485975521,
1.375348348465));
#54 = CARTESIAN_POINT('',(5.076831824374E-02,-0.245849306775,
1.357061893442));
#55 = CARTESIAN_POINT('',(6.544290056776E-02,-0.242296201956,
1.33759361439));
#56 = CARTESIAN_POINT('',(7.917762566468E-02,-0.238005695418,
1.317299197608));
#57 = CARTESIAN_POINT('',(9.206151412683E-02,-0.233088322214,
1.296378010727));
#58 = CARTESIAN_POINT('',(0.104194145905,-0.227621050356,1.274940854639)
);
#59 = CARTESIAN_POINT('',(0.132481518808,-0.212856732957,1.220838492778)
);
#60 = CARTESIAN_POINT('',(0.147779693921,-0.203019089613,1.187793824993)
);
#61 = CARTESIAN_POINT('',(0.161777056447,-0.192294943959,1.154128346347)
);
#62 = CARTESIAN_POINT('',(0.174559006701,-0.180790539178,1.120034354079)
);
#63 = CARTESIAN_POINT('',(0.186193888105,-0.168593525028,1.085665495825)
);
#64 = CARTESIAN_POINT('',(0.196719792112,-0.155763965728,1.051129439177)
);
#65 = CARTESIAN_POINT('',(0.206164095939,-0.142345034534,1.016500987596)
);
#66 = CARTESIAN_POINT('',(0.223070206695,-0.114088229676,0.94644236593)
);
#67 = CARTESIAN_POINT('',(0.230476590402,-9.924777312249E-02,
0.911060449518));
#68 = CARTESIAN_POINT('',(0.236759825765,-8.386930358928E-02,
0.875738630586));
#69 = CARTESIAN_POINT('',(0.241899863648,-6.798424555033E-02,
0.840551713231));
#70 = CARTESIAN_POINT('',(0.245858973782,-5.162365634637E-02,
0.805581076458));
#71 = CARTESIAN_POINT('',(0.248583774743,-3.481916144388E-02,
0.770914617194));
#72 = CARTESIAN_POINT('',(0.25,-1.760197418088E-02,0.736647781358));
#73 = CARTESIAN_POINT('',(0.25,0.,0.70288568297));
#74 = ORIENTED_EDGE('',*,*,#75,.T.);
#75 = EDGE_CURVE('',#48,#76,#78,.T.);
#76 = VERTEX_POINT('',#77);
#77 = CARTESIAN_POINT('',(-0.25,0.,1.038048287806));
#78 = B_SPLINE_CURVE_WITH_KNOTS('',8,(#79,#80,#81,#82,#83,#84,#85,#86,
#87,#88,#89,#90,#91,#92,#93,#94,#95,#96,#97,#98,#99,#100,#101,#102,
#103,#104,#105,#106,#107,#108,#109,#110,#111,#112,#113,#114,#115,
#116,#117,#118,#119,#120,#121,#122,#123,#124,#125,#126,#127,#128,
#129),.UNSPECIFIED.,.F.,.F.,(9,7,7,7,7,7,7,9),(0.,0.340678192149,
0.49601210294,0.565481495381,0.643566746871,0.735494571735,
0.866214447234,1.),.UNSPECIFIED.);
#79 = CARTESIAN_POINT('',(0.25,0.,0.70288568297));
#80 = CARTESIAN_POINT('',(0.25,2.551891326395E-02,0.75183315054));
#81 = CARTESIAN_POINT('',(0.247022609983,5.027237363568E-02,
0.801925036875));
#82 = CARTESIAN_POINT('',(0.241383282752,7.428286057612E-02,
0.853059398737));
#83 = CARTESIAN_POINT('',(0.233158863977,9.750913722283E-02,
0.905159764646));
#84 = CARTESIAN_POINT('',(0.222396122769,0.119892487246,0.95812881324));
#85 = CARTESIAN_POINT('',(0.208944774546,0.141313202274,1.011874600944)
);
#86 = CARTESIAN_POINT('',(0.192673144953,0.161645990916,1.066265091978)
);
#87 = CARTESIAN_POINT('',(0.163821673893,0.189258744785,1.146332549449)
);
#88 = CARTESIAN_POINT('',(0.154077150799,0.197594638821,1.171453883388)
);
#89 = CARTESIAN_POINT('',(0.143544894682,0.205615861608,1.196673118402)
);
#90 = CARTESIAN_POINT('',(0.132117663216,0.213285526089,1.221991569871)
);
#91 = CARTESIAN_POINT('',(0.11970105551,0.22055413755,1.247373768652));
#92 = CARTESIAN_POINT('',(0.106101694247,0.227312750296,1.272722553463)
);
#93 = CARTESIAN_POINT('',(9.116530130022E-02,0.23345125703,1.29790298633
));
#94 = CARTESIAN_POINT('',(6.681324031787E-02,0.241035505123,
1.33377767112));
#95 = CARTESIAN_POINT('',(5.898927137849E-02,0.243170709607,
1.344658146487));
#96 = CARTESIAN_POINT('',(5.083564461348E-02,0.245085039376,
1.355327171447));
#97 = CARTESIAN_POINT('',(4.231684284217E-02,0.246752718602,
1.365750092169));
#98 = CARTESIAN_POINT('',(3.339286766756E-02,0.248134567684,
1.375863423841));
#99 = CARTESIAN_POINT('',(2.401923947633E-02,0.249178003248,
1.385574850679));
#100 = CARTESIAN_POINT('',(1.414699743887E-02,0.249817038152,
1.394763225918));
#101 = CARTESIAN_POINT('',(-7.994459614208E-03,0.250146778677,
1.412850023393));
#102 = CARTESIAN_POINT('',(-2.093177491713E-02,0.24970852104,
1.421976083109));
#103 = CARTESIAN_POINT('',(-3.502505348635E-02,0.248443141477,
1.430100726727));
#104 = CARTESIAN_POINT('',(-4.998914354383E-02,0.246079616173,
1.436344828477));
#105 = CARTESIAN_POINT('',(-6.53334908295E-02,0.242436344664,
1.439872802648));
#106 = CARTESIAN_POINT('',(-8.037769498405E-02,0.23756722993,
1.440259245175));
#107 = CARTESIAN_POINT('',(-9.426706593172E-02,0.231907758469,
1.437855575234));
#108 = CARTESIAN_POINT('',(-0.119787156701,0.21996175072,1.429802055715)
);
#109 = CARTESIAN_POINT('',(-0.132425862545,0.212867206946,1.423036544057
));
#110 = CARTESIAN_POINT('',(-0.143829792967,0.205405009005,1.414451833967
));
#111 = CARTESIAN_POINT('',(-0.154035723193,0.197783019628,1.404581317739
));
#112 = CARTESIAN_POINT('',(-0.16315728465,0.190144835653,1.393863285521)
);
#113 = CARTESIAN_POINT('',(-0.171350541096,0.182565219349,1.382604122989
));
#114 = CARTESIAN_POINT('',(-0.178779564768,0.175045529728,1.370941509024
));
#115 = CARTESIAN_POINT('',(-0.195254982857,0.156792549665,1.341553410635
));
#116 = CARTESIAN_POINT('',(-0.203579337102,0.146148696385,1.323531758927
));
#117 = CARTESIAN_POINT('',(-0.21085939101,0.135566957484,1.304969118918)
);
#118 = CARTESIAN_POINT('',(-0.217244532824,0.12504507633,1.285985352828)
);
#119 = CARTESIAN_POINT('',(-0.222842405135,0.114580597079,1.266664698879
));
#120 = CARTESIAN_POINT('',(-0.227739993391,0.104168604234,1.24706822682)
);
#121 = CARTESIAN_POINT('',(-0.231994239505,9.380196720549E-02,
1.227227841261));
#122 = CARTESIAN_POINT('',(-0.239399183505,7.289628358917E-02,
1.186625366002));
#123 = CARTESIAN_POINT('',(-0.24251858129,6.236683147844E-02,
1.165867773885));
#124 = CARTESIAN_POINT('',(-0.245060882631,5.187791901045E-02,
1.144921669761));
#125 = CARTESIAN_POINT('',(-0.247059721295,4.142747712774E-02,
1.123811476319));
#126 = CARTESIAN_POINT('',(-0.248538736743,3.101457643521E-02,
1.102555976569));
#127 = CARTESIAN_POINT('',(-0.249514913829,2.063891051079E-02,
1.08116991394));
#128 = CARTESIAN_POINT('',(-0.25,1.030055464364E-02,1.059664708292));
#129 = CARTESIAN_POINT('',(-0.25,0.,1.038048287806));
#130 = ORIENTED_EDGE('',*,*,#131,.T.);
#131 = EDGE_CURVE('',#76,#40,#132,.T.);
#132 = B_SPLINE_CURVE_WITH_KNOTS('',7,(#133,#134,#135,#136,#137,#138,
#139,#140,#141,#142,#143,#144,#145,#146,#147,#148,#149,#150,#151,
#152,#153,#154,#155,#156,#157,#158,#159,#160,#161,#162,#163,#164),
.UNSPECIFIED.,.F.,.F.,(8,6,6,6,6,8),(0.,0.221624972892,0.383727210831,
0.505308194009,0.708632409962,1.),.UNSPECIFIED.);
#133 = CARTESIAN_POINT('',(-0.25,0.,1.038048287806));
#134 = CARTESIAN_POINT('',(-0.25,-8.816027763628E-03,1.056549326803));
#135 = CARTESIAN_POINT('',(-0.249637255041,-1.773827105861E-02,
1.075130782893));
#136 = CARTESIAN_POINT('',(-0.248896250832,-2.677148693435E-02,
1.093793494418));
#137 = CARTESIAN_POINT('',(-0.247755999298,-3.592175522768E-02,
1.112537309251));
#138 = CARTESIAN_POINT('',(-0.246190341503,-4.519644837737E-02,
1.131361087877));
#139 = CARTESIAN_POINT('',(-0.244163997187,-5.460622675826E-02,
1.150264161219));
#140 = CARTESIAN_POINT('',(-0.239766805292,-7.116356278931E-02,
1.183135423252));
#141 = CARTESIAN_POINT('',(-0.237647878849,-7.818759174097E-02,
1.196960968712));
#142 = CARTESIAN_POINT('',(-0.235256820574,-8.524193059994E-02,
1.210718901741));
#143 = CARTESIAN_POINT('',(-0.232578667708,-9.232733712365E-02,
1.224398698283));
#144 = CARTESIAN_POINT('',(-0.229594255774,-9.944454261697E-02,
1.237986288077));
#145 = CARTESIAN_POINT('',(-0.226280218575,-0.106594251932,
1.251464054651));
#146 = CARTESIAN_POINT('',(-0.219855467913,-0.119164502868,1.27482127526
));
#147 = CARTESIAN_POINT('',(-0.216900384097,-0.124569812772,
1.284755848917));
#148 = CARTESIAN_POINT('',(-0.213732290375,-0.129993849395,
1.294606912618));
#149 = CARTESIAN_POINT('',(-0.21033631506,-0.135436840265,1.304362679734
));
#150 = CARTESIAN_POINT('',(-0.206694161139,-0.140898464226,
1.314007220684));
#151 = CARTESIAN_POINT('',(-0.202784106276,-0.146377851432,
1.323520462937));
#152 = CARTESIAN_POINT('',(-0.191552002939,-0.161064291925,1.34852745353
));
#153 = CARTESIAN_POINT('',(-0.183758746145,-0.17022414855,1.363608831819
));
#154 = CARTESIAN_POINT('',(-0.175029505803,-0.179446055407,
1.378191761886));
#155 = CARTESIAN_POINT('',(-0.165150509775,-0.18873049288,1.392105735369
));
#156 = CARTESIAN_POINT('',(-0.153913746999,-0.197999793258,
1.404994843416));
#157 = CARTESIAN_POINT('',(-0.141086869693,-0.207093888862,1.41627760258
));
#158 = CARTESIAN_POINT('',(-0.105122755896,-0.228148378673,
1.437528715395));
#159 = CARTESIAN_POINT('',(-8.27622569837E-02,-0.237959194079,
1.443080132677));
#160 = CARTESIAN_POINT('',(-6.246384676667E-02,-0.243590679819,
1.440338571178));
#161 = CARTESIAN_POINT('',(-4.402754682071E-02,-0.247295488421,
1.434491016986));
#162 = CARTESIAN_POINT('',(-2.804228544173E-02,-0.249106568926,
1.42615905472));
#163 = CARTESIAN_POINT('',(-1.369736140351E-02,-0.249999998681,
1.416978137985));
#164 = CARTESIAN_POINT('',(0.,-0.25,1.406256115466));
#165 = ORIENTED_EDGE('',*,*,#39,.F.);
#166 = CYLINDRICAL_SURFACE('',#167,0.25);
#167 = AXIS2_PLACEMENT_3D('',#168,#169,#170);
#168 = CARTESIAN_POINT('',(1.665334536938E-16,0.,-2.));
#169 = DIRECTION('',(-0.,0.,-1.));
#170 = DIRECTION('',(1.110223024625E-16,-1.,0.));
#171 = ADVANCED_FACE('',(#172),#267,.T.);
#172 = FACE_BOUND('',#173,.T.);
#173 = EDGE_LOOP('',(#174,#185,#192,#193,#194,#203,#259,#266));
#174 = ORIENTED_EDGE('',*,*,#175,.F.);
#175 = EDGE_CURVE('',#176,#178,#180,.T.);
#176 = VERTEX_POINT('',#177);
#177 = CARTESIAN_POINT('',(-2.,0.,4.6));
#178 = VERTEX_POINT('',#179);
#179 = CARTESIAN_POINT('',(2.5,-1.25,4.6));
#180 = CIRCLE('',#181,8.725);
#181 = AXIS2_PLACEMENT_3D('',#182,#183,#184);
#182 = CARTESIAN_POINT('',(2.5,7.475,4.6));
#183 = DIRECTION('',(0.,0.,1.));
#184 = DIRECTION('',(-0.515759312321,-0.856733524355,0.));
#185 = ORIENTED_EDGE('',*,*,#186,.T.);
#186 = EDGE_CURVE('',#176,#76,#187,.T.);
#187 = CIRCLE('',#188,4.5);
#188 = AXIS2_PLACEMENT_3D('',#189,#190,#191);
#189 = CARTESIAN_POINT('',(2.5,0.,4.6));
#190 = DIRECTION('',(0.,-1.,0.));
#191 = DIRECTION('',(-1.,0.,0.));
#192 = ORIENTED_EDGE('',*,*,#131,.T.);
#193 = ORIENTED_EDGE('',*,*,#47,.T.);
#194 = ORIENTED_EDGE('',*,*,#195,.T.);
#195 = EDGE_CURVE('',#48,#196,#198,.T.);
#196 = VERTEX_POINT('',#197);
#197 = CARTESIAN_POINT('',(4.75,0.,0.70288568297));
#198 = CIRCLE('',#199,4.5);
#199 = AXIS2_PLACEMENT_3D('',#200,#201,#202);
#200 = CARTESIAN_POINT('',(2.5,0.,4.6));
#201 = DIRECTION('',(0.,-1.,0.));
#202 = DIRECTION('',(-1.,0.,0.));
#203 = ORIENTED_EDGE('',*,*,#204,.T.);
#204 = EDGE_CURVE('',#196,#205,#207,.T.);
#205 = VERTEX_POINT('',#206);
#206 = CARTESIAN_POINT('',(5.25,0.,1.038048287806));
#207 = B_SPLINE_CURVE_WITH_KNOTS('',8,(#208,#209,#210,#211,#212,#213,
#214,#215,#216,#217,#218,#219,#220,#221,#222,#223,#224,#225,#226,
#227,#228,#229,#230,#231,#232,#233,#234,#235,#236,#237,#238,#239,
#240,#241,#242,#243,#244,#245,#246,#247,#248,#249,#250,#251,#252,
#253,#254,#255,#256,#257,#258),.UNSPECIFIED.,.F.,.F.,(9,7,7,7,7,7,7,
9),(0.,0.340678192166,0.496012102975,0.565481495418,0.643566746904,
0.735494571757,0.866214447228,1.),.UNSPECIFIED.);
#208 = CARTESIAN_POINT('',(4.75,0.,0.70288568297));
#209 = CARTESIAN_POINT('',(4.75,-2.551891326341E-02,0.751833150539));
#210 = CARTESIAN_POINT('',(4.752977390017,-5.027237363456E-02,
0.801925036872));
#211 = CARTESIAN_POINT('',(4.758616717247,-7.428286057469E-02,
0.853059398734));
#212 = CARTESIAN_POINT('',(4.766841136022,-9.750913722062E-02,
0.905159764641));
#213 = CARTESIAN_POINT('',(4.77760387723,-0.119892487244,0.958128813235)
);
#214 = CARTESIAN_POINT('',(4.791055225452,-0.141313202271,1.011874600937
));
#215 = CARTESIAN_POINT('',(4.807326855044,-0.161645990913,1.06626509197)
);
#216 = CARTESIAN_POINT('',(4.836178326104,-0.189258744782,1.146332549441
));
#217 = CARTESIAN_POINT('',(4.845922849198,-0.197594638819,1.171453883381
));
#218 = CARTESIAN_POINT('',(4.856455105315,-0.205615861606,1.196673118395
));
#219 = CARTESIAN_POINT('',(4.867882336782,-0.213285526087,1.221991569866
));
#220 = CARTESIAN_POINT('',(4.880298944488,-0.220554137549,1.247373768647
));
#221 = CARTESIAN_POINT('',(4.893898305751,-0.227312750296,1.27272255346)
);
#222 = CARTESIAN_POINT('',(4.908834698698,-0.23345125703,1.297902986328)
);
#223 = CARTESIAN_POINT('',(4.933186759681,-0.241035505123,1.333777671119
));
#224 = CARTESIAN_POINT('',(4.941010728619,-0.243170709607,1.344658146484
));
#225 = CARTESIAN_POINT('',(4.949164355383,-0.245085039376,1.355327171443
));
#226 = CARTESIAN_POINT('',(4.957683157154,-0.246752718602,1.365750092165
));
#227 = CARTESIAN_POINT('',(4.966607132331,-0.248134567683,1.375863423839
));
#228 = CARTESIAN_POINT('',(4.975980760524,-0.249178003248,1.38557485068)
);
#229 = CARTESIAN_POINT('',(4.985853002564,-0.249817038153,1.39476322592)
);
#230 = CARTESIAN_POINT('',(5.007994459615,-0.250146778677,1.412850023393
));
#231 = CARTESIAN_POINT('',(5.020931774915,-0.24970852104,1.421976083108)
);
#232 = CARTESIAN_POINT('',(5.035025053481,-0.248443141478,1.430100726724
));
#233 = CARTESIAN_POINT('',(5.049989143536,-0.246079616174,1.436344828474
));
#234 = CARTESIAN_POINT('',(5.065333490818,-0.242436344667,1.439872802645
));
#235 = CARTESIAN_POINT('',(5.080377694971,-0.237567229934,1.440259245175
));
#236 = CARTESIAN_POINT('',(5.094267065917,-0.231907758475,1.437855575237
));
#237 = CARTESIAN_POINT('',(5.119787156686,-0.219961750729,1.429802055722
));
#238 = CARTESIAN_POINT('',(5.132425862527,-0.212867206957,1.423036544069
));
#239 = CARTESIAN_POINT('',(5.143829792948,-0.205405009018,1.414451833983
));
#240 = CARTESIAN_POINT('',(5.154035723177,-0.19778301964,1.404581317756)
);
#241 = CARTESIAN_POINT('',(5.163157284638,-0.190144835664,1.393863285537
));
#242 = CARTESIAN_POINT('',(5.171350541088,-0.182565219357,1.382604123002
));
#243 = CARTESIAN_POINT('',(5.178779564763,-0.175045529734,1.370941509032
));
#244 = CARTESIAN_POINT('',(5.195254982852,-0.156792549671,1.341553410646
));
#245 = CARTESIAN_POINT('',(5.203579337097,-0.146148696392,1.323531758939
));
#246 = CARTESIAN_POINT('',(5.210859391004,-0.135566957492,1.304969118932
));
#247 = CARTESIAN_POINT('',(5.217244532818,-0.125045076339,1.285985352844
));
#248 = CARTESIAN_POINT('',(5.22284240513,-0.114580597089,1.266664698898)
);
#249 = CARTESIAN_POINT('',(5.227739993386,-0.104168604245,1.247068226841
));
#250 = CARTESIAN_POINT('',(5.231994239501,-9.380196721758E-02,
1.227227841284));
#251 = CARTESIAN_POINT('',(5.239399183502,-7.289628360053E-02,
1.186625366024));
#252 = CARTESIAN_POINT('',(5.242518581287,-6.236683148813E-02,
1.165867773904));
#253 = CARTESIAN_POINT('',(5.24506088263,-5.18779190185E-02,
1.144921669777));
#254 = CARTESIAN_POINT('',(5.247059721294,-4.142747713416E-02,
1.123811476332));
#255 = CARTESIAN_POINT('',(5.248538736742,-3.101457644001E-02,
1.102555976578));
#256 = CARTESIAN_POINT('',(5.249514913829,-2.063891051398E-02,
1.081169913947));
#257 = CARTESIAN_POINT('',(5.25,-1.030055464523E-02,1.059664708295));
#258 = CARTESIAN_POINT('',(5.25,0.,1.038048287806));
#259 = ORIENTED_EDGE('',*,*,#260,.T.);
#260 = EDGE_CURVE('',#205,#176,#261,.T.);
#261 = CIRCLE('',#262,4.5);
#262 = AXIS2_PLACEMENT_3D('',#263,#264,#265);
#263 = CARTESIAN_POINT('',(2.5,0.,4.6));
#264 = DIRECTION('',(0.,-1.,0.));
#265 = DIRECTION('',(-1.,0.,0.));
#266 = ORIENTED_EDGE('',*,*,#175,.T.);
#267 = SPHERICAL_SURFACE('',#268,8.725);
#268 = AXIS2_PLACEMENT_3D('',#269,#270,#271);
#269 = CARTESIAN_POINT('',(2.5,7.475,4.6));
#270 = DIRECTION('',(0.,-1.,0.));
#271 = DIRECTION('',(-1.,0.,0.));
#272 = ADVANCED_FACE('',(#273),#352,.T.);
#273 = FACE_BOUND('',#274,.T.);
#274 = EDGE_LOOP('',(#275,#284,#285,#286,#323,#349,#350,#351));
#275 = ORIENTED_EDGE('',*,*,#276,.F.);
#276 = EDGE_CURVE('',#277,#176,#279,.T.);
#277 = VERTEX_POINT('',#278);
#278 = CARTESIAN_POINT('',(2.5,1.25,4.6));
#279 = CIRCLE('',#280,8.725);
#280 = AXIS2_PLACEMENT_3D('',#281,#282,#283);
#281 = CARTESIAN_POINT('',(2.5,-7.475,4.6));
#282 = DIRECTION('',(0.,0.,1.));
#283 = DIRECTION('',(-1.908692879012E-16,1.,0.));
#284 = ORIENTED_EDGE('',*,*,#276,.T.);
#285 = ORIENTED_EDGE('',*,*,#260,.F.);
#286 = ORIENTED_EDGE('',*,*,#287,.T.);
#287 = EDGE_CURVE('',#205,#288,#290,.T.);
#288 = VERTEX_POINT('',#289);
#289 = CARTESIAN_POINT('',(5.,0.25,1.406256115466));
#290 = B_SPLINE_CURVE_WITH_KNOTS('',7,(#291,#292,#293,#294,#295,#296,
#297,#298,#299,#300,#301,#302,#303,#304,#305,#306,#307,#308,#309,
#310,#311,#312,#313,#314,#315,#316,#317,#318,#319,#320,#321,#322),
.UNSPECIFIED.,.F.,.F.,(8,6,6,6,6,8),(0.,0.221624973016,0.383727211009,
0.50530819415,0.708632410003,1.),.UNSPECIFIED.);
#291 = CARTESIAN_POINT('',(5.25,0.,1.038048287806));
#292 = CARTESIAN_POINT('',(5.25,8.81602776456E-03,1.056549326805));
#293 = CARTESIAN_POINT('',(5.249637255041,1.773827106048E-02,
1.075130782897));
#294 = CARTESIAN_POINT('',(5.248896250832,2.677148693721E-02,
1.093793494424));
#295 = CARTESIAN_POINT('',(5.247755999298,3.592175523155E-02,
1.112537309259));
#296 = CARTESIAN_POINT('',(5.246190341502,4.519644838225E-02,
1.131361087887));
#297 = CARTESIAN_POINT('',(5.244163997185,5.460622676421E-02,
1.150264161231));
#298 = CARTESIAN_POINT('',(5.23976680529,7.116356279559E-02,
1.183135423264));
#299 = CARTESIAN_POINT('',(5.237647878847,7.818759174788E-02,
1.196960968726));
#300 = CARTESIAN_POINT('',(5.235256820571,8.524193060733E-02,
1.210718901755));
#301 = CARTESIAN_POINT('',(5.232578667705,9.232733713074E-02,
1.224398698297));
#302 = CARTESIAN_POINT('',(5.229594255771,9.944454262321E-02,
1.237986288089));
#303 = CARTESIAN_POINT('',(5.226280218572,0.106594251938,1.251464054663)
);
#304 = CARTESIAN_POINT('',(5.21985546791,0.119164502874,1.274821275272)
);
#305 = CARTESIAN_POINT('',(5.216900384094,0.124569812777,1.284755848926)
);
#306 = CARTESIAN_POINT('',(5.213732290373,0.129993849399,1.294606912625)
);
#307 = CARTESIAN_POINT('',(5.210336315058,0.135436840269,1.30436267974)
);
#308 = CARTESIAN_POINT('',(5.206694161136,0.14089846423,1.314007220692)
);
#309 = CARTESIAN_POINT('',(5.202784106272,0.146377851438,1.323520462948)
);
#310 = CARTESIAN_POINT('',(5.191552002932,0.161064291934,1.348527453545)
);
#311 = CARTESIAN_POINT('',(5.183758746137,0.170224148559,1.363608831834)
);
#312 = CARTESIAN_POINT('',(5.175029505792,0.179446055418,1.378191761903)
);
#313 = CARTESIAN_POINT('',(5.165150509761,0.188730492892,1.392105735387)
);
#314 = CARTESIAN_POINT('',(5.153913746982,0.197999793271,1.404994843434)
);
#315 = CARTESIAN_POINT('',(5.141086869675,0.207093888874,1.416277602594)
);
#316 = CARTESIAN_POINT('',(5.105122755885,0.228148378678,1.437528715398)
);
#317 = CARTESIAN_POINT('',(5.082762256975,0.237959194082,1.443080132676)
);
#318 = CARTESIAN_POINT('',(5.06246384676,0.243590679821,1.440338571177)
);
#319 = CARTESIAN_POINT('',(5.044027546817,0.247295488422,1.434491016984)
);
#320 = CARTESIAN_POINT('',(5.028042285439,0.249106568926,1.426159054718)
);
#321 = CARTESIAN_POINT('',(5.013697361403,0.249999998681,1.416978137984)
);
#322 = CARTESIAN_POINT('',(5.,0.25,1.406256115466));
#323 = ORIENTED_EDGE('',*,*,#324,.T.);
#324 = EDGE_CURVE('',#288,#196,#325,.T.);
#325 = B_SPLINE_CURVE_WITH_KNOTS('',8,(#326,#327,#328,#329,#330,#331,
#332,#333,#334,#335,#336,#337,#338,#339,#340,#341,#342,#343,#344,
#345,#346,#347,#348),.UNSPECIFIED.,.F.,.F.,(9,7,7,9),(0.,
0.252764059906,0.622695704873,1.),.UNSPECIFIED.);
#326 = CARTESIAN_POINT('',(5.,0.25,1.406256115466));
#327 = CARTESIAN_POINT('',(4.981800231845,0.249999998247,1.392009690309)
);
#328 = CARTESIAN_POINT('',(4.964949552992,0.248485975521,1.375348348468)
);
#329 = CARTESIAN_POINT('',(4.94923168176,0.245849306775,1.357061893446)
);
#330 = CARTESIAN_POINT('',(4.934557099436,0.242296201957,1.337593614395)
);
#331 = CARTESIAN_POINT('',(4.92082237434,0.23800569542,1.317299197615));
#332 = CARTESIAN_POINT('',(4.907938485878,0.233088322216,1.296378010735)
);
#333 = CARTESIAN_POINT('',(4.895805854101,0.227621050358,1.274940854649)
);
#334 = CARTESIAN_POINT('',(4.867518481197,0.21285673296,1.220838492788)
);
#335 = CARTESIAN_POINT('',(4.852220306082,0.203019089615,1.187793825001)
);
#336 = CARTESIAN_POINT('',(4.838222943555,0.192294943961,1.154128346352)
);
#337 = CARTESIAN_POINT('',(4.8254409933,0.180790539179,1.120034354082));
#338 = CARTESIAN_POINT('',(4.813806111895,0.168593525029,1.085665495825)
);
#339 = CARTESIAN_POINT('',(4.803280207887,0.155763965727,1.051129439175)
);
#340 = CARTESIAN_POINT('',(4.793835904059,0.142345034532,1.016500987591)
);
#341 = CARTESIAN_POINT('',(4.776929793303,0.114088229674,0.946442365924)
);
#342 = CARTESIAN_POINT('',(4.769523409597,9.924777312003E-02,
0.911060449512));
#343 = CARTESIAN_POINT('',(4.763240174234,8.386930358716E-02,
0.875738630581));
#344 = CARTESIAN_POINT('',(4.758100136351,6.798424554859E-02,
0.840551713227));
#345 = CARTESIAN_POINT('',(4.754141026218,5.162365634503E-02,
0.805581076455));
#346 = CARTESIAN_POINT('',(4.751416225257,3.481916144296E-02,
0.770914617192));
#347 = CARTESIAN_POINT('',(4.75,1.760197418041E-02,0.736647781357));
#348 = CARTESIAN_POINT('',(4.75,0.,0.70288568297));
#349 = ORIENTED_EDGE('',*,*,#195,.F.);
#350 = ORIENTED_EDGE('',*,*,#75,.T.);
#351 = ORIENTED_EDGE('',*,*,#186,.F.);
#352 = SPHERICAL_SURFACE('',#353,8.725);
#353 = AXIS2_PLACEMENT_3D('',#354,#355,#356);
#354 = CARTESIAN_POINT('',(2.5,-7.475,4.6));
#355 = DIRECTION('',(0.,-1.,0.));
#356 = DIRECTION('',(-1.,0.,0.));
#357 = ADVANCED_FACE('',(#358),#379,.T.);
#358 = FACE_BOUND('',#359,.F.);
#359 = EDGE_LOOP('',(#360,#369,#375,#376,#377,#378));
#360 = ORIENTED_EDGE('',*,*,#361,.F.);
#361 = EDGE_CURVE('',#362,#362,#364,.T.);
#362 = VERTEX_POINT('',#363);
#363 = CARTESIAN_POINT('',(5.,0.25,-2.));
#364 = CIRCLE('',#365,0.25);
#365 = AXIS2_PLACEMENT_3D('',#366,#367,#368);
#366 = CARTESIAN_POINT('',(5.,0.,-2.));
#367 = DIRECTION('',(0.,-0.,1.));
#368 = DIRECTION('',(1.144237745222E-17,1.,0.));
#369 = ORIENTED_EDGE('',*,*,#370,.T.);
#370 = EDGE_CURVE('',#362,#288,#371,.T.);
#371 = LINE('',#372,#373);
#372 = CARTESIAN_POINT('',(5.,0.25,-2.));
#373 = VECTOR('',#374,1.);
#374 = DIRECTION('',(0.,0.,1.));
#375 = ORIENTED_EDGE('',*,*,#324,.T.);
#376 = ORIENTED_EDGE('',*,*,#204,.T.);
#377 = ORIENTED_EDGE('',*,*,#287,.T.);
#378 = ORIENTED_EDGE('',*,*,#370,.F.);
#379 = CYLINDRICAL_SURFACE('',#380,0.25);
#380 = AXIS2_PLACEMENT_3D('',#381,#382,#383);
#381 = CARTESIAN_POINT('',(5.,0.,-2.));
#382 = DIRECTION('',(0.,-0.,-1.));
#383 = DIRECTION('',(1.144237745222E-17,1.,0.));
#384 = ADVANCED_FACE('',(#385),#388,.T.);
#385 = FACE_BOUND('',#386,.F.);
#386 = EDGE_LOOP('',(#387));
#387 = ORIENTED_EDGE('',*,*,#361,.T.);
#388 = PLANE('',#389);
#389 = AXIS2_PLACEMENT_3D('',#390,#391,#392);
#390 = CARTESIAN_POINT('',(5.,0.25,-2.));
#391 = DIRECTION('',(-0.,0.,-1.));
#392 = DIRECTION('',(-1.144237745222E-17,-1.,0.));
#393 = ( GEOMETRIC_REPRESENTATION_CONTEXT(3)
GLOBAL_UNCERTAINTY_ASSIGNED_CONTEXT((#397)) GLOBAL_UNIT_ASSIGNED_CONTEXT
((#394,#395,#396)) REPRESENTATION_CONTEXT('Context #1',
'3D Context with UNIT and UNCERTAINTY') );
#394 = ( LENGTH_UNIT() NAMED_UNIT(*) SI_UNIT(.MILLI.,.METRE.) );
#395 = ( NAMED_UNIT(*) PLANE_ANGLE_UNIT() SI_UNIT($,.RADIAN.) );
#396 = ( NAMED_UNIT(*) SI_UNIT($,.STERADIAN.) SOLID_ANGLE_UNIT() );
#397 = UNCERTAINTY_MEASURE_WITH_UNIT(LENGTH_MEASURE(2.E-06),#394,
'distance_accuracy_value','confusion accuracy');
#398 = PRODUCT_TYPE('part',$,(#7));
#399 = MECHANICAL_DESIGN_GEOMETRIC_PRESENTATION_REPRESENTATION('',(#400,
#408,#415,#423,#430,#437),#393);
#400 = STYLED_ITEM('color',(#401),#17);
#401 = PRESENTATION_STYLE_ASSIGNMENT((#402));
#402 = SURFACE_STYLE_USAGE(.BOTH.,#403);
#403 = SURFACE_SIDE_STYLE('',(#404));
#404 = SURFACE_STYLE_FILL_AREA(#405);
#405 = FILL_AREA_STYLE('',(#406));
#406 = FILL_AREA_STYLE_COLOUR('',#407);
#407 = COLOUR_RGB('',0.824000000954,0.819999992847,0.78100001812);
#408 = STYLED_ITEM('color',(#409),#34);
#409 = PRESENTATION_STYLE_ASSIGNMENT((#410));
#410 = SURFACE_STYLE_USAGE(.BOTH.,#411);
#411 = SURFACE_SIDE_STYLE('',(#412));
#412 = SURFACE_STYLE_FILL_AREA(#413);
#413 = FILL_AREA_STYLE('',(#414));
#414 = FILL_AREA_STYLE_COLOUR('',#407);
#415 = STYLED_ITEM('color',(#416),#171);
#416 = PRESENTATION_STYLE_ASSIGNMENT((#417));
#417 = SURFACE_STYLE_USAGE(.BOTH.,#418);
#418 = SURFACE_SIDE_STYLE('',(#419));
#419 = SURFACE_STYLE_FILL_AREA(#420);
#420 = FILL_AREA_STYLE('',(#421));
#421 = FILL_AREA_STYLE_COLOUR('',#422);
#422 = COLOUR_RGB('',0.809000015259,0.425999999046,0.148000001907);
#423 = STYLED_ITEM('color',(#424),#272);
#424 = PRESENTATION_STYLE_ASSIGNMENT((#425));
#425 = SURFACE_STYLE_USAGE(.BOTH.,#426);
#426 = SURFACE_SIDE_STYLE('',(#427));
#427 = SURFACE_STYLE_FILL_AREA(#428);
#428 = FILL_AREA_STYLE('',(#429));
#429 = FILL_AREA_STYLE_COLOUR('',#422);
#430 = STYLED_ITEM('color',(#431),#357);
#431 = PRESENTATION_STYLE_ASSIGNMENT((#432));
#432 = SURFACE_STYLE_USAGE(.BOTH.,#433);
#433 = SURFACE_SIDE_STYLE('',(#434));
#434 = SURFACE_STYLE_FILL_AREA(#435);
#435 = FILL_AREA_STYLE('',(#436));
#436 = FILL_AREA_STYLE_COLOUR('',#407);
#437 = STYLED_ITEM('color',(#438),#384);
#438 = PRESENTATION_STYLE_ASSIGNMENT((#439));
#439 = SURFACE_STYLE_USAGE(.BOTH.,#440);
#440 = SURFACE_SIDE_STYLE('',(#441));
#441 = SURFACE_STYLE_FILL_AREA(#442);
#442 = FILL_AREA_STYLE('',(#443));
#443 = FILL_AREA_STYLE_COLOUR('',#407);
ENDSEC;
END-ISO-10303-21;
