ISO-10303-21;
HEADER;
/* RV_Disc_D12mm_W5.1mm_P7.5mm.step 3D STEP model for use in ECAD systems
 * Copyright (C) 2018, kicad StepUp
 * 
 * This work is licensed under the [Creative Commons CC-BY-SA 4.0 License](https://creativecommons.org/licenses/by-sa/4.0/legalcode), 
 * with the following exception:
 * To the extent that the creation of electronic designs that use 'Licensed Material' can be considered to be 'Adapted Material', 
 * then the copyright holder waives article 3 of the license with respect to these designs and any generated files which use data provided 
 * as part of the 'Licensed Material'.
 * You are free to use the library data in your own projects without the obligation to share your project files under this or any other license agreement.
 * However, if you wish to redistribute these libraries, or parts thereof (including in modified form) as a collection then the exception above does not apply. 
 * Please refer to https://github.com/KiCad/kicad-packages3D/blob/master/LICENSE.md for further clarification of the exception.
 * Disclaimer of Warranties and Limitation of Liability.
 * These libraries are provided in the hope that they will be useful, but are provided without warranty of any kind, express or implied.
 * *USE 3D CAD DATA AT YOUR OWN RISK*
 * *DO NOT RELY UPON ANY INFORMATION FOUND HERE WITHOUT INDEPENDENT VERIFICATION.*
 * 
 */

FILE_DESCRIPTION(
/* description */ ('model of RV_Disc_D12mm_W5.1mm_P7.5mm'),
/* implementation_level */ '2;1');

FILE_NAME(
/* name */ 'RV_Disc_D12mm_W5.1mm_P7.5mm.step',
/* time_stamp */ '2018-11-11T20:35:47',
/* author */ ('kicad StepUp','ksu'),
/* organization */ ('FreeCAD'),
/* preprocessor_version */ 'OCC',
/* originating_system */ 'kicad StepUp',
/* authorisation */ '');

FILE_SCHEMA(('AUTOMOTIVE_DESIGN { 1 0 10303 214 1 1 1 1 }'));
ENDSEC;

DATA;
#1 = APPLICATION_PROTOCOL_DEFINITION('international standard',
'automotive_design',2000,#2);
#2 = APPLICATION_CONTEXT(
'core data for automotive mechanical design processes');
#3 = SHAPE_DEFINITION_REPRESENTATION(#4,#10);
#4 = PRODUCT_DEFINITION_SHAPE('','',#5);
#5 = PRODUCT_DEFINITION('design','',#6,#9);
#6 = PRODUCT_DEFINITION_FORMATION('','',#7);
#7 = PRODUCT('RV_Disc_D12mm_W51mm_P75mm','RV_Disc_D12mm_W51mm_P75mm','',
(#8));
#8 = PRODUCT_CONTEXT('',#2,'mechanical');
#9 = PRODUCT_DEFINITION_CONTEXT('part definition',#2,'design');
#10 = ADVANCED_BREP_SHAPE_REPRESENTATION('',(#11,#15),#389);
#11 = AXIS2_PLACEMENT_3D('',#12,#13,#14);
#12 = CARTESIAN_POINT('',(0.E+000,0.E+000,0.E+000));
#13 = DIRECTION('',(0.E+000,0.E+000,1.));
#14 = DIRECTION('',(1.,0.E+000,-0.E+000));
#15 = MANIFOLD_SOLID_BREP('',#16);
#16 = CLOSED_SHELL('',(#17,#50,#149,#249,#258,#284,#293,#319,#345,#371,
#380));
#17 = ADVANCED_FACE('',(#18),#45,.T.);
#18 = FACE_BOUND('',#19,.F.);
#19 = EDGE_LOOP('',(#20,#30,#37,#38));
#20 = ORIENTED_EDGE('',*,*,#21,.T.);
#21 = EDGE_CURVE('',#22,#24,#26,.T.);
#22 = VERTEX_POINT('',#23);
#23 = CARTESIAN_POINT('',(9.75,-1.087804878049,6.03));
#24 = VERTEX_POINT('',#25);
#25 = CARTESIAN_POINT('',(9.75,-1.212195121951,6.03));
#26 = LINE('',#27,#28);
#27 = CARTESIAN_POINT('',(9.75,1.4,6.03));
#28 = VECTOR('',#29,1.);
#29 = DIRECTION('',(0.E+000,-1.,0.E+000));
#30 = ORIENTED_EDGE('',*,*,#31,.T.);
#31 = EDGE_CURVE('',#24,#24,#32,.T.);
#32 = CIRCLE('',#33,6.);
#33 = AXIS2_PLACEMENT_3D('',#34,#35,#36);
#34 = CARTESIAN_POINT('',(3.75,-1.212195121951,6.03));
#35 = DIRECTION('',(5.478200730701E-033,-1.,-7.304267640935E-033));
#36 = DIRECTION('',(1.,5.478200730701E-033,3.028598777949E-033));
#37 = ORIENTED_EDGE('',*,*,#21,.F.);
#38 = ORIENTED_EDGE('',*,*,#39,.F.);
#39 = EDGE_CURVE('',#22,#22,#40,.T.);
#40 = CIRCLE('',#41,6.);
#41 = AXIS2_PLACEMENT_3D('',#42,#43,#44);
#42 = CARTESIAN_POINT('',(3.75,-1.087804878049,6.03));
#43 = DIRECTION('',(5.478200730701E-033,-1.,-7.304267640935E-033));
#44 = DIRECTION('',(1.,5.478200730701E-033,-3.028598777949E-033));
#45 = CYLINDRICAL_SURFACE('',#46,6.);
#46 = AXIS2_PLACEMENT_3D('',#47,#48,#49);
#47 = CARTESIAN_POINT('',(3.75,1.4,6.03));
#48 = DIRECTION('',(0.E+000,1.,0.E+000));
#49 = DIRECTION('',(1.,0.E+000,0.E+000));
#50 = ADVANCED_FACE('',(#51,#71),#144,.T.);
#51 = FACE_BOUND('',#52,.F.);
#52 = EDGE_LOOP('',(#53,#54,#63,#70));
#53 = ORIENTED_EDGE('',*,*,#39,.T.);
#54 = ORIENTED_EDGE('',*,*,#55,.T.);
#55 = EDGE_CURVE('',#22,#56,#58,.T.);
#56 = VERTEX_POINT('',#57);
#57 = CARTESIAN_POINT('',(7.262195121951,1.4,6.03));
#58 = CIRCLE('',#59,2.487804878049);
#59 = AXIS2_PLACEMENT_3D('',#60,#61,#62);
#60 = CARTESIAN_POINT('',(7.262195121951,-1.087804878049,6.03));
#61 = DIRECTION('',(3.028598777949E-033,-7.304267640935E-033,1.));
#62 = DIRECTION('',(1.,5.478200730701E-033,-3.028598777949E-033));
#63 = ORIENTED_EDGE('',*,*,#64,.F.);
#64 = EDGE_CURVE('',#56,#56,#65,.T.);
#65 = CIRCLE('',#66,3.512195121951);
#66 = AXIS2_PLACEMENT_3D('',#67,#68,#69);
#67 = CARTESIAN_POINT('',(3.75,1.4,6.03));
#68 = DIRECTION('',(5.478200730701E-033,-1.,-7.304267640935E-033));
#69 = DIRECTION('',(1.,5.478200730701E-033,-3.028598777949E-033));
#70 = ORIENTED_EDGE('',*,*,#55,.F.);
#71 = FACE_BOUND('',#72,.F.);
#72 = EDGE_LOOP('',(#73,#103));
#73 = ORIENTED_EDGE('',*,*,#74,.T.);
#74 = EDGE_CURVE('',#75,#77,#79,.T.);
#75 = VERTEX_POINT('',#76);
#76 = CARTESIAN_POINT('',(0.36,0.E+000,1.386135878463));
#77 = VERTEX_POINT('',#78);
#78 = CARTESIAN_POINT('',(-0.294087034578,-0.2076362591,1.818061755219)
);
#79 = B_SPLINE_CURVE_WITH_KNOTS('',8,(#80,#81,#82,#83,#84,#85,#86,#87,
#88,#89,#90,#91,#92,#93,#94,#95,#96,#97,#98,#99,#100,#101,#102),
.UNSPECIFIED.,.F.,.F.,(9,7,7,9),(0.E+000,0.195126852634,0.385874314245
,1.),.UNSPECIFIED.);
#80 = CARTESIAN_POINT('',(0.36,-1.665334536938E-016,1.386135878463));
#81 = CARTESIAN_POINT('',(0.36,-2.185471179594E-002,1.372980207692));
#82 = CARTESIAN_POINT('',(0.358483673014,-4.398052953548E-002,
1.361156540577));
#83 = CARTESIAN_POINT('',(0.355385400084,-6.625362461865E-002,
1.350782842214));
#84 = CARTESIAN_POINT('',(0.350650181568,-8.852932779931E-002,
1.341973957416));
#85 = CARTESIAN_POINT('',(0.344242324907,-0.110641868692,1.334833731287)
);
#86 = CARTESIAN_POINT('',(0.336153804939,-0.132407782577,1.329446540209)
);
#87 = CARTESIAN_POINT('',(0.326412296762,-0.1536329845,1.325868233268));
#88 = CARTESIAN_POINT('',(0.3040196062,-0.194154151273,1.322404050848));
#89 = CARTESIAN_POINT('',(0.291434679355,-0.21348985409,1.322436502559)
);
#90 = CARTESIAN_POINT('',(0.277400112326,-0.231945325063,1.324233080293)
);
#91 = CARTESIAN_POINT('',(0.262013236886,-0.24935304269,1.327775153544)
);
#92 = CARTESIAN_POINT('',(0.245396486578,-0.26556814087,1.333012149381)
);
#93 = CARTESIAN_POINT('',(0.227691187261,-0.280471549209,1.339867461459)
);
#94 = CARTESIAN_POINT('',(0.209051356507,-0.293971390789,1.348244338879)
);
#95 = CARTESIAN_POINT('',(0.127133190358,-0.344738133636,1.389543071071)
);
#96 = CARTESIAN_POINT('',(5.679522862455E-002,-0.368133414628,
1.435580121869));
#97 = CARTESIAN_POINT('',(-1.625387736507E-002,-0.374381763527,
1.492438373582));
#98 = CARTESIAN_POINT('',(-8.698823850854E-002,-0.36445711408,
1.555610583301));
#99 = CARTESIAN_POINT('',(-0.152000512415,-0.340552869299,1.62190295468)
);
#100 = CARTESIAN_POINT('',(-0.209043334429,-0.305160856291,
1.688788331577));
#101 = CARTESIAN_POINT('',(-0.256862534661,-0.260359433952,
1.754673384763));
#102 = CARTESIAN_POINT('',(-0.294087034578,-0.2076362591,1.818061755219)
);
#103 = ORIENTED_EDGE('',*,*,#104,.T.);
#104 = EDGE_CURVE('',#77,#75,#105,.T.);
#105 = B_SPLINE_CURVE_WITH_KNOTS('',7,(#106,#107,#108,#109,#110,#111,
#112,#113,#114,#115,#116,#117,#118,#119,#120,#121,#122,#123,#124,
#125,#126,#127,#128,#129,#130,#131,#132,#133,#134,#135,#136,#137,
#138,#139,#140,#141,#142,#143),.UNSPECIFIED.,.F.,.F.,(8,6,6,6,6,6,8)
,(0.E+000,0.214331176617,0.27703314801,0.381982499478,0.541840000233,
0.731409763811,1.),.UNSPECIFIED.);
#106 = CARTESIAN_POINT('',(-0.294087034578,-0.2076362591,1.818061755219)
);
#107 = CARTESIAN_POINT('',(-0.316996323108,-0.175188531727,
1.857073225391));
#108 = CARTESIAN_POINT('',(-0.335742454087,-0.139772818552,
1.895005721204));
#109 = CARTESIAN_POINT('',(-0.349983081535,-0.101853954112,
1.931421625529));
#110 = CARTESIAN_POINT('',(-0.359343694232,-6.192644077726E-002,
1.965804017462));
#111 = CARTESIAN_POINT('',(-0.363431642243,-2.056980465465E-002,
1.997504165363));
#112 = CARTESIAN_POINT('',(-0.361872299409,2.150715400386E-002,
2.025705342292));
#113 = CARTESIAN_POINT('',(-0.352171813839,7.569856511305E-002,
2.056335635109));
#114 = CARTESIAN_POINT('',(-0.349468043936,8.794751344064E-002,
2.062880920379));
#115 = CARTESIAN_POINT('',(-0.346249407754,0.100156721069,2.069013286976
));
#116 = CARTESIAN_POINT('',(-0.342510428135,0.112300443076,2.074705414741
));
#117 = CARTESIAN_POINT('',(-0.338247468454,0.124350741332,2.079928914981
));
#118 = CARTESIAN_POINT('',(-0.333459405964,0.136277696413,2.08465504942)
);
#119 = CARTESIAN_POINT('',(-0.319258686905,0.16775323756,2.095885997251)
);
#120 = CARTESIAN_POINT('',(-0.308901994479,0.187026426609,2.101445077251
));
#121 = CARTESIAN_POINT('',(-0.297090129183,0.205713743038,2.105396785594
));
#122 = CARTESIAN_POINT('',(-0.283862596488,0.223647847368,2.107611924846
));
#123 = CARTESIAN_POINT('',(-0.26929586453,0.240657563113,2.107984258424)
);
#124 = CARTESIAN_POINT('',(-0.2535083581,0.256580120823,2.1064493872));
#125 = CARTESIAN_POINT('',(-0.210999543346,0.293664579043,2.097761702622
));
#126 = CARTESIAN_POINT('',(-0.182859969099,0.313226046283,2.088085743262
));
#127 = CARTESIAN_POINT('',(-0.152820585988,0.329451788362,2.073964874719
));
#128 = CARTESIAN_POINT('',(-0.121566352193,0.342090976446,2.055710890523
));
#129 = CARTESIAN_POINT('',(-8.974704580967E-002,0.351130805446,
2.033883709116));
#130 = CARTESIAN_POINT('',(-5.791772610713E-002,0.356701662875,
2.009134948611));
#131 = CARTESIAN_POINT('',(1.069063871798E-002,0.361771594797,
1.950082712169));
#132 = CARTESIAN_POINT('',(4.72924030131E-002,0.359949279745,
1.91485582382));
#133 = CARTESIAN_POINT('',(8.270338803702E-002,0.353931321891,
1.877375621043));
#134 = CARTESIAN_POINT('',(0.116534353837,0.344120464918,1.838486230982)
);
#135 = CARTESIAN_POINT('',(0.148522331102,0.330875179347,1.798873960279)
);
#136 = CARTESIAN_POINT('',(0.17847383563,0.314470682453,1.759065327847)
);
#137 = CARTESIAN_POINT('',(0.245501014022,0.267632598287,1.663413860451)
);
#138 = CARTESIAN_POINT('',(0.280238465014,0.234273287145,1.607951302661)
);
#139 = CARTESIAN_POINT('',(0.309927561838,0.195597538013,1.554331595521)
);
#140 = CARTESIAN_POINT('',(0.333821482163,0.152028145016,1.503789074317)
);
#141 = CARTESIAN_POINT('',(0.350919860176,0.104147729538,1.457782199034)
);
#142 = CARTESIAN_POINT('',(0.36,5.293199250923E-002,1.417998841158));
#143 = CARTESIAN_POINT('',(0.36,-1.665334536938E-016,1.386135878463));
#144 = TOROIDAL_SURFACE('',#145,3.512195121951,2.487804878049);
#145 = AXIS2_PLACEMENT_3D('',#146,#147,#148);
#146 = CARTESIAN_POINT('',(3.75,-1.087804878049,6.03));
#147 = DIRECTION('',(-5.478200730701E-033,1.,7.304267640935E-033));
#148 = DIRECTION('',(1.,5.478200730701E-033,-3.028598777949E-033));
#149 = ADVANCED_FACE('',(#150,#170),#244,.T.);
#150 = FACE_BOUND('',#151,.T.);
#151 = EDGE_LOOP('',(#152,#153,#162,#169));
#152 = ORIENTED_EDGE('',*,*,#31,.T.);
#153 = ORIENTED_EDGE('',*,*,#154,.T.);
#154 = EDGE_CURVE('',#24,#155,#157,.T.);
#155 = VERTEX_POINT('',#156);
#156 = CARTESIAN_POINT('',(7.262195121951,-3.7,6.03));
#157 = CIRCLE('',#158,2.487804878049);
#158 = AXIS2_PLACEMENT_3D('',#159,#160,#161);
#159 = CARTESIAN_POINT('',(7.262195121951,-1.212195121951,6.03));
#160 = DIRECTION('',(3.028598777949E-033,7.304267640935E-033,-1.));
#161 = DIRECTION('',(1.,5.478200730701E-033,3.028598777949E-033));
#162 = ORIENTED_EDGE('',*,*,#163,.F.);
#163 = EDGE_CURVE('',#155,#155,#164,.T.);
#164 = CIRCLE('',#165,3.512195121951);
#165 = AXIS2_PLACEMENT_3D('',#166,#167,#168);
#166 = CARTESIAN_POINT('',(3.75,-3.7,6.03));
#167 = DIRECTION('',(5.478200730701E-033,-1.,-7.304267640935E-033));
#168 = DIRECTION('',(1.,5.478200730701E-033,3.028598777949E-033));
#169 = ORIENTED_EDGE('',*,*,#154,.F.);
#170 = FACE_BOUND('',#171,.T.);
#171 = EDGE_LOOP('',(#172,#191));
#172 = ORIENTED_EDGE('',*,*,#173,.T.);
#173 = EDGE_CURVE('',#174,#176,#178,.T.);
#174 = VERTEX_POINT('',#175);
#175 = CARTESIAN_POINT('',(7.86,-2.3,2.009368957576));
#176 = VERTEX_POINT('',#177);
#177 = CARTESIAN_POINT('',(7.464555037029,-1.941749173623,1.458180651301
));
#178 = B_SPLINE_CURVE_WITH_KNOTS('',6,(#179,#180,#181,#182,#183,#184,
#185,#186,#187,#188,#189,#190),.UNSPECIFIED.,.F.,.F.,(7,5,7),(
0.E+000,0.503360923914,1.),.UNSPECIFIED.);
#179 = CARTESIAN_POINT('',(7.86,-2.3,2.009368957576));
#180 = CARTESIAN_POINT('',(7.86,-2.248527973091,1.973582025765));
#181 = CARTESIAN_POINT('',(7.851168884262,-2.198239289832,1.932298005351
));
#182 = CARTESIAN_POINT('',(7.834267005375,-2.15059991027,1.887256624375)
);
#183 = CARTESIAN_POINT('',(7.810083888583,-2.106750550857,1.839674500237
));
#184 = CARTESIAN_POINT('',(7.779394158929,-2.067677745936,1.790515815769
));
#185 = CARTESIAN_POINT('',(7.707064731061,-2.001513265322,1.69153018441)
);
#186 = CARTESIAN_POINT('',(7.665632552909,-1.974319909197,1.641797469086
));
#187 = CARTESIAN_POINT('',(7.619455603997,-1.953692312792,1.592337978013
));
#188 = CARTESIAN_POINT('',(7.569461242782,-1.940724864119,1.544189948944
));
#189 = CARTESIAN_POINT('',(7.517145085329,-1.936545969115,1.498853097812
));
#190 = CARTESIAN_POINT('',(7.464555037029,-1.941749173623,1.458180651301
));
#191 = ORIENTED_EDGE('',*,*,#192,.T.);
#192 = EDGE_CURVE('',#176,#174,#193,.T.);
#193 = B_SPLINE_CURVE_WITH_KNOTS('',7,(#194,#195,#196,#197,#198,#199,
#200,#201,#202,#203,#204,#205,#206,#207,#208,#209,#210,#211,#212,
#213,#214,#215,#216,#217,#218,#219,#220,#221,#222,#223,#224,#225,
#226,#227,#228,#229,#230,#231,#232,#233,#234,#235,#236,#237,#238,
#239,#240,#241,#242,#243),.UNSPECIFIED.,.F.,.F.,(8,6,6,6,6,6,6,6,8),
(0.E+000,0.197902819531,0.300167840646,0.354319483003,0.527676689137,
0.737022441805,0.821016139652,0.925156531171,1.),.UNSPECIFIED.);
#194 = CARTESIAN_POINT('',(7.464555037029,-1.941749173623,1.458180651301
));
#195 = CARTESIAN_POINT('',(7.417132736834,-1.946441086525,1.421504872698
));
#196 = CARTESIAN_POINT('',(7.369465307664,-1.958552367311,1.388493860117
));
#197 = CARTESIAN_POINT('',(7.323097195708,-1.978475707494,1.360529739618
));
#198 = CARTESIAN_POINT('',(7.279825013386,-2.00614884267,1.339049847214)
);
#199 = CARTESIAN_POINT('',(7.241545719786,-2.040867907505,1.325411420374
));
#200 = CARTESIAN_POINT('',(7.20985439362,-2.081105865617,1.320468404316)
);
#201 = CARTESIAN_POINT('',(7.172948367136,-2.147341711455,1.325862245185
));
#202 = CARTESIAN_POINT('',(7.162336542624,-2.170829971067,1.329969913432
));
#203 = CARTESIAN_POINT('',(7.153790511358,-2.194961760618,1.336323935101
));
#204 = CARTESIAN_POINT('',(7.147339157057,-2.219457342144,1.344834239687
));
#205 = CARTESIAN_POINT('',(7.142952793151,-2.24406013651,1.355365395456)
);
#206 = CARTESIAN_POINT('',(7.14056121061,-2.268549104756,1.367756128889)
);
#207 = CARTESIAN_POINT('',(7.139814828957,-2.305548506869,1.389293639038
));
#208 = CARTESIAN_POINT('',(7.140090158829,-2.318275212326,1.397224667578
));
#209 = CARTESIAN_POINT('',(7.140885769908,-2.330892899168,1.405605997537
));
#210 = CARTESIAN_POINT('',(7.142186817342,-2.34337792977,1.414412821914)
);
#211 = CARTESIAN_POINT('',(7.143977620782,-2.355709346151,1.423620389708
));
#212 = CARTESIAN_POINT('',(7.146242226823,-2.36786870194,1.433204454441)
);
#213 = CARTESIAN_POINT('',(7.157681371917,-2.418163615998,1.474954184626
));
#214 = CARTESIAN_POINT('',(7.171087530554,-2.454534416514,1.510366138665
));
#215 = CARTESIAN_POINT('',(7.188665284066,-2.488464953697,1.548634563112
));
#216 = CARTESIAN_POINT('',(7.20993486567,-2.519620270521,1.589069072586)
);
#217 = CARTESIAN_POINT('',(7.234490636294,-2.54775323585,1.631043736164)
);
#218 = CARTESIAN_POINT('',(7.262010840822,-2.572637878093,1.673975668964
));
#219 = CARTESIAN_POINT('',(7.328747728452,-2.619798198497,1.769553008691
));
#220 = CARTESIAN_POINT('',(7.369091362157,-2.640378161279,1.822199944535
));
#221 = CARTESIAN_POINT('',(7.412918513229,-2.655410492623,1.874349619786
));
#222 = CARTESIAN_POINT('',(7.459821002009,-2.664148984103,1.924741275495
));
#223 = CARTESIAN_POINT('',(7.509061873147,-2.665636754213,1.971508917535
));
#224 = CARTESIAN_POINT('',(7.559258336323,-2.658802929128,2.012150060108
));
#225 = CARTESIAN_POINT('',(7.628059576864,-2.637086800267,2.057500447024
));
#226 = CARTESIAN_POINT('',(7.647558773538,-2.629481838491,2.069137230764
));
#227 = CARTESIAN_POINT('',(7.6667048731,-2.620481091971,2.079279077455)
);
#228 = CARTESIAN_POINT('',(7.685336985465,-2.610101927138,2.087801876275
));
#229 = CARTESIAN_POINT('',(7.70329103857,-2.598394314593,2.094616015911)
);
#230 = CARTESIAN_POINT('',(7.720408666536,-2.585444362396,2.099675433572
));
#231 = CARTESIAN_POINT('',(7.756561390483,-2.553931148136,2.107084739718
));
#232 = CARTESIAN_POINT('',(7.775080637819,-2.534758695909,2.108495592081
));
#233 = CARTESIAN_POINT('',(7.791835367495,-2.514089702705,2.107216541126
));
#234 = CARTESIAN_POINT('',(7.806641720433,-2.492204892487,2.103376699614
));
#235 = CARTESIAN_POINT('',(7.819399066363,-2.469393680128,2.097178644732
));
#236 = CARTESIAN_POINT('',(7.83007517876,-2.445927336276,2.08885445046)
);
#237 = CARTESIAN_POINT('',(7.844866091934,-2.404881915808,2.071286690375
));
#238 = CARTESIAN_POINT('',(7.849982922602,-2.38750064607,2.062959170127)
);
#239 = CARTESIAN_POINT('',(7.854037181197,-2.369985534316,2.053732935064
));
#240 = CARTESIAN_POINT('',(7.857043524032,-2.352413027961,2.04368830661)
);
#241 = CARTESIAN_POINT('',(7.859022947091,-2.334851919176,2.032901193668
));
#242 = CARTESIAN_POINT('',(7.86,-2.317363213758,2.021441070996));
#243 = CARTESIAN_POINT('',(7.86,-2.3,2.009368957576));
#244 = TOROIDAL_SURFACE('',#245,3.512195121951,2.487804878049);
#245 = AXIS2_PLACEMENT_3D('',#246,#247,#248);
#246 = CARTESIAN_POINT('',(3.75,-1.212195121951,6.03));
#247 = DIRECTION('',(5.478200730701E-033,-1.,-7.304267640935E-033));
#248 = DIRECTION('',(1.,5.478200730701E-033,3.028598777949E-033));
#249 = ADVANCED_FACE('',(#250),#253,.F.);
#250 = FACE_BOUND('',#251,.F.);
#251 = EDGE_LOOP('',(#252));
#252 = ORIENTED_EDGE('',*,*,#64,.T.);
#253 = PLANE('',#254);
#254 = AXIS2_PLACEMENT_3D('',#255,#256,#257);
#255 = CARTESIAN_POINT('',(3.75,1.4,6.03));
#256 = DIRECTION('',(5.478200730701E-033,-1.,-7.304267640935E-033));
#257 = DIRECTION('',(0.E+000,7.304267640935E-033,-1.));
#258 = ADVANCED_FACE('',(#259),#279,.T.);
#259 = FACE_BOUND('',#260,.T.);
#260 = EDGE_LOOP('',(#261,#262,#270,#277,#278));
#261 = ORIENTED_EDGE('',*,*,#104,.T.);
#262 = ORIENTED_EDGE('',*,*,#263,.T.);
#263 = EDGE_CURVE('',#75,#264,#266,.T.);
#264 = VERTEX_POINT('',#265);
#265 = CARTESIAN_POINT('',(0.36,0.E+000,-2.856));
#266 = LINE('',#267,#268);
#267 = CARTESIAN_POINT('',(0.36,0.E+000,6.03));
#268 = VECTOR('',#269,1.);
#269 = DIRECTION('',(-0.E+000,-0.E+000,-1.));
#270 = ORIENTED_EDGE('',*,*,#271,.T.);
#271 = EDGE_CURVE('',#264,#264,#272,.T.);
#272 = CIRCLE('',#273,0.36);
#273 = AXIS2_PLACEMENT_3D('',#274,#275,#276);
#274 = CARTESIAN_POINT('',(0.E+000,0.E+000,-2.856));
#275 = DIRECTION('',(0.E+000,0.E+000,1.));
#276 = DIRECTION('',(1.,0.E+000,0.E+000));
#277 = ORIENTED_EDGE('',*,*,#263,.F.);
#278 = ORIENTED_EDGE('',*,*,#74,.T.);
#279 = CYLINDRICAL_SURFACE('',#280,0.36);
#280 = AXIS2_PLACEMENT_3D('',#281,#282,#283);
#281 = CARTESIAN_POINT('',(0.E+000,0.E+000,6.03));
#282 = DIRECTION('',(0.E+000,0.E+000,1.));
#283 = DIRECTION('',(1.,0.E+000,0.E+000));
#284 = ADVANCED_FACE('',(#285),#288,.T.);
#285 = FACE_BOUND('',#286,.T.);
#286 = EDGE_LOOP('',(#287));
#287 = ORIENTED_EDGE('',*,*,#163,.T.);
#288 = PLANE('',#289);
#289 = AXIS2_PLACEMENT_3D('',#290,#291,#292);
#290 = CARTESIAN_POINT('',(3.75,-3.7,6.03));
#291 = DIRECTION('',(5.478200730701E-033,-1.,-7.304267640935E-033));
#292 = DIRECTION('',(0.E+000,7.304267640935E-033,-1.));
#293 = ADVANCED_FACE('',(#294),#314,.T.);
#294 = FACE_BOUND('',#295,.T.);
#295 = EDGE_LOOP('',(#296,#297,#305,#312,#313));
#296 = ORIENTED_EDGE('',*,*,#173,.F.);
#297 = ORIENTED_EDGE('',*,*,#298,.T.);
#298 = EDGE_CURVE('',#174,#299,#301,.T.);
#299 = VERTEX_POINT('',#300);
#300 = CARTESIAN_POINT('',(7.86,-2.3,-2.856));
#301 = LINE('',#302,#303);
#302 = CARTESIAN_POINT('',(7.86,-2.3,6.03));
#303 = VECTOR('',#304,1.);
#304 = DIRECTION('',(-0.E+000,-0.E+000,-1.));
#305 = ORIENTED_EDGE('',*,*,#306,.T.);
#306 = EDGE_CURVE('',#299,#299,#307,.T.);
#307 = CIRCLE('',#308,0.36);
#308 = AXIS2_PLACEMENT_3D('',#309,#310,#311);
#309 = CARTESIAN_POINT('',(7.5,-2.3,-2.856));
#310 = DIRECTION('',(0.E+000,0.E+000,1.));
#311 = DIRECTION('',(1.,0.E+000,0.E+000));
#312 = ORIENTED_EDGE('',*,*,#298,.F.);
#313 = ORIENTED_EDGE('',*,*,#192,.F.);
#314 = CYLINDRICAL_SURFACE('',#315,0.36);
#315 = AXIS2_PLACEMENT_3D('',#316,#317,#318);
#316 = CARTESIAN_POINT('',(7.5,-2.3,6.03));
#317 = DIRECTION('',(0.E+000,0.E+000,1.));
#318 = DIRECTION('',(1.,0.E+000,0.E+000));
#319 = ADVANCED_FACE('',(#320),#340,.T.);
#320 = FACE_BOUND('',#321,.F.);
#321 = EDGE_LOOP('',(#322,#331,#332,#333));
#322 = ORIENTED_EDGE('',*,*,#323,.F.);
#323 = EDGE_CURVE('',#264,#324,#326,.T.);
#324 = VERTEX_POINT('',#325);
#325 = CARTESIAN_POINT('',(0.216,0.E+000,-3.));
#326 = CIRCLE('',#327,0.144);
#327 = AXIS2_PLACEMENT_3D('',#328,#329,#330);
#328 = CARTESIAN_POINT('',(0.216,0.E+000,-2.856));
#329 = DIRECTION('',(-0.E+000,1.,0.E+000));
#330 = DIRECTION('',(1.,0.E+000,0.E+000));
#331 = ORIENTED_EDGE('',*,*,#271,.T.);
#332 = ORIENTED_EDGE('',*,*,#323,.T.);
#333 = ORIENTED_EDGE('',*,*,#334,.F.);
#334 = EDGE_CURVE('',#324,#324,#335,.T.);
#335 = CIRCLE('',#336,0.216);
#336 = AXIS2_PLACEMENT_3D('',#337,#338,#339);
#337 = CARTESIAN_POINT('',(0.E+000,0.E+000,-3.));
#338 = DIRECTION('',(0.E+000,0.E+000,1.));
#339 = DIRECTION('',(1.,0.E+000,0.E+000));
#340 = TOROIDAL_SURFACE('',#341,0.216,0.144);
#341 = AXIS2_PLACEMENT_3D('',#342,#343,#344);
#342 = CARTESIAN_POINT('',(0.E+000,0.E+000,-2.856));
#343 = DIRECTION('',(-0.E+000,-0.E+000,-1.));
#344 = DIRECTION('',(1.,0.E+000,0.E+000));
#345 = ADVANCED_FACE('',(#346),#366,.T.);
#346 = FACE_BOUND('',#347,.F.);
#347 = EDGE_LOOP('',(#348,#357,#358,#359));
#348 = ORIENTED_EDGE('',*,*,#349,.F.);
#349 = EDGE_CURVE('',#299,#350,#352,.T.);
#350 = VERTEX_POINT('',#351);
#351 = CARTESIAN_POINT('',(7.716,-2.3,-3.));
#352 = CIRCLE('',#353,0.144);
#353 = AXIS2_PLACEMENT_3D('',#354,#355,#356);
#354 = CARTESIAN_POINT('',(7.716,-2.3,-2.856));
#355 = DIRECTION('',(-0.E+000,1.,0.E+000));
#356 = DIRECTION('',(1.,0.E+000,0.E+000));
#357 = ORIENTED_EDGE('',*,*,#306,.T.);
#358 = ORIENTED_EDGE('',*,*,#349,.T.);
#359 = ORIENTED_EDGE('',*,*,#360,.F.);
#360 = EDGE_CURVE('',#350,#350,#361,.T.);
#361 = CIRCLE('',#362,0.216);
#362 = AXIS2_PLACEMENT_3D('',#363,#364,#365);
#363 = CARTESIAN_POINT('',(7.5,-2.3,-3.));
#364 = DIRECTION('',(0.E+000,0.E+000,1.));
#365 = DIRECTION('',(1.,0.E+000,0.E+000));
#366 = TOROIDAL_SURFACE('',#367,0.216,0.144);
#367 = AXIS2_PLACEMENT_3D('',#368,#369,#370);
#368 = CARTESIAN_POINT('',(7.5,-2.3,-2.856));
#369 = DIRECTION('',(-0.E+000,-0.E+000,-1.));
#370 = DIRECTION('',(1.,0.E+000,0.E+000));
#371 = ADVANCED_FACE('',(#372),#375,.F.);
#372 = FACE_BOUND('',#373,.F.);
#373 = EDGE_LOOP('',(#374));
#374 = ORIENTED_EDGE('',*,*,#334,.T.);
#375 = PLANE('',#376);
#376 = AXIS2_PLACEMENT_3D('',#377,#378,#379);
#377 = CARTESIAN_POINT('',(-1.483767504926E-017,1.497958850874E-017,-3.)
);
#378 = DIRECTION('',(0.E+000,0.E+000,1.));
#379 = DIRECTION('',(1.,0.E+000,0.E+000));
#380 = ADVANCED_FACE('',(#381),#384,.F.);
#381 = FACE_BOUND('',#382,.F.);
#382 = EDGE_LOOP('',(#383));
#383 = ORIENTED_EDGE('',*,*,#360,.T.);
#384 = PLANE('',#385);
#385 = AXIS2_PLACEMENT_3D('',#386,#387,#388);
#386 = CARTESIAN_POINT('',(7.5,-2.3,-3.));
#387 = DIRECTION('',(0.E+000,0.E+000,1.));
#388 = DIRECTION('',(1.,0.E+000,0.E+000));
#389 = ( GEOMETRIC_REPRESENTATION_CONTEXT(3)
GLOBAL_UNCERTAINTY_ASSIGNED_CONTEXT((#393)) GLOBAL_UNIT_ASSIGNED_CONTEXT
((#390,#391,#392)) REPRESENTATION_CONTEXT('Context #1',
'3D Context with UNIT and UNCERTAINTY') );
#390 = ( LENGTH_UNIT() NAMED_UNIT(*) SI_UNIT(.MILLI.,.METRE.) );
#391 = ( NAMED_UNIT(*) PLANE_ANGLE_UNIT() SI_UNIT($,.RADIAN.) );
#392 = ( NAMED_UNIT(*) SI_UNIT($,.STERADIAN.) SOLID_ANGLE_UNIT() );
#393 = UNCERTAINTY_MEASURE_WITH_UNIT(LENGTH_MEASURE(1.E-007),#390,
'distance_accuracy_value','confusion accuracy');
#394 = PRODUCT_RELATED_PRODUCT_CATEGORY('part',$,(#7));
#395 = MECHANICAL_DESIGN_GEOMETRIC_PRESENTATION_REPRESENTATION('',(#396,
#404,#411,#418,#425,#433,#440,#447,#454,#461,#468),#389);
#396 = STYLED_ITEM('color',(#397),#17);
#397 = PRESENTATION_STYLE_ASSIGNMENT((#398));
#398 = SURFACE_STYLE_USAGE(.BOTH.,#399);
#399 = SURFACE_SIDE_STYLE('',(#400));
#400 = SURFACE_STYLE_FILL_AREA(#401);
#401 = FILL_AREA_STYLE('',(#402));
#402 = FILL_AREA_STYLE_COLOUR('',#403);
#403 = COLOUR_RGB('',0.136999994516,0.402000010014,0.726999998093);
#404 = STYLED_ITEM('color',(#405),#50);
#405 = PRESENTATION_STYLE_ASSIGNMENT((#406));
#406 = SURFACE_STYLE_USAGE(.BOTH.,#407);
#407 = SURFACE_SIDE_STYLE('',(#408));
#408 = SURFACE_STYLE_FILL_AREA(#409);
#409 = FILL_AREA_STYLE('',(#410));
#410 = FILL_AREA_STYLE_COLOUR('',#403);
#411 = STYLED_ITEM('color',(#412),#149);
#412 = PRESENTATION_STYLE_ASSIGNMENT((#413));
#413 = SURFACE_STYLE_USAGE(.BOTH.,#414);
#414 = SURFACE_SIDE_STYLE('',(#415));
#415 = SURFACE_STYLE_FILL_AREA(#416);
#416 = FILL_AREA_STYLE('',(#417));
#417 = FILL_AREA_STYLE_COLOUR('',#403);
#418 = STYLED_ITEM('color',(#419),#249);
#419 = PRESENTATION_STYLE_ASSIGNMENT((#420));
#420 = SURFACE_STYLE_USAGE(.BOTH.,#421);
#421 = SURFACE_SIDE_STYLE('',(#422));
#422 = SURFACE_STYLE_FILL_AREA(#423);
#423 = FILL_AREA_STYLE('',(#424));
#424 = FILL_AREA_STYLE_COLOUR('',#403);
#425 = STYLED_ITEM('color',(#426),#258);
#426 = PRESENTATION_STYLE_ASSIGNMENT((#427));
#427 = SURFACE_STYLE_USAGE(.BOTH.,#428);
#428 = SURFACE_SIDE_STYLE('',(#429));
#429 = SURFACE_STYLE_FILL_AREA(#430);
#430 = FILL_AREA_STYLE('',(#431));
#431 = FILL_AREA_STYLE_COLOUR('',#432);
#432 = COLOUR_RGB('',0.824000000954,0.819999992847,0.78100001812);
#433 = STYLED_ITEM('color',(#434),#284);
#434 = PRESENTATION_STYLE_ASSIGNMENT((#435));
#435 = SURFACE_STYLE_USAGE(.BOTH.,#436);
#436 = SURFACE_SIDE_STYLE('',(#437));
#437 = SURFACE_STYLE_FILL_AREA(#438);
#438 = FILL_AREA_STYLE('',(#439));
#439 = FILL_AREA_STYLE_COLOUR('',#403);
#440 = STYLED_ITEM('color',(#441),#293);
#441 = PRESENTATION_STYLE_ASSIGNMENT((#442));
#442 = SURFACE_STYLE_USAGE(.BOTH.,#443);
#443 = SURFACE_SIDE_STYLE('',(#444));
#444 = SURFACE_STYLE_FILL_AREA(#445);
#445 = FILL_AREA_STYLE('',(#446));
#446 = FILL_AREA_STYLE_COLOUR('',#432);
#447 = STYLED_ITEM('color',(#448),#319);
#448 = PRESENTATION_STYLE_ASSIGNMENT((#449));
#449 = SURFACE_STYLE_USAGE(.BOTH.,#450);
#450 = SURFACE_SIDE_STYLE('',(#451));
#451 = SURFACE_STYLE_FILL_AREA(#452);
#452 = FILL_AREA_STYLE('',(#453));
#453 = FILL_AREA_STYLE_COLOUR('',#432);
#454 = STYLED_ITEM('color',(#455),#345);
#455 = PRESENTATION_STYLE_ASSIGNMENT((#456));
#456 = SURFACE_STYLE_USAGE(.BOTH.,#457);
#457 = SURFACE_SIDE_STYLE('',(#458));
#458 = SURFACE_STYLE_FILL_AREA(#459);
#459 = FILL_AREA_STYLE('',(#460));
#460 = FILL_AREA_STYLE_COLOUR('',#432);
#461 = STYLED_ITEM('color',(#462),#371);
#462 = PRESENTATION_STYLE_ASSIGNMENT((#463));
#463 = SURFACE_STYLE_USAGE(.BOTH.,#464);
#464 = SURFACE_SIDE_STYLE('',(#465));
#465 = SURFACE_STYLE_FILL_AREA(#466);
#466 = FILL_AREA_STYLE('',(#467));
#467 = FILL_AREA_STYLE_COLOUR('',#432);
#468 = STYLED_ITEM('color',(#469),#380);
#469 = PRESENTATION_STYLE_ASSIGNMENT((#470));
#470 = SURFACE_STYLE_USAGE(.BOTH.,#471);
#471 = SURFACE_SIDE_STYLE('',(#472));
#472 = SURFACE_STYLE_FILL_AREA(#473);
#473 = FILL_AREA_STYLE('',(#474));
#474 = FILL_AREA_STYLE_COLOUR('',#432);
ENDSEC;
END-ISO-10303-21;
