ISO-10303-21;
HEADER;
FILE_DESCRIPTION(('FreeCAD Model'),'2;1');
FILE_NAME(
'D:/KiCAD/packages3D-source/LED_THT.3dshapes\\
LED_Rectangular_W3.9mm_H1.8mm.step','2017-11-25T21:54:44',(
    'kicad StepUp'),('ksu MCAD'),'Open CASCADE STEP processor 6.8',
  'FreeCAD','Unknown');
FILE_SCHEMA(('AUTOMOTIVE_DESIGN_CC2 { 1 2 10303 214 -1 1 5 4 }'));
ENDSEC;
DATA;
#1 = APPLICATION_PROTOCOL_DEFINITION('committee draft',
  'automotive_design',1997,#2);
#2 = APPLICATION_CONTEXT(
  'core data for automotive mechanical design processes');
#3 = SHAPE_DEFINITION_REPRESENTATION(#4,#10);
#4 = PRODUCT_DEFINITION_SHAPE('','',#5);
#5 = PRODUCT_DEFINITION('design','',#6,#9);
#6 = PRODUCT_DEFINITION_FORMATION('','',#7);
#7 = PRODUCT('LED_Rectangular_W3.9mm_H1.8mm',
  'LED_Rectangular_W3.9mm_H1.8mm','',(#8));
#8 = MECHANICAL_CONTEXT('',#2,'mechanical');
#9 = PRODUCT_DEFINITION_CONTEXT('part definition',#2,'design');
#10 = ADVANCED_BREP_SHAPE_REPRESENTATION('',(#11,#15),#449);
#11 = AXIS2_PLACEMENT_3D('',#12,#13,#14);
#12 = CARTESIAN_POINT('',(0.E+000,0.E+000,0.E+000));
#13 = DIRECTION('',(0.E+000,0.E+000,1.));
#14 = DIRECTION('',(1.,0.E+000,-0.E+000));
#15 = MANIFOLD_SOLID_BREP('',#16);
#16 = CLOSED_SHELL('',(#17,#57,#88,#119,#204,#221,#233,#264,#288,#312,
    #329,#360,#384,#408,#425,#437));
#17 = ADVANCED_FACE('',(#18),#52,.F.);
#18 = FACE_BOUND('',#19,.F.);
#19 = EDGE_LOOP('',(#20,#30,#38,#46));
#20 = ORIENTED_EDGE('',*,*,#21,.T.);
#21 = EDGE_CURVE('',#22,#24,#26,.T.);
#22 = VERTEX_POINT('',#23);
#23 = CARTESIAN_POINT('',(-0.68,-0.875,3.));
#24 = VERTEX_POINT('',#25);
#25 = CARTESIAN_POINT('',(-0.68,-0.875,10.));
#26 = LINE('',#27,#28);
#27 = CARTESIAN_POINT('',(-0.68,-0.875,3.));
#28 = VECTOR('',#29,1.);
#29 = DIRECTION('',(0.E+000,-1.224646799147E-016,1.));
#30 = ORIENTED_EDGE('',*,*,#31,.T.);
#31 = EDGE_CURVE('',#24,#32,#34,.T.);
#32 = VERTEX_POINT('',#33);
#33 = CARTESIAN_POINT('',(3.22,-0.875,10.));
#34 = LINE('',#35,#36);
#35 = CARTESIAN_POINT('',(-0.68,-0.875,10.));
#36 = VECTOR('',#37,1.);
#37 = DIRECTION('',(1.,0.E+000,0.E+000));
#38 = ORIENTED_EDGE('',*,*,#39,.F.);
#39 = EDGE_CURVE('',#40,#32,#42,.T.);
#40 = VERTEX_POINT('',#41);
#41 = CARTESIAN_POINT('',(3.22,-0.875,3.));
#42 = LINE('',#43,#44);
#43 = CARTESIAN_POINT('',(3.22,-0.875,3.));
#44 = VECTOR('',#45,1.);
#45 = DIRECTION('',(0.E+000,-1.224646799147E-016,1.));
#46 = ORIENTED_EDGE('',*,*,#47,.F.);
#47 = EDGE_CURVE('',#22,#40,#48,.T.);
#48 = LINE('',#49,#50);
#49 = CARTESIAN_POINT('',(-0.68,-0.875,3.));
#50 = VECTOR('',#51,1.);
#51 = DIRECTION('',(1.,0.E+000,0.E+000));
#52 = PLANE('',#53);
#53 = AXIS2_PLACEMENT_3D('',#54,#55,#56);
#54 = CARTESIAN_POINT('',(-0.68,-0.875,3.));
#55 = DIRECTION('',(0.E+000,1.,1.224646799147E-016));
#56 = DIRECTION('',(1.,0.E+000,0.E+000));
#57 = ADVANCED_FACE('',(#58),#83,.F.);
#58 = FACE_BOUND('',#59,.F.);
#59 = EDGE_LOOP('',(#60,#70,#76,#77));
#60 = ORIENTED_EDGE('',*,*,#61,.T.);
#61 = EDGE_CURVE('',#62,#64,#66,.T.);
#62 = VERTEX_POINT('',#63);
#63 = CARTESIAN_POINT('',(-0.68,0.875,3.));
#64 = VERTEX_POINT('',#65);
#65 = CARTESIAN_POINT('',(-0.68,0.875,10.));
#66 = LINE('',#67,#68);
#67 = CARTESIAN_POINT('',(-0.68,0.875,3.));
#68 = VECTOR('',#69,1.);
#69 = DIRECTION('',(0.E+000,-1.224646799147E-016,1.));
#70 = ORIENTED_EDGE('',*,*,#71,.T.);
#71 = EDGE_CURVE('',#64,#24,#72,.T.);
#72 = LINE('',#73,#74);
#73 = CARTESIAN_POINT('',(-0.68,0.875,10.));
#74 = VECTOR('',#75,1.);
#75 = DIRECTION('',(0.E+000,-1.,-1.224646799147E-016));
#76 = ORIENTED_EDGE('',*,*,#21,.F.);
#77 = ORIENTED_EDGE('',*,*,#78,.F.);
#78 = EDGE_CURVE('',#62,#22,#79,.T.);
#79 = LINE('',#80,#81);
#80 = CARTESIAN_POINT('',(-0.68,0.875,3.));
#81 = VECTOR('',#82,1.);
#82 = DIRECTION('',(0.E+000,-1.,-1.224646799147E-016));
#83 = PLANE('',#84);
#84 = AXIS2_PLACEMENT_3D('',#85,#86,#87);
#85 = CARTESIAN_POINT('',(-0.68,0.875,3.));
#86 = DIRECTION('',(1.,0.E+000,0.E+000));
#87 = DIRECTION('',(0.E+000,-1.,-1.224646799147E-016));
#88 = ADVANCED_FACE('',(#89),#114,.F.);
#89 = FACE_BOUND('',#90,.F.);
#90 = EDGE_LOOP('',(#91,#92,#100,#108));
#91 = ORIENTED_EDGE('',*,*,#39,.T.);
#92 = ORIENTED_EDGE('',*,*,#93,.T.);
#93 = EDGE_CURVE('',#32,#94,#96,.T.);
#94 = VERTEX_POINT('',#95);
#95 = CARTESIAN_POINT('',(3.22,0.875,10.));
#96 = LINE('',#97,#98);
#97 = CARTESIAN_POINT('',(3.22,-0.875,10.));
#98 = VECTOR('',#99,1.);
#99 = DIRECTION('',(0.E+000,1.,1.224646799147E-016));
#100 = ORIENTED_EDGE('',*,*,#101,.F.);
#101 = EDGE_CURVE('',#102,#94,#104,.T.);
#102 = VERTEX_POINT('',#103);
#103 = CARTESIAN_POINT('',(3.22,0.875,3.));
#104 = LINE('',#105,#106);
#105 = CARTESIAN_POINT('',(3.22,0.875,3.));
#106 = VECTOR('',#107,1.);
#107 = DIRECTION('',(0.E+000,-1.224646799147E-016,1.));
#108 = ORIENTED_EDGE('',*,*,#109,.F.);
#109 = EDGE_CURVE('',#40,#102,#110,.T.);
#110 = LINE('',#111,#112);
#111 = CARTESIAN_POINT('',(3.22,-0.875,3.));
#112 = VECTOR('',#113,1.);
#113 = DIRECTION('',(0.E+000,1.,1.224646799147E-016));
#114 = PLANE('',#115);
#115 = AXIS2_PLACEMENT_3D('',#116,#117,#118);
#116 = CARTESIAN_POINT('',(3.22,-0.875,3.));
#117 = DIRECTION('',(-1.,0.E+000,-0.E+000));
#118 = DIRECTION('',(0.E+000,1.,1.224646799147E-016));
#119 = ADVANCED_FACE('',(#120,#131,#165),#199,.T.);
#120 = FACE_BOUND('',#121,.T.);
#121 = EDGE_LOOP('',(#122,#123,#124,#130));
#122 = ORIENTED_EDGE('',*,*,#47,.F.);
#123 = ORIENTED_EDGE('',*,*,#78,.F.);
#124 = ORIENTED_EDGE('',*,*,#125,.F.);
#125 = EDGE_CURVE('',#102,#62,#126,.T.);
#126 = LINE('',#127,#128);
#127 = CARTESIAN_POINT('',(3.22,0.875,3.));
#128 = VECTOR('',#129,1.);
#129 = DIRECTION('',(-1.,0.E+000,-0.E+000));
#130 = ORIENTED_EDGE('',*,*,#109,.F.);
#131 = FACE_BOUND('',#132,.T.);
#132 = EDGE_LOOP('',(#133,#143,#151,#159));
#133 = ORIENTED_EDGE('',*,*,#134,.F.);
#134 = EDGE_CURVE('',#135,#137,#139,.T.);
#135 = VERTEX_POINT('',#136);
#136 = CARTESIAN_POINT('',(2.34,0.2,3.));
#137 = VERTEX_POINT('',#138);
#138 = CARTESIAN_POINT('',(2.74,0.2,3.));
#139 = LINE('',#140,#141);
#140 = CARTESIAN_POINT('',(0.83,0.2,3.));
#141 = VECTOR('',#142,1.);
#142 = DIRECTION('',(1.,0.E+000,0.E+000));
#143 = ORIENTED_EDGE('',*,*,#144,.F.);
#144 = EDGE_CURVE('',#145,#135,#147,.T.);
#145 = VERTEX_POINT('',#146);
#146 = CARTESIAN_POINT('',(2.34,-0.2,3.));
#147 = LINE('',#148,#149);
#148 = CARTESIAN_POINT('',(2.34,-0.5375,3.));
#149 = VECTOR('',#150,1.);
#150 = DIRECTION('',(0.E+000,1.,1.224646799147E-016));
#151 = ORIENTED_EDGE('',*,*,#152,.F.);
#152 = EDGE_CURVE('',#153,#145,#155,.T.);
#153 = VERTEX_POINT('',#154);
#154 = CARTESIAN_POINT('',(2.74,-0.2,3.));
#155 = LINE('',#156,#157);
#156 = CARTESIAN_POINT('',(1.03,-0.2,3.));
#157 = VECTOR('',#158,1.);
#158 = DIRECTION('',(-1.,0.E+000,0.E+000));
#159 = ORIENTED_EDGE('',*,*,#160,.F.);
#160 = EDGE_CURVE('',#137,#153,#161,.T.);
#161 = LINE('',#162,#163);
#162 = CARTESIAN_POINT('',(2.74,-0.3375,3.));
#163 = VECTOR('',#164,1.);
#164 = DIRECTION('',(-0.E+000,-1.,-1.224646799147E-016));
#165 = FACE_BOUND('',#166,.T.);
#166 = EDGE_LOOP('',(#167,#177,#185,#193));
#167 = ORIENTED_EDGE('',*,*,#168,.F.);
#168 = EDGE_CURVE('',#169,#171,#173,.T.);
#169 = VERTEX_POINT('',#170);
#170 = CARTESIAN_POINT('',(-0.2,0.2,3.));
#171 = VERTEX_POINT('',#172);
#172 = CARTESIAN_POINT('',(0.2,0.2,3.));
#173 = LINE('',#174,#175);
#174 = CARTESIAN_POINT('',(-0.44,0.2,3.));
#175 = VECTOR('',#176,1.);
#176 = DIRECTION('',(1.,0.E+000,0.E+000));
#177 = ORIENTED_EDGE('',*,*,#178,.F.);
#178 = EDGE_CURVE('',#179,#169,#181,.T.);
#179 = VERTEX_POINT('',#180);
#180 = CARTESIAN_POINT('',(-0.2,-0.2,3.));
#181 = LINE('',#182,#183);
#182 = CARTESIAN_POINT('',(-0.2,-0.5375,3.));
#183 = VECTOR('',#184,1.);
#184 = DIRECTION('',(0.E+000,1.,1.224646799147E-016));
#185 = ORIENTED_EDGE('',*,*,#186,.F.);
#186 = EDGE_CURVE('',#187,#179,#189,.T.);
#187 = VERTEX_POINT('',#188);
#188 = CARTESIAN_POINT('',(0.2,-0.2,3.));
#189 = LINE('',#190,#191);
#190 = CARTESIAN_POINT('',(-0.24,-0.2,3.));
#191 = VECTOR('',#192,1.);
#192 = DIRECTION('',(-1.,0.E+000,0.E+000));
#193 = ORIENTED_EDGE('',*,*,#194,.F.);
#194 = EDGE_CURVE('',#171,#187,#195,.T.);
#195 = LINE('',#196,#197);
#196 = CARTESIAN_POINT('',(0.2,-0.3375,3.));
#197 = VECTOR('',#198,1.);
#198 = DIRECTION('',(-0.E+000,-1.,-1.224646799147E-016));
#199 = PLANE('',#200);
#200 = AXIS2_PLACEMENT_3D('',#201,#202,#203);
#201 = CARTESIAN_POINT('',(-0.68,-0.875,3.));
#202 = DIRECTION('',(0.E+000,1.224646799147E-016,-1.));
#203 = DIRECTION('',(-1.,0.E+000,0.E+000));
#204 = ADVANCED_FACE('',(#205),#216,.F.);
#205 = FACE_BOUND('',#206,.T.);
#206 = EDGE_LOOP('',(#207,#208,#209,#215));
#207 = ORIENTED_EDGE('',*,*,#31,.T.);
#208 = ORIENTED_EDGE('',*,*,#93,.T.);
#209 = ORIENTED_EDGE('',*,*,#210,.T.);
#210 = EDGE_CURVE('',#94,#64,#211,.T.);
#211 = LINE('',#212,#213);
#212 = CARTESIAN_POINT('',(3.22,0.875,10.));
#213 = VECTOR('',#214,1.);
#214 = DIRECTION('',(-1.,0.E+000,-0.E+000));
#215 = ORIENTED_EDGE('',*,*,#71,.T.);
#216 = PLANE('',#217);
#217 = AXIS2_PLACEMENT_3D('',#218,#219,#220);
#218 = CARTESIAN_POINT('',(-0.68,-0.875,10.));
#219 = DIRECTION('',(0.E+000,1.224646799147E-016,-1.));
#220 = DIRECTION('',(-1.,0.E+000,0.E+000));
#221 = ADVANCED_FACE('',(#222),#228,.F.);
#222 = FACE_BOUND('',#223,.F.);
#223 = EDGE_LOOP('',(#224,#225,#226,#227));
#224 = ORIENTED_EDGE('',*,*,#101,.T.);
#225 = ORIENTED_EDGE('',*,*,#210,.T.);
#226 = ORIENTED_EDGE('',*,*,#61,.F.);
#227 = ORIENTED_EDGE('',*,*,#125,.F.);
#228 = PLANE('',#229);
#229 = AXIS2_PLACEMENT_3D('',#230,#231,#232);
#230 = CARTESIAN_POINT('',(3.22,0.875,3.));
#231 = DIRECTION('',(0.E+000,-1.,-1.224646799147E-016));
#232 = DIRECTION('',(-1.,0.E+000,0.E+000));
#233 = ADVANCED_FACE('',(#234),#259,.F.);
#234 = FACE_BOUND('',#235,.F.);
#235 = EDGE_LOOP('',(#236,#237,#245,#253));
#236 = ORIENTED_EDGE('',*,*,#134,.F.);
#237 = ORIENTED_EDGE('',*,*,#238,.T.);
#238 = EDGE_CURVE('',#135,#239,#241,.T.);
#239 = VERTEX_POINT('',#240);
#240 = CARTESIAN_POINT('',(2.34,0.2,-2.5));
#241 = LINE('',#242,#243);
#242 = CARTESIAN_POINT('',(2.34,0.2,3.5));
#243 = VECTOR('',#244,1.);
#244 = DIRECTION('',(-0.E+000,-0.E+000,-1.));
#245 = ORIENTED_EDGE('',*,*,#246,.T.);
#246 = EDGE_CURVE('',#239,#247,#249,.T.);
#247 = VERTEX_POINT('',#248);
#248 = CARTESIAN_POINT('',(2.74,0.2,-2.5));
#249 = LINE('',#250,#251);
#250 = CARTESIAN_POINT('',(2.34,0.2,-2.5));
#251 = VECTOR('',#252,1.);
#252 = DIRECTION('',(1.,0.E+000,0.E+000));
#253 = ORIENTED_EDGE('',*,*,#254,.F.);
#254 = EDGE_CURVE('',#137,#247,#255,.T.);
#255 = LINE('',#256,#257);
#256 = CARTESIAN_POINT('',(2.74,0.2,3.5));
#257 = VECTOR('',#258,1.);
#258 = DIRECTION('',(-0.E+000,-0.E+000,-1.));
#259 = PLANE('',#260);
#260 = AXIS2_PLACEMENT_3D('',#261,#262,#263);
#261 = CARTESIAN_POINT('',(2.34,0.2,3.5));
#262 = DIRECTION('',(0.E+000,-1.,0.E+000));
#263 = DIRECTION('',(1.,0.E+000,0.E+000));
#264 = ADVANCED_FACE('',(#265),#283,.F.);
#265 = FACE_BOUND('',#266,.F.);
#266 = EDGE_LOOP('',(#267,#268,#269,#277));
#267 = ORIENTED_EDGE('',*,*,#160,.F.);
#268 = ORIENTED_EDGE('',*,*,#254,.T.);
#269 = ORIENTED_EDGE('',*,*,#270,.T.);
#270 = EDGE_CURVE('',#247,#271,#273,.T.);
#271 = VERTEX_POINT('',#272);
#272 = CARTESIAN_POINT('',(2.74,-0.2,-2.5));
#273 = LINE('',#274,#275);
#274 = CARTESIAN_POINT('',(2.74,0.2,-2.5));
#275 = VECTOR('',#276,1.);
#276 = DIRECTION('',(0.E+000,-1.,0.E+000));
#277 = ORIENTED_EDGE('',*,*,#278,.F.);
#278 = EDGE_CURVE('',#153,#271,#279,.T.);
#279 = LINE('',#280,#281);
#280 = CARTESIAN_POINT('',(2.74,-0.2,3.5));
#281 = VECTOR('',#282,1.);
#282 = DIRECTION('',(-0.E+000,-0.E+000,-1.));
#283 = PLANE('',#284);
#284 = AXIS2_PLACEMENT_3D('',#285,#286,#287);
#285 = CARTESIAN_POINT('',(2.74,0.2,3.5));
#286 = DIRECTION('',(-1.,0.E+000,0.E+000));
#287 = DIRECTION('',(0.E+000,-1.,0.E+000));
#288 = ADVANCED_FACE('',(#289),#307,.F.);
#289 = FACE_BOUND('',#290,.F.);
#290 = EDGE_LOOP('',(#291,#292,#293,#301));
#291 = ORIENTED_EDGE('',*,*,#152,.F.);
#292 = ORIENTED_EDGE('',*,*,#278,.T.);
#293 = ORIENTED_EDGE('',*,*,#294,.T.);
#294 = EDGE_CURVE('',#271,#295,#297,.T.);
#295 = VERTEX_POINT('',#296);
#296 = CARTESIAN_POINT('',(2.34,-0.2,-2.5));
#297 = LINE('',#298,#299);
#298 = CARTESIAN_POINT('',(2.74,-0.2,-2.5));
#299 = VECTOR('',#300,1.);
#300 = DIRECTION('',(-1.,0.E+000,0.E+000));
#301 = ORIENTED_EDGE('',*,*,#302,.F.);
#302 = EDGE_CURVE('',#145,#295,#303,.T.);
#303 = LINE('',#304,#305);
#304 = CARTESIAN_POINT('',(2.34,-0.2,3.5));
#305 = VECTOR('',#306,1.);
#306 = DIRECTION('',(-0.E+000,-0.E+000,-1.));
#307 = PLANE('',#308);
#308 = AXIS2_PLACEMENT_3D('',#309,#310,#311);
#309 = CARTESIAN_POINT('',(2.74,-0.2,3.5));
#310 = DIRECTION('',(0.E+000,1.,0.E+000));
#311 = DIRECTION('',(-1.,0.E+000,0.E+000));
#312 = ADVANCED_FACE('',(#313),#324,.F.);
#313 = FACE_BOUND('',#314,.F.);
#314 = EDGE_LOOP('',(#315,#316,#317,#323));
#315 = ORIENTED_EDGE('',*,*,#144,.F.);
#316 = ORIENTED_EDGE('',*,*,#302,.T.);
#317 = ORIENTED_EDGE('',*,*,#318,.T.);
#318 = EDGE_CURVE('',#295,#239,#319,.T.);
#319 = LINE('',#320,#321);
#320 = CARTESIAN_POINT('',(2.34,-0.2,-2.5));
#321 = VECTOR('',#322,1.);
#322 = DIRECTION('',(0.E+000,1.,0.E+000));
#323 = ORIENTED_EDGE('',*,*,#238,.F.);
#324 = PLANE('',#325);
#325 = AXIS2_PLACEMENT_3D('',#326,#327,#328);
#326 = CARTESIAN_POINT('',(2.34,-0.2,3.5));
#327 = DIRECTION('',(1.,0.E+000,0.E+000));
#328 = DIRECTION('',(0.E+000,1.,0.E+000));
#329 = ADVANCED_FACE('',(#330),#355,.F.);
#330 = FACE_BOUND('',#331,.F.);
#331 = EDGE_LOOP('',(#332,#333,#341,#349));
#332 = ORIENTED_EDGE('',*,*,#168,.F.);
#333 = ORIENTED_EDGE('',*,*,#334,.T.);
#334 = EDGE_CURVE('',#169,#335,#337,.T.);
#335 = VERTEX_POINT('',#336);
#336 = CARTESIAN_POINT('',(-0.2,0.2,-2.5));
#337 = LINE('',#338,#339);
#338 = CARTESIAN_POINT('',(-0.2,0.2,3.5));
#339 = VECTOR('',#340,1.);
#340 = DIRECTION('',(-0.E+000,-0.E+000,-1.));
#341 = ORIENTED_EDGE('',*,*,#342,.T.);
#342 = EDGE_CURVE('',#335,#343,#345,.T.);
#343 = VERTEX_POINT('',#344);
#344 = CARTESIAN_POINT('',(0.2,0.2,-2.5));
#345 = LINE('',#346,#347);
#346 = CARTESIAN_POINT('',(-0.2,0.2,-2.5));
#347 = VECTOR('',#348,1.);
#348 = DIRECTION('',(1.,0.E+000,0.E+000));
#349 = ORIENTED_EDGE('',*,*,#350,.F.);
#350 = EDGE_CURVE('',#171,#343,#351,.T.);
#351 = LINE('',#352,#353);
#352 = CARTESIAN_POINT('',(0.2,0.2,3.5));
#353 = VECTOR('',#354,1.);
#354 = DIRECTION('',(-0.E+000,-0.E+000,-1.));
#355 = PLANE('',#356);
#356 = AXIS2_PLACEMENT_3D('',#357,#358,#359);
#357 = CARTESIAN_POINT('',(-0.2,0.2,3.5));
#358 = DIRECTION('',(0.E+000,-1.,0.E+000));
#359 = DIRECTION('',(1.,0.E+000,0.E+000));
#360 = ADVANCED_FACE('',(#361),#379,.F.);
#361 = FACE_BOUND('',#362,.F.);
#362 = EDGE_LOOP('',(#363,#364,#365,#373));
#363 = ORIENTED_EDGE('',*,*,#194,.F.);
#364 = ORIENTED_EDGE('',*,*,#350,.T.);
#365 = ORIENTED_EDGE('',*,*,#366,.T.);
#366 = EDGE_CURVE('',#343,#367,#369,.T.);
#367 = VERTEX_POINT('',#368);
#368 = CARTESIAN_POINT('',(0.2,-0.2,-2.5));
#369 = LINE('',#370,#371);
#370 = CARTESIAN_POINT('',(0.2,0.2,-2.5));
#371 = VECTOR('',#372,1.);
#372 = DIRECTION('',(0.E+000,-1.,0.E+000));
#373 = ORIENTED_EDGE('',*,*,#374,.F.);
#374 = EDGE_CURVE('',#187,#367,#375,.T.);
#375 = LINE('',#376,#377);
#376 = CARTESIAN_POINT('',(0.2,-0.2,3.5));
#377 = VECTOR('',#378,1.);
#378 = DIRECTION('',(-0.E+000,-0.E+000,-1.));
#379 = PLANE('',#380);
#380 = AXIS2_PLACEMENT_3D('',#381,#382,#383);
#381 = CARTESIAN_POINT('',(0.2,0.2,3.5));
#382 = DIRECTION('',(-1.,0.E+000,0.E+000));
#383 = DIRECTION('',(0.E+000,-1.,0.E+000));
#384 = ADVANCED_FACE('',(#385),#403,.F.);
#385 = FACE_BOUND('',#386,.F.);
#386 = EDGE_LOOP('',(#387,#388,#389,#397));
#387 = ORIENTED_EDGE('',*,*,#186,.F.);
#388 = ORIENTED_EDGE('',*,*,#374,.T.);
#389 = ORIENTED_EDGE('',*,*,#390,.T.);
#390 = EDGE_CURVE('',#367,#391,#393,.T.);
#391 = VERTEX_POINT('',#392);
#392 = CARTESIAN_POINT('',(-0.2,-0.2,-2.5));
#393 = LINE('',#394,#395);
#394 = CARTESIAN_POINT('',(0.2,-0.2,-2.5));
#395 = VECTOR('',#396,1.);
#396 = DIRECTION('',(-1.,0.E+000,0.E+000));
#397 = ORIENTED_EDGE('',*,*,#398,.F.);
#398 = EDGE_CURVE('',#179,#391,#399,.T.);
#399 = LINE('',#400,#401);
#400 = CARTESIAN_POINT('',(-0.2,-0.2,3.5));
#401 = VECTOR('',#402,1.);
#402 = DIRECTION('',(-0.E+000,-0.E+000,-1.));
#403 = PLANE('',#404);
#404 = AXIS2_PLACEMENT_3D('',#405,#406,#407);
#405 = CARTESIAN_POINT('',(0.2,-0.2,3.5));
#406 = DIRECTION('',(0.E+000,1.,0.E+000));
#407 = DIRECTION('',(-1.,0.E+000,0.E+000));
#408 = ADVANCED_FACE('',(#409),#420,.F.);
#409 = FACE_BOUND('',#410,.F.);
#410 = EDGE_LOOP('',(#411,#412,#413,#419));
#411 = ORIENTED_EDGE('',*,*,#178,.F.);
#412 = ORIENTED_EDGE('',*,*,#398,.T.);
#413 = ORIENTED_EDGE('',*,*,#414,.T.);
#414 = EDGE_CURVE('',#391,#335,#415,.T.);
#415 = LINE('',#416,#417);
#416 = CARTESIAN_POINT('',(-0.2,-0.2,-2.5));
#417 = VECTOR('',#418,1.);
#418 = DIRECTION('',(0.E+000,1.,0.E+000));
#419 = ORIENTED_EDGE('',*,*,#334,.F.);
#420 = PLANE('',#421);
#421 = AXIS2_PLACEMENT_3D('',#422,#423,#424);
#422 = CARTESIAN_POINT('',(-0.2,-0.2,3.5));
#423 = DIRECTION('',(1.,0.E+000,0.E+000));
#424 = DIRECTION('',(0.E+000,1.,0.E+000));
#425 = ADVANCED_FACE('',(#426),#432,.F.);
#426 = FACE_BOUND('',#427,.T.);
#427 = EDGE_LOOP('',(#428,#429,#430,#431));
#428 = ORIENTED_EDGE('',*,*,#246,.T.);
#429 = ORIENTED_EDGE('',*,*,#270,.T.);
#430 = ORIENTED_EDGE('',*,*,#294,.T.);
#431 = ORIENTED_EDGE('',*,*,#318,.T.);
#432 = PLANE('',#433);
#433 = AXIS2_PLACEMENT_3D('',#434,#435,#436);
#434 = CARTESIAN_POINT('',(2.34,0.2,-2.5));
#435 = DIRECTION('',(0.E+000,0.E+000,1.));
#436 = DIRECTION('',(1.,0.E+000,0.E+000));
#437 = ADVANCED_FACE('',(#438),#444,.F.);
#438 = FACE_BOUND('',#439,.T.);
#439 = EDGE_LOOP('',(#440,#441,#442,#443));
#440 = ORIENTED_EDGE('',*,*,#342,.T.);
#441 = ORIENTED_EDGE('',*,*,#366,.T.);
#442 = ORIENTED_EDGE('',*,*,#390,.T.);
#443 = ORIENTED_EDGE('',*,*,#414,.T.);
#444 = PLANE('',#445);
#445 = AXIS2_PLACEMENT_3D('',#446,#447,#448);
#446 = CARTESIAN_POINT('',(-0.2,0.2,-2.5));
#447 = DIRECTION('',(0.E+000,0.E+000,1.));
#448 = DIRECTION('',(1.,0.E+000,0.E+000));
#449 = ( GEOMETRIC_REPRESENTATION_CONTEXT(3) 
GLOBAL_UNCERTAINTY_ASSIGNED_CONTEXT((#453)) GLOBAL_UNIT_ASSIGNED_CONTEXT
((#450,#451,#452)) REPRESENTATION_CONTEXT('Context #1',
  '3D Context with UNIT and UNCERTAINTY') );
#450 = ( LENGTH_UNIT() NAMED_UNIT(*) SI_UNIT(.MILLI.,.METRE.) );
#451 = ( NAMED_UNIT(*) PLANE_ANGLE_UNIT() SI_UNIT($,.RADIAN.) );
#452 = ( NAMED_UNIT(*) SI_UNIT($,.STERADIAN.) SOLID_ANGLE_UNIT() );
#453 = UNCERTAINTY_MEASURE_WITH_UNIT(LENGTH_MEASURE(1.E-007),#450,
  'distance_accuracy_value','confusion accuracy');
#454 = PRODUCT_TYPE('part',$,(#7));
#455 = MECHANICAL_DESIGN_GEOMETRIC_PRESENTATION_REPRESENTATION('',(#456,
    #464,#471,#478,#485,#492,#499,#507,#514,#521,#528,#535,#542,#549,
    #556,#563),#449);
#456 = STYLED_ITEM('color',(#457),#17);
#457 = PRESENTATION_STYLE_ASSIGNMENT((#458));
#458 = SURFACE_STYLE_USAGE(.BOTH.,#459);
#459 = SURFACE_SIDE_STYLE('',(#460));
#460 = SURFACE_STYLE_FILL_AREA(#461);
#461 = FILL_AREA_STYLE('',(#462));
#462 = FILL_AREA_STYLE_COLOUR('',#463);
#463 = COLOUR_RGB('',0.699999988079,0.10000000149,5.000000074506E-002);
#464 = STYLED_ITEM('color',(#465),#57);
#465 = PRESENTATION_STYLE_ASSIGNMENT((#466));
#466 = SURFACE_STYLE_USAGE(.BOTH.,#467);
#467 = SURFACE_SIDE_STYLE('',(#468));
#468 = SURFACE_STYLE_FILL_AREA(#469);
#469 = FILL_AREA_STYLE('',(#470));
#470 = FILL_AREA_STYLE_COLOUR('',#463);
#471 = STYLED_ITEM('color',(#472),#88);
#472 = PRESENTATION_STYLE_ASSIGNMENT((#473));
#473 = SURFACE_STYLE_USAGE(.BOTH.,#474);
#474 = SURFACE_SIDE_STYLE('',(#475));
#475 = SURFACE_STYLE_FILL_AREA(#476);
#476 = FILL_AREA_STYLE('',(#477));
#477 = FILL_AREA_STYLE_COLOUR('',#463);
#478 = STYLED_ITEM('color',(#479),#119);
#479 = PRESENTATION_STYLE_ASSIGNMENT((#480));
#480 = SURFACE_STYLE_USAGE(.BOTH.,#481);
#481 = SURFACE_SIDE_STYLE('',(#482));
#482 = SURFACE_STYLE_FILL_AREA(#483);
#483 = FILL_AREA_STYLE('',(#484));
#484 = FILL_AREA_STYLE_COLOUR('',#463);
#485 = STYLED_ITEM('color',(#486),#204);
#486 = PRESENTATION_STYLE_ASSIGNMENT((#487));
#487 = SURFACE_STYLE_USAGE(.BOTH.,#488);
#488 = SURFACE_SIDE_STYLE('',(#489));
#489 = SURFACE_STYLE_FILL_AREA(#490);
#490 = FILL_AREA_STYLE('',(#491));
#491 = FILL_AREA_STYLE_COLOUR('',#463);
#492 = STYLED_ITEM('color',(#493),#221);
#493 = PRESENTATION_STYLE_ASSIGNMENT((#494));
#494 = SURFACE_STYLE_USAGE(.BOTH.,#495);
#495 = SURFACE_SIDE_STYLE('',(#496));
#496 = SURFACE_STYLE_FILL_AREA(#497);
#497 = FILL_AREA_STYLE('',(#498));
#498 = FILL_AREA_STYLE_COLOUR('',#463);
#499 = STYLED_ITEM('color',(#500),#233);
#500 = PRESENTATION_STYLE_ASSIGNMENT((#501));
#501 = SURFACE_STYLE_USAGE(.BOTH.,#502);
#502 = SURFACE_SIDE_STYLE('',(#503));
#503 = SURFACE_STYLE_FILL_AREA(#504);
#504 = FILL_AREA_STYLE('',(#505));
#505 = FILL_AREA_STYLE_COLOUR('',#506);
#506 = COLOUR_RGB('',0.824000000954,0.819999992847,0.78100001812);
#507 = STYLED_ITEM('color',(#508),#264);
#508 = PRESENTATION_STYLE_ASSIGNMENT((#509));
#509 = SURFACE_STYLE_USAGE(.BOTH.,#510);
#510 = SURFACE_SIDE_STYLE('',(#511));
#511 = SURFACE_STYLE_FILL_AREA(#512);
#512 = FILL_AREA_STYLE('',(#513));
#513 = FILL_AREA_STYLE_COLOUR('',#506);
#514 = STYLED_ITEM('color',(#515),#288);
#515 = PRESENTATION_STYLE_ASSIGNMENT((#516));
#516 = SURFACE_STYLE_USAGE(.BOTH.,#517);
#517 = SURFACE_SIDE_STYLE('',(#518));
#518 = SURFACE_STYLE_FILL_AREA(#519);
#519 = FILL_AREA_STYLE('',(#520));
#520 = FILL_AREA_STYLE_COLOUR('',#506);
#521 = STYLED_ITEM('color',(#522),#312);
#522 = PRESENTATION_STYLE_ASSIGNMENT((#523));
#523 = SURFACE_STYLE_USAGE(.BOTH.,#524);
#524 = SURFACE_SIDE_STYLE('',(#525));
#525 = SURFACE_STYLE_FILL_AREA(#526);
#526 = FILL_AREA_STYLE('',(#527));
#527 = FILL_AREA_STYLE_COLOUR('',#506);
#528 = STYLED_ITEM('color',(#529),#329);
#529 = PRESENTATION_STYLE_ASSIGNMENT((#530));
#530 = SURFACE_STYLE_USAGE(.BOTH.,#531);
#531 = SURFACE_SIDE_STYLE('',(#532));
#532 = SURFACE_STYLE_FILL_AREA(#533);
#533 = FILL_AREA_STYLE('',(#534));
#534 = FILL_AREA_STYLE_COLOUR('',#506);
#535 = STYLED_ITEM('color',(#536),#360);
#536 = PRESENTATION_STYLE_ASSIGNMENT((#537));
#537 = SURFACE_STYLE_USAGE(.BOTH.,#538);
#538 = SURFACE_SIDE_STYLE('',(#539));
#539 = SURFACE_STYLE_FILL_AREA(#540);
#540 = FILL_AREA_STYLE('',(#541));
#541 = FILL_AREA_STYLE_COLOUR('',#506);
#542 = STYLED_ITEM('color',(#543),#384);
#543 = PRESENTATION_STYLE_ASSIGNMENT((#544));
#544 = SURFACE_STYLE_USAGE(.BOTH.,#545);
#545 = SURFACE_SIDE_STYLE('',(#546));
#546 = SURFACE_STYLE_FILL_AREA(#547);
#547 = FILL_AREA_STYLE('',(#548));
#548 = FILL_AREA_STYLE_COLOUR('',#506);
#549 = STYLED_ITEM('color',(#550),#408);
#550 = PRESENTATION_STYLE_ASSIGNMENT((#551));
#551 = SURFACE_STYLE_USAGE(.BOTH.,#552);
#552 = SURFACE_SIDE_STYLE('',(#553));
#553 = SURFACE_STYLE_FILL_AREA(#554);
#554 = FILL_AREA_STYLE('',(#555));
#555 = FILL_AREA_STYLE_COLOUR('',#506);
#556 = STYLED_ITEM('color',(#557),#425);
#557 = PRESENTATION_STYLE_ASSIGNMENT((#558));
#558 = SURFACE_STYLE_USAGE(.BOTH.,#559);
#559 = SURFACE_SIDE_STYLE('',(#560));
#560 = SURFACE_STYLE_FILL_AREA(#561);
#561 = FILL_AREA_STYLE('',(#562));
#562 = FILL_AREA_STYLE_COLOUR('',#506);
#563 = STYLED_ITEM('color',(#564),#437);
#564 = PRESENTATION_STYLE_ASSIGNMENT((#565));
#565 = SURFACE_STYLE_USAGE(.BOTH.,#566);
#566 = SURFACE_SIDE_STYLE('',(#567));
#567 = SURFACE_STYLE_FILL_AREA(#568);
#568 = FILL_AREA_STYLE('',(#569));
#569 = FILL_AREA_STYLE_COLOUR('',#506);
ENDSEC;
END-ISO-10303-21;
