ISO-10303-21;
HEADER;
/* RV_Disc_D9mm_W3.5mm_P5mm.step 3D STEP model for use in ECAD systems
 * Copyright (C) 2018, kicad StepUp
 * 
 * This work is licensed under the [Creative Commons CC-BY-SA 4.0 License](https://creativecommons.org/licenses/by-sa/4.0/legalcode), 
 * with the following exception:
 * To the extent that the creation of electronic designs that use 'Licensed Material' can be considered to be 'Adapted Material', 
 * then the copyright holder waives article 3 of the license with respect to these designs and any generated files which use data provided 
 * as part of the 'Licensed Material'.
 * You are free to use the library data in your own projects without the obligation to share your project files under this or any other license agreement.
 * However, if you wish to redistribute these libraries, or parts thereof (including in modified form) as a collection then the exception above does not apply. 
 * Please refer to https://github.com/KiCad/kicad-packages3D/blob/master/LICENSE.md for further clarification of the exception.
 * Disclaimer of Warranties and Limitation of Liability.
 * These libraries are provided in the hope that they will be useful, but are provided without warranty of any kind, express or implied.
 * *USE 3D CAD DATA AT YOUR OWN RISK*
 * *DO NOT RELY UPON ANY INFORMATION FOUND HERE WITHOUT INDEPENDENT VERIFICATION.*
 * 
 */

FILE_DESCRIPTION(
/* description */ ('model of RV_Disc_D9mm_W3.5mm_P5mm'),
/* implementation_level */ '2;1');

FILE_NAME(
/* name */ 'RV_Disc_D9mm_W3.5mm_P5mm.step',
/* time_stamp */ '2018-11-11T21:10:10',
/* author */ ('kicad StepUp','ksu'),
/* organization */ ('FreeCAD'),
/* preprocessor_version */ 'OCC',
/* originating_system */ 'kicad StepUp',
/* authorisation */ '');

FILE_SCHEMA(('AUTOMOTIVE_DESIGN { 1 0 10303 214 1 1 1 1 }'));
ENDSEC;

DATA;
#1 = APPLICATION_PROTOCOL_DEFINITION('international standard',
'automotive_design',2000,#2);
#2 = APPLICATION_CONTEXT(
'core data for automotive mechanical design processes');
#3 = SHAPE_DEFINITION_REPRESENTATION(#4,#10);
#4 = PRODUCT_DEFINITION_SHAPE('','',#5);
#5 = PRODUCT_DEFINITION('design','',#6,#9);
#6 = PRODUCT_DEFINITION_FORMATION('','',#7);
#7 = PRODUCT('RV_Disc_D9mm_W35mm_P5mm','RV_Disc_D9mm_W35mm_P5mm','',(#8)
);
#8 = PRODUCT_CONTEXT('',#2,'mechanical');
#9 = PRODUCT_DEFINITION_CONTEXT('part definition',#2,'design');
#10 = ADVANCED_BREP_SHAPE_REPRESENTATION('',(#11,#15),#367);
#11 = AXIS2_PLACEMENT_3D('',#12,#13,#14);
#12 = CARTESIAN_POINT('',(0.E+000,0.E+000,0.E+000));
#13 = DIRECTION('',(0.E+000,0.E+000,1.));
#14 = DIRECTION('',(1.,0.E+000,-0.E+000));
#15 = MANIFOLD_SOLID_BREP('',#16);
#16 = CLOSED_SHELL('',(#17,#50,#135,#227,#236,#262,#271,#297,#323,#349,
#358));
#17 = ADVANCED_FACE('',(#18),#45,.T.);
#18 = FACE_BOUND('',#19,.F.);
#19 = EDGE_LOOP('',(#20,#30,#37,#38));
#20 = ORIENTED_EDGE('',*,*,#21,.T.);
#21 = EDGE_CURVE('',#22,#24,#26,.T.);
#22 = VERTEX_POINT('',#23);
#23 = CARTESIAN_POINT('',(7.,-0.607317073171,4.53));
#24 = VERTEX_POINT('',#25);
#25 = CARTESIAN_POINT('',(7.,-0.692682926829,4.53));
#26 = LINE('',#27,#28);
#27 = CARTESIAN_POINT('',(7.,1.1,4.53));
#28 = VECTOR('',#29,1.);
#29 = DIRECTION('',(0.E+000,-1.,0.E+000));
#30 = ORIENTED_EDGE('',*,*,#31,.T.);
#31 = EDGE_CURVE('',#24,#24,#32,.T.);
#32 = CIRCLE('',#33,4.5);
#33 = AXIS2_PLACEMENT_3D('',#34,#35,#36);
#34 = CARTESIAN_POINT('',(2.5,-0.692682926829,4.53));
#35 = DIRECTION('',(0.E+000,-1.,0.E+000));
#36 = DIRECTION('',(1.,0.E+000,0.E+000));
#37 = ORIENTED_EDGE('',*,*,#21,.F.);
#38 = ORIENTED_EDGE('',*,*,#39,.F.);
#39 = EDGE_CURVE('',#22,#22,#40,.T.);
#40 = CIRCLE('',#41,4.5);
#41 = AXIS2_PLACEMENT_3D('',#42,#43,#44);
#42 = CARTESIAN_POINT('',(2.5,-0.607317073171,4.53));
#43 = DIRECTION('',(0.E+000,-1.,0.E+000));
#44 = DIRECTION('',(1.,0.E+000,0.E+000));
#45 = CYLINDRICAL_SURFACE('',#46,4.5);
#46 = AXIS2_PLACEMENT_3D('',#47,#48,#49);
#47 = CARTESIAN_POINT('',(2.5,1.1,4.53));
#48 = DIRECTION('',(0.E+000,1.,0.E+000));
#49 = DIRECTION('',(1.,0.E+000,0.E+000));
#50 = ADVANCED_FACE('',(#51,#71),#130,.T.);
#51 = FACE_BOUND('',#52,.F.);
#52 = EDGE_LOOP('',(#53,#54,#63,#70));
#53 = ORIENTED_EDGE('',*,*,#39,.T.);
#54 = ORIENTED_EDGE('',*,*,#55,.T.);
#55 = EDGE_CURVE('',#22,#56,#58,.T.);
#56 = VERTEX_POINT('',#57);
#57 = CARTESIAN_POINT('',(5.292682926829,1.1,4.53));
#58 = CIRCLE('',#59,1.707317073171);
#59 = AXIS2_PLACEMENT_3D('',#60,#61,#62);
#60 = CARTESIAN_POINT('',(5.292682926829,-0.607317073171,4.53));
#61 = DIRECTION('',(0.E+000,0.E+000,1.));
#62 = DIRECTION('',(1.,0.E+000,0.E+000));
#63 = ORIENTED_EDGE('',*,*,#64,.F.);
#64 = EDGE_CURVE('',#56,#56,#65,.T.);
#65 = CIRCLE('',#66,2.792682926829);
#66 = AXIS2_PLACEMENT_3D('',#67,#68,#69);
#67 = CARTESIAN_POINT('',(2.5,1.1,4.53));
#68 = DIRECTION('',(0.E+000,-1.,0.E+000));
#69 = DIRECTION('',(1.,0.E+000,0.E+000));
#70 = ORIENTED_EDGE('',*,*,#55,.F.);
#71 = FACE_BOUND('',#72,.F.);
#72 = EDGE_LOOP('',(#73,#100));
#73 = ORIENTED_EDGE('',*,*,#74,.T.);
#74 = EDGE_CURVE('',#75,#77,#79,.T.);
#75 = VERTEX_POINT('',#76);
#76 = CARTESIAN_POINT('',(0.27,0.E+000,0.750507688558));
#77 = VERTEX_POINT('',#78);
#78 = CARTESIAN_POINT('',(-0.188676673939,-0.193134959837,0.985339965035
));
#79 = B_SPLINE_CURVE_WITH_KNOTS('',7,(#80,#81,#82,#83,#84,#85,#86,#87,
#88,#89,#90,#91,#92,#93,#94,#95,#96,#97,#98,#99),.UNSPECIFIED.,.F.,
.F.,(8,6,6,8),(0.E+000,0.196275008686,0.540075298068,1.),
.UNSPECIFIED.);
#80 = CARTESIAN_POINT('',(0.27,-5.551115123126E-017,0.750507688558));
#81 = CARTESIAN_POINT('',(0.27,-1.722323593757E-002,0.742896389593));
#82 = CARTESIAN_POINT('',(0.268718271011,-3.456316389012E-002,
0.736282621208));
#83 = CARTESIAN_POINT('',(0.266123331362,-5.190612728588E-002,
0.730730610898));
#84 = CARTESIAN_POINT('',(0.262196423153,-6.912644597119E-002,
0.726294403436));
#85 = CARTESIAN_POINT('',(0.256935539302,-8.609016636035E-002,
0.72301448971));
#86 = CARTESIAN_POINT('',(0.25035945059,-0.102658811585,0.720914435545)
);
#87 = CARTESIAN_POINT('',(0.228765470777,-0.146779253837,0.718391401439)
);
#88 = CARTESIAN_POINT('',(0.211114521626,-0.173232561436,0.720414946169)
);
#89 = CARTESIAN_POINT('',(0.189788856862,-0.197305678945,0.726090805331)
);
#90 = CARTESIAN_POINT('',(0.165219967029,-0.218316679525,0.735246139253)
);
#91 = CARTESIAN_POINT('',(0.138001920823,-0.235714467569,0.747558386283)
);
#92 = CARTESIAN_POINT('',(0.108839178684,-0.249119840422,0.762604743412)
);
#93 = CARTESIAN_POINT('',(3.78692043899E-002,-0.270679637198,
0.803072907472));
#94 = CARTESIAN_POINT('',(-4.914234305269E-003,-0.275541324445,
0.830300859247));
#95 = CARTESIAN_POINT('',(-4.784879656052E-002,-0.27237685323,
0.860350515078));
#96 = CARTESIAN_POINT('',(-8.891726094033E-002,-0.261577393053,
0.891800909506));
#97 = CARTESIAN_POINT('',(-0.126671549477,-0.244110570476,0.923593264591
));
#98 = CARTESIAN_POINT('',(-0.160162939274,-0.22099048958,0.954969146532)
);
#99 = CARTESIAN_POINT('',(-0.188676673939,-0.193134959837,0.985339965035
));
#100 = ORIENTED_EDGE('',*,*,#101,.T.);
#101 = EDGE_CURVE('',#77,#75,#102,.T.);
#102 = B_SPLINE_CURVE_WITH_KNOTS('',6,(#103,#104,#105,#106,#107,#108,
#109,#110,#111,#112,#113,#114,#115,#116,#117,#118,#119,#120,#121,
#122,#123,#124,#125,#126,#127,#128,#129),.UNSPECIFIED.,.F.,.F.,(7,5,
5,5,5,7),(0.E+000,0.261534777264,0.445309382633,0.613214861296,
0.762829403369,1.),.UNSPECIFIED.);
#103 = CARTESIAN_POINT('',(-0.188676673939,-0.193134959837,
0.985339965035));
#104 = CARTESIAN_POINT('',(-0.221360136083,-0.161205955708,
1.020152083073));
#105 = CARTESIAN_POINT('',(-0.247262215221,-0.122930175034,
1.053548435048));
#106 = CARTESIAN_POINT('',(-0.265177690743,-7.993026035359E-002,
1.084488671858));
#107 = CARTESIAN_POINT('',(-0.274208130603,-3.394305621394E-002,
1.112019754779));
#108 = CARTESIAN_POINT('',(-0.273695880894,1.300063168534E-002,
1.134872658691));
#109 = CARTESIAN_POINT('',(-0.256458602065,9.057929287249E-002,
1.163224671798));
#110 = CARTESIAN_POINT('',(-0.244601408778,0.12190223138,1.171859335548)
);
#111 = CARTESIAN_POINT('',(-0.227994337398,0.151684664267,1.176894050226
));
#112 = CARTESIAN_POINT('',(-0.206814999639,0.17895547659,1.177739907694)
);
#113 = CARTESIAN_POINT('',(-0.181633555149,0.202698533816,1.173911881199
));
#114 = CARTESIAN_POINT('',(-0.127595509145,0.240004713752,1.15770618016)
);
#115 = CARTESIAN_POINT('',(-9.922736347574E-002,0.254281139962,
1.14608996507));
#116 = CARTESIAN_POINT('',(-6.902743262243E-002,0.26444602389,
1.130614759621));
#117 = CARTESIAN_POINT('',(-3.793266983211E-002,0.270200161945,
1.111649319737));
#118 = CARTESIAN_POINT('',(-6.899753331643E-003,0.271601901311,
1.089974224014));
#119 = CARTESIAN_POINT('',(5.009689239077E-002,0.266677643051,
1.045595149064));
#120 = CARTESIAN_POINT('',(7.627076904332E-002,0.261174650732,
1.023240196787));
#121 = CARTESIAN_POINT('',(0.101314181346,0.252711133664,0.999974630354)
);
#122 = CARTESIAN_POINT('',(0.124902511234,0.241574691074,0.976319087481)
);
#123 = CARTESIAN_POINT('',(0.146809755605,0.228026411877,0.952692061186)
);
#124 = CARTESIAN_POINT('',(0.19859649025,0.187325054314,0.892593891575)
);
#125 = CARTESIAN_POINT('',(0.225595489429,0.156883602495,0.856748029971)
);
#126 = CARTESIAN_POINT('',(0.247063983163,0.121871600691,0.823332704136)
);
#127 = CARTESIAN_POINT('',(0.262181966661,8.314153074513E-002,
0.793648818107));
#128 = CARTESIAN_POINT('',(0.27,4.194125017551E-002,0.769042381759));
#129 = CARTESIAN_POINT('',(0.27,-2.775557561563E-017,0.750507688558));
#130 = TOROIDAL_SURFACE('',#131,2.792682926829,1.707317073171);
#131 = AXIS2_PLACEMENT_3D('',#132,#133,#134);
#132 = CARTESIAN_POINT('',(2.5,-0.607317073171,4.53));
#133 = DIRECTION('',(0.E+000,1.,0.E+000));
#134 = DIRECTION('',(1.,0.E+000,0.E+000));
#135 = ADVANCED_FACE('',(#136,#156),#222,.T.);
#136 = FACE_BOUND('',#137,.T.);
#137 = EDGE_LOOP('',(#138,#139,#148,#155));
#138 = ORIENTED_EDGE('',*,*,#31,.T.);
#139 = ORIENTED_EDGE('',*,*,#140,.T.);
#140 = EDGE_CURVE('',#24,#141,#143,.T.);
#141 = VERTEX_POINT('',#142);
#142 = CARTESIAN_POINT('',(5.292682926829,-2.4,4.53));
#143 = CIRCLE('',#144,1.707317073171);
#144 = AXIS2_PLACEMENT_3D('',#145,#146,#147);
#145 = CARTESIAN_POINT('',(5.292682926829,-0.692682926829,4.53));
#146 = DIRECTION('',(0.E+000,0.E+000,-1.));
#147 = DIRECTION('',(1.,0.E+000,0.E+000));
#148 = ORIENTED_EDGE('',*,*,#149,.F.);
#149 = EDGE_CURVE('',#141,#141,#150,.T.);
#150 = CIRCLE('',#151,2.792682926829);
#151 = AXIS2_PLACEMENT_3D('',#152,#153,#154);
#152 = CARTESIAN_POINT('',(2.5,-2.4,4.53));
#153 = DIRECTION('',(0.E+000,-1.,0.E+000));
#154 = DIRECTION('',(1.,0.E+000,0.E+000));
#155 = ORIENTED_EDGE('',*,*,#140,.F.);
#156 = FACE_BOUND('',#157,.T.);
#157 = EDGE_LOOP('',(#158,#177));
#158 = ORIENTED_EDGE('',*,*,#159,.T.);
#159 = EDGE_CURVE('',#160,#162,#164,.T.);
#160 = VERTEX_POINT('',#161);
#161 = CARTESIAN_POINT('',(5.27,-1.3,1.126389838385));
#162 = VERTEX_POINT('',#163);
#163 = CARTESIAN_POINT('',(5.105040703305,-1.051270326159,0.907503944173
));
#164 = B_SPLINE_CURVE_WITH_KNOTS('',6,(#165,#166,#167,#168,#169,#170,
#171,#172,#173,#174,#175,#176),.UNSPECIFIED.,.F.,.F.,(7,5,7),(
0.E+000,0.674400244295,1.),.UNSPECIFIED.);
#165 = CARTESIAN_POINT('',(5.27,-1.3,1.126389838385));
#166 = CARTESIAN_POINT('',(5.27,-1.264242555999,1.108842786842));
#167 = CARTESIAN_POINT('',(5.264317344539,-1.228811833854,1.088293819059
));
#168 = CARTESIAN_POINT('',(5.25314686503,-1.194702293178,1.06537857647)
);
#169 = CARTESIAN_POINT('',(5.236836218723,-1.162806296961,1.040629220079
));
#170 = CARTESIAN_POINT('',(5.215832922089,-1.133940834986,1.014509870268
));
#171 = CARTESIAN_POINT('',(5.178581902545,-1.096770852834,0.97448350434)
);
#172 = CARTESIAN_POINT('',(5.165494845188,-1.085555549229,0.961249160453
));
#173 = CARTESIAN_POINT('',(5.151515299298,-1.075313745309,0.947869458813
));
#174 = CARTESIAN_POINT('',(5.136718871869,-1.066131556848,0.934405395683
));
#175 = CARTESIAN_POINT('',(5.121193313889,-1.058091714012,0.920924693872
));
#176 = CARTESIAN_POINT('',(5.105040703305,-1.051270326159,0.907503944173
));
#177 = ORIENTED_EDGE('',*,*,#178,.T.);
#178 = EDGE_CURVE('',#162,#160,#179,.T.);
#179 = B_SPLINE_CURVE_WITH_KNOTS('',6,(#180,#181,#182,#183,#184,#185,
#186,#187,#188,#189,#190,#191,#192,#193,#194,#195,#196,#197,#198,
#199,#200,#201,#202,#203,#204,#205,#206,#207,#208,#209,#210,#211,
#212,#213,#214,#215,#216,#217,#218,#219,#220,#221),.UNSPECIFIED.,.F.
,.F.,(7,5,5,5,5,5,5,5,7),(0.E+000,0.140846847194,0.288854223957,
0.434672126987,0.56587701911,0.691099806241,0.810597328382,
0.923649651823,1.),.UNSPECIFIED.);
#180 = CARTESIAN_POINT('',(5.105040703305,-1.051270326159,0.907503944173
));
#181 = CARTESIAN_POINT('',(5.075423574192,-1.038762755092,0.882895904837
));
#182 = CARTESIAN_POINT('',(5.043672133485,-1.030340836856,0.85846761481)
);
#183 = CARTESIAN_POINT('',(5.010459120227,-1.026505621353,0.834734451238
));
#184 = CARTESIAN_POINT('',(4.976667344385,-1.027654750526,0.812326559965
));
#185 = CARTESIAN_POINT('',(4.943411770722,-1.033881974858,0.792006407606
));
#186 = CARTESIAN_POINT('',(4.878515814444,-1.056320896365,0.75595239594)
);
#187 = CARTESIAN_POINT('',(4.846992356357,-1.073042175736,0.740475863626
));
#188 = CARTESIAN_POINT('',(4.818305965819,-1.094649033361,0.728685347558
));
#189 = CARTESIAN_POINT('',(4.793464616096,-1.120451498557,0.721169305027
));
#190 = CARTESIAN_POINT('',(4.773201242388,-1.149455295217,0.718269101278
));
#191 = CARTESIAN_POINT('',(4.742756736304,-1.211163033575,0.721615439828
));
#192 = CARTESIAN_POINT('',(4.732425327916,-1.243816709293,0.7277277807)
);
#193 = CARTESIAN_POINT('',(4.727218551013,-1.277422855976,0.738272169879
));
#194 = CARTESIAN_POINT('',(4.727047622107,-1.310902821044,0.752876225529
));
#195 = CARTESIAN_POINT('',(4.731581920896,-1.343429660572,0.770982770844
));
#196 = CARTESIAN_POINT('',(4.748406985265,-1.402168590212,0.8108892986)
);
#197 = CARTESIAN_POINT('',(4.759875173693,-1.428688969498,0.832138391948
));
#198 = CARTESIAN_POINT('',(4.774568490845,-1.45345264021,0.855308953812)
);
#199 = CARTESIAN_POINT('',(4.792182582463,-1.476095089054,0.879936539557
));
#200 = CARTESIAN_POINT('',(4.812434084806,-1.496301618264,0.905545412545
));
#201 = CARTESIAN_POINT('',(4.856612384632,-1.530396700729,0.956506877713
));
#202 = CARTESIAN_POINT('',(4.88031254602,-1.544518226805,0.98179834718)
);
#203 = CARTESIAN_POINT('',(4.905903983355,-1.555850681607,1.007067723395
));
#204 = CARTESIAN_POINT('',(4.933107488226,-1.564067571041,1.031795004367
));
#205 = CARTESIAN_POINT('',(4.961495942318,-1.568808717876,1.055314377203
));
#206 = CARTESIAN_POINT('',(5.018124284086,-1.570808203824,1.097633432228
));
#207 = CARTESIAN_POINT('',(5.046311075927,-1.568398736655,1.116599258681
));
#208 = CARTESIAN_POINT('',(5.074384044136,-1.562389231066,1.133198402043
));
#209 = CARTESIAN_POINT('',(5.101624256897,-1.552773448427,1.146885914051
));
#210 = CARTESIAN_POINT('',(5.127339459564,-1.539785640924,1.157397196881
));
#211 = CARTESIAN_POINT('',(5.173328557902,-1.508768822738,1.171618820944
));
#212 = CARTESIAN_POINT('',(5.193833144334,-1.491041419203,1.1756692686)
);
#213 = CARTESIAN_POINT('',(5.212020208802,-1.471007770235,1.176830331518
));
#214 = CARTESIAN_POINT('',(5.227561581072,-1.449127276288,1.175273125123
));
#215 = CARTESIAN_POINT('',(5.240283411468,-1.425876528599,1.171252870532
));
#216 = CARTESIAN_POINT('',(5.256751874712,-1.385376164151,1.160834128796
));
#217 = CARTESIAN_POINT('',(5.262072068009,-1.368627312783,1.155631030283
));
#218 = CARTESIAN_POINT('',(5.26605245589,-1.35159070542,1.149505801544)
);
#219 = CARTESIAN_POINT('',(5.268691072938,-1.334395080117,1.142539932062
));
#220 = CARTESIAN_POINT('',(5.27,-1.317161186165,1.134811251788));
#221 = CARTESIAN_POINT('',(5.27,-1.3,1.126389838385));
#222 = TOROIDAL_SURFACE('',#223,2.792682926829,1.707317073171);
#223 = AXIS2_PLACEMENT_3D('',#224,#225,#226);
#224 = CARTESIAN_POINT('',(2.5,-0.692682926829,4.53));
#225 = DIRECTION('',(0.E+000,-1.,0.E+000));
#226 = DIRECTION('',(1.,0.E+000,0.E+000));
#227 = ADVANCED_FACE('',(#228),#231,.F.);
#228 = FACE_BOUND('',#229,.F.);
#229 = EDGE_LOOP('',(#230));
#230 = ORIENTED_EDGE('',*,*,#64,.T.);
#231 = PLANE('',#232);
#232 = AXIS2_PLACEMENT_3D('',#233,#234,#235);
#233 = CARTESIAN_POINT('',(2.5,1.1,4.53));
#234 = DIRECTION('',(-0.E+000,-1.,-0.E+000));
#235 = DIRECTION('',(0.E+000,0.E+000,-1.));
#236 = ADVANCED_FACE('',(#237),#257,.T.);
#237 = FACE_BOUND('',#238,.T.);
#238 = EDGE_LOOP('',(#239,#240,#248,#255,#256));
#239 = ORIENTED_EDGE('',*,*,#101,.T.);
#240 = ORIENTED_EDGE('',*,*,#241,.T.);
#241 = EDGE_CURVE('',#75,#242,#244,.T.);
#242 = VERTEX_POINT('',#243);
#243 = CARTESIAN_POINT('',(0.27,0.E+000,-2.892));
#244 = LINE('',#245,#246);
#245 = CARTESIAN_POINT('',(0.27,0.E+000,4.53));
#246 = VECTOR('',#247,1.);
#247 = DIRECTION('',(-0.E+000,-0.E+000,-1.));
#248 = ORIENTED_EDGE('',*,*,#249,.T.);
#249 = EDGE_CURVE('',#242,#242,#250,.T.);
#250 = CIRCLE('',#251,0.27);
#251 = AXIS2_PLACEMENT_3D('',#252,#253,#254);
#252 = CARTESIAN_POINT('',(0.E+000,0.E+000,-2.892));
#253 = DIRECTION('',(0.E+000,0.E+000,1.));
#254 = DIRECTION('',(1.,0.E+000,0.E+000));
#255 = ORIENTED_EDGE('',*,*,#241,.F.);
#256 = ORIENTED_EDGE('',*,*,#74,.T.);
#257 = CYLINDRICAL_SURFACE('',#258,0.27);
#258 = AXIS2_PLACEMENT_3D('',#259,#260,#261);
#259 = CARTESIAN_POINT('',(0.E+000,0.E+000,4.53));
#260 = DIRECTION('',(0.E+000,0.E+000,1.));
#261 = DIRECTION('',(1.,0.E+000,0.E+000));
#262 = ADVANCED_FACE('',(#263),#266,.T.);
#263 = FACE_BOUND('',#264,.T.);
#264 = EDGE_LOOP('',(#265));
#265 = ORIENTED_EDGE('',*,*,#149,.T.);
#266 = PLANE('',#267);
#267 = AXIS2_PLACEMENT_3D('',#268,#269,#270);
#268 = CARTESIAN_POINT('',(2.5,-2.4,4.53));
#269 = DIRECTION('',(-0.E+000,-1.,-0.E+000));
#270 = DIRECTION('',(0.E+000,0.E+000,-1.));
#271 = ADVANCED_FACE('',(#272),#292,.T.);
#272 = FACE_BOUND('',#273,.T.);
#273 = EDGE_LOOP('',(#274,#275,#283,#290,#291));
#274 = ORIENTED_EDGE('',*,*,#159,.F.);
#275 = ORIENTED_EDGE('',*,*,#276,.T.);
#276 = EDGE_CURVE('',#160,#277,#279,.T.);
#277 = VERTEX_POINT('',#278);
#278 = CARTESIAN_POINT('',(5.27,-1.3,-2.892));
#279 = LINE('',#280,#281);
#280 = CARTESIAN_POINT('',(5.27,-1.3,4.53));
#281 = VECTOR('',#282,1.);
#282 = DIRECTION('',(-0.E+000,-0.E+000,-1.));
#283 = ORIENTED_EDGE('',*,*,#284,.T.);
#284 = EDGE_CURVE('',#277,#277,#285,.T.);
#285 = CIRCLE('',#286,0.27);
#286 = AXIS2_PLACEMENT_3D('',#287,#288,#289);
#287 = CARTESIAN_POINT('',(5.,-1.3,-2.892));
#288 = DIRECTION('',(0.E+000,0.E+000,1.));
#289 = DIRECTION('',(1.,0.E+000,0.E+000));
#290 = ORIENTED_EDGE('',*,*,#276,.F.);
#291 = ORIENTED_EDGE('',*,*,#178,.F.);
#292 = CYLINDRICAL_SURFACE('',#293,0.27);
#293 = AXIS2_PLACEMENT_3D('',#294,#295,#296);
#294 = CARTESIAN_POINT('',(5.,-1.3,4.53));
#295 = DIRECTION('',(0.E+000,0.E+000,1.));
#296 = DIRECTION('',(1.,0.E+000,0.E+000));
#297 = ADVANCED_FACE('',(#298),#318,.T.);
#298 = FACE_BOUND('',#299,.F.);
#299 = EDGE_LOOP('',(#300,#309,#310,#311));
#300 = ORIENTED_EDGE('',*,*,#301,.F.);
#301 = EDGE_CURVE('',#242,#302,#304,.T.);
#302 = VERTEX_POINT('',#303);
#303 = CARTESIAN_POINT('',(0.162,0.E+000,-3.));
#304 = CIRCLE('',#305,0.108);
#305 = AXIS2_PLACEMENT_3D('',#306,#307,#308);
#306 = CARTESIAN_POINT('',(0.162,0.E+000,-2.892));
#307 = DIRECTION('',(-0.E+000,1.,0.E+000));
#308 = DIRECTION('',(1.,0.E+000,0.E+000));
#309 = ORIENTED_EDGE('',*,*,#249,.T.);
#310 = ORIENTED_EDGE('',*,*,#301,.T.);
#311 = ORIENTED_EDGE('',*,*,#312,.F.);
#312 = EDGE_CURVE('',#302,#302,#313,.T.);
#313 = CIRCLE('',#314,0.162);
#314 = AXIS2_PLACEMENT_3D('',#315,#316,#317);
#315 = CARTESIAN_POINT('',(0.E+000,0.E+000,-3.));
#316 = DIRECTION('',(0.E+000,0.E+000,1.));
#317 = DIRECTION('',(1.,0.E+000,0.E+000));
#318 = TOROIDAL_SURFACE('',#319,0.162,0.108);
#319 = AXIS2_PLACEMENT_3D('',#320,#321,#322);
#320 = CARTESIAN_POINT('',(0.E+000,0.E+000,-2.892));
#321 = DIRECTION('',(-0.E+000,-0.E+000,-1.));
#322 = DIRECTION('',(1.,0.E+000,0.E+000));
#323 = ADVANCED_FACE('',(#324),#344,.T.);
#324 = FACE_BOUND('',#325,.F.);
#325 = EDGE_LOOP('',(#326,#335,#336,#337));
#326 = ORIENTED_EDGE('',*,*,#327,.F.);
#327 = EDGE_CURVE('',#277,#328,#330,.T.);
#328 = VERTEX_POINT('',#329);
#329 = CARTESIAN_POINT('',(5.162,-1.3,-3.));
#330 = CIRCLE('',#331,0.108);
#331 = AXIS2_PLACEMENT_3D('',#332,#333,#334);
#332 = CARTESIAN_POINT('',(5.162,-1.3,-2.892));
#333 = DIRECTION('',(-0.E+000,1.,0.E+000));
#334 = DIRECTION('',(1.,0.E+000,0.E+000));
#335 = ORIENTED_EDGE('',*,*,#284,.T.);
#336 = ORIENTED_EDGE('',*,*,#327,.T.);
#337 = ORIENTED_EDGE('',*,*,#338,.F.);
#338 = EDGE_CURVE('',#328,#328,#339,.T.);
#339 = CIRCLE('',#340,0.162);
#340 = AXIS2_PLACEMENT_3D('',#341,#342,#343);
#341 = CARTESIAN_POINT('',(5.,-1.3,-3.));
#342 = DIRECTION('',(0.E+000,0.E+000,1.));
#343 = DIRECTION('',(1.,0.E+000,0.E+000));
#344 = TOROIDAL_SURFACE('',#345,0.162,0.108);
#345 = AXIS2_PLACEMENT_3D('',#346,#347,#348);
#346 = CARTESIAN_POINT('',(5.,-1.3,-2.892));
#347 = DIRECTION('',(-0.E+000,-0.E+000,-1.));
#348 = DIRECTION('',(1.,0.E+000,0.E+000));
#349 = ADVANCED_FACE('',(#350),#353,.F.);
#350 = FACE_BOUND('',#351,.F.);
#351 = EDGE_LOOP('',(#352));
#352 = ORIENTED_EDGE('',*,*,#312,.T.);
#353 = PLANE('',#354);
#354 = AXIS2_PLACEMENT_3D('',#355,#356,#357);
#355 = CARTESIAN_POINT('',(-1.978356673234E-017,2.854531227236E-017,-3.)
);
#356 = DIRECTION('',(0.E+000,0.E+000,1.));
#357 = DIRECTION('',(1.,0.E+000,0.E+000));
#358 = ADVANCED_FACE('',(#359),#362,.F.);
#359 = FACE_BOUND('',#360,.F.);
#360 = EDGE_LOOP('',(#361));
#361 = ORIENTED_EDGE('',*,*,#338,.T.);
#362 = PLANE('',#363);
#363 = AXIS2_PLACEMENT_3D('',#364,#365,#366);
#364 = CARTESIAN_POINT('',(5.,-1.3,-3.));
#365 = DIRECTION('',(0.E+000,0.E+000,1.));
#366 = DIRECTION('',(1.,0.E+000,0.E+000));
#367 = ( GEOMETRIC_REPRESENTATION_CONTEXT(3)
GLOBAL_UNCERTAINTY_ASSIGNED_CONTEXT((#371)) GLOBAL_UNIT_ASSIGNED_CONTEXT
((#368,#369,#370)) REPRESENTATION_CONTEXT('Context #1',
'3D Context with UNIT and UNCERTAINTY') );
#368 = ( LENGTH_UNIT() NAMED_UNIT(*) SI_UNIT(.MILLI.,.METRE.) );
#369 = ( NAMED_UNIT(*) PLANE_ANGLE_UNIT() SI_UNIT($,.RADIAN.) );
#370 = ( NAMED_UNIT(*) SI_UNIT($,.STERADIAN.) SOLID_ANGLE_UNIT() );
#371 = UNCERTAINTY_MEASURE_WITH_UNIT(LENGTH_MEASURE(1.E-007),#368,
'distance_accuracy_value','confusion accuracy');
#372 = PRODUCT_RELATED_PRODUCT_CATEGORY('part',$,(#7));
#373 = MECHANICAL_DESIGN_GEOMETRIC_PRESENTATION_REPRESENTATION('',(#374,
#382,#389,#396,#403,#411,#418,#425,#432,#439,#446),#367);
#374 = STYLED_ITEM('color',(#375),#17);
#375 = PRESENTATION_STYLE_ASSIGNMENT((#376));
#376 = SURFACE_STYLE_USAGE(.BOTH.,#377);
#377 = SURFACE_SIDE_STYLE('',(#378));
#378 = SURFACE_STYLE_FILL_AREA(#379);
#379 = FILL_AREA_STYLE('',(#380));
#380 = FILL_AREA_STYLE_COLOUR('',#381);
#381 = COLOUR_RGB('',0.136999994516,0.402000010014,0.726999998093);
#382 = STYLED_ITEM('color',(#383),#50);
#383 = PRESENTATION_STYLE_ASSIGNMENT((#384));
#384 = SURFACE_STYLE_USAGE(.BOTH.,#385);
#385 = SURFACE_SIDE_STYLE('',(#386));
#386 = SURFACE_STYLE_FILL_AREA(#387);
#387 = FILL_AREA_STYLE('',(#388));
#388 = FILL_AREA_STYLE_COLOUR('',#381);
#389 = STYLED_ITEM('color',(#390),#135);
#390 = PRESENTATION_STYLE_ASSIGNMENT((#391));
#391 = SURFACE_STYLE_USAGE(.BOTH.,#392);
#392 = SURFACE_SIDE_STYLE('',(#393));
#393 = SURFACE_STYLE_FILL_AREA(#394);
#394 = FILL_AREA_STYLE('',(#395));
#395 = FILL_AREA_STYLE_COLOUR('',#381);
#396 = STYLED_ITEM('color',(#397),#227);
#397 = PRESENTATION_STYLE_ASSIGNMENT((#398));
#398 = SURFACE_STYLE_USAGE(.BOTH.,#399);
#399 = SURFACE_SIDE_STYLE('',(#400));
#400 = SURFACE_STYLE_FILL_AREA(#401);
#401 = FILL_AREA_STYLE('',(#402));
#402 = FILL_AREA_STYLE_COLOUR('',#381);
#403 = STYLED_ITEM('color',(#404),#236);
#404 = PRESENTATION_STYLE_ASSIGNMENT((#405));
#405 = SURFACE_STYLE_USAGE(.BOTH.,#406);
#406 = SURFACE_SIDE_STYLE('',(#407));
#407 = SURFACE_STYLE_FILL_AREA(#408);
#408 = FILL_AREA_STYLE('',(#409));
#409 = FILL_AREA_STYLE_COLOUR('',#410);
#410 = COLOUR_RGB('',0.824000000954,0.819999992847,0.78100001812);
#411 = STYLED_ITEM('color',(#412),#262);
#412 = PRESENTATION_STYLE_ASSIGNMENT((#413));
#413 = SURFACE_STYLE_USAGE(.BOTH.,#414);
#414 = SURFACE_SIDE_STYLE('',(#415));
#415 = SURFACE_STYLE_FILL_AREA(#416);
#416 = FILL_AREA_STYLE('',(#417));
#417 = FILL_AREA_STYLE_COLOUR('',#381);
#418 = STYLED_ITEM('color',(#419),#271);
#419 = PRESENTATION_STYLE_ASSIGNMENT((#420));
#420 = SURFACE_STYLE_USAGE(.BOTH.,#421);
#421 = SURFACE_SIDE_STYLE('',(#422));
#422 = SURFACE_STYLE_FILL_AREA(#423);
#423 = FILL_AREA_STYLE('',(#424));
#424 = FILL_AREA_STYLE_COLOUR('',#410);
#425 = STYLED_ITEM('color',(#426),#297);
#426 = PRESENTATION_STYLE_ASSIGNMENT((#427));
#427 = SURFACE_STYLE_USAGE(.BOTH.,#428);
#428 = SURFACE_SIDE_STYLE('',(#429));
#429 = SURFACE_STYLE_FILL_AREA(#430);
#430 = FILL_AREA_STYLE('',(#431));
#431 = FILL_AREA_STYLE_COLOUR('',#410);
#432 = STYLED_ITEM('color',(#433),#323);
#433 = PRESENTATION_STYLE_ASSIGNMENT((#434));
#434 = SURFACE_STYLE_USAGE(.BOTH.,#435);
#435 = SURFACE_SIDE_STYLE('',(#436));
#436 = SURFACE_STYLE_FILL_AREA(#437);
#437 = FILL_AREA_STYLE('',(#438));
#438 = FILL_AREA_STYLE_COLOUR('',#410);
#439 = STYLED_ITEM('color',(#440),#349);
#440 = PRESENTATION_STYLE_ASSIGNMENT((#441));
#441 = SURFACE_STYLE_USAGE(.BOTH.,#442);
#442 = SURFACE_SIDE_STYLE('',(#443));
#443 = SURFACE_STYLE_FILL_AREA(#444);
#444 = FILL_AREA_STYLE('',(#445));
#445 = FILL_AREA_STYLE_COLOUR('',#410);
#446 = STYLED_ITEM('color',(#447),#358);
#447 = PRESENTATION_STYLE_ASSIGNMENT((#448));
#448 = SURFACE_STYLE_USAGE(.BOTH.,#449);
#449 = SURFACE_SIDE_STYLE('',(#450));
#450 = SURFACE_STYLE_FILL_AREA(#451);
#451 = FILL_AREA_STYLE('',(#452));
#452 = FILL_AREA_STYLE_COLOUR('',#410);
ENDSEC;
END-ISO-10303-21;
