ISO-10303-21;
HEADER;
/* RV_Disc_D21.5mm_W4.4mm_P10mm.step 3D STEP model for use in ECAD systems
 * Copyright (C) 2018, kicad StepUp
 * 
 * This work is licensed under the [Creative Commons CC-BY-SA 4.0 License](https://creativecommons.org/licenses/by-sa/4.0/legalcode), 
 * with the following exception:
 * To the extent that the creation of electronic designs that use 'Licensed Material' can be considered to be 'Adapted Material', 
 * then the copyright holder waives article 3 of the license with respect to these designs and any generated files which use data provided 
 * as part of the 'Licensed Material'.
 * You are free to use the library data in your own projects without the obligation to share your project files under this or any other license agreement.
 * However, if you wish to redistribute these libraries, or parts thereof (including in modified form) as a collection then the exception above does not apply. 
 * Please refer to https://github.com/KiCad/kicad-packages3D/blob/master/LICENSE.md for further clarification of the exception.
 * Disclaimer of Warranties and Limitation of Liability.
 * These libraries are provided in the hope that they will be useful, but are provided without warranty of any kind, express or implied.
 * *USE 3D CAD DATA AT YOUR OWN RISK*
 * *DO NOT RELY UPON ANY INFORMATION FOUND HERE WITHOUT INDEPENDENT VERIFICATION.*
 * 
 */

FILE_DESCRIPTION(
/* description */ ('model of RV_Disc_D21.5mm_W4.4mm_P10mm'),
/* implementation_level */ '2;1');

FILE_NAME(
/* name */ 'RV_Disc_D21.5mm_W4.4mm_P10mm.step',
/* time_stamp */ '2018-11-11T21:02:30',
/* author */ ('kicad StepUp','ksu'),
/* organization */ ('FreeCAD'),
/* preprocessor_version */ 'OCC',
/* originating_system */ 'kicad StepUp',
/* authorisation */ '');

FILE_SCHEMA(('AUTOMOTIVE_DESIGN { 1 0 10303 214 1 1 1 1 }'));
ENDSEC;

DATA;
#1 = APPLICATION_PROTOCOL_DEFINITION('international standard',
'automotive_design',2000,#2);
#2 = APPLICATION_CONTEXT(
'core data for automotive mechanical design processes');
#3 = SHAPE_DEFINITION_REPRESENTATION(#4,#10);
#4 = PRODUCT_DEFINITION_SHAPE('','',#5);
#5 = PRODUCT_DEFINITION('design','',#6,#9);
#6 = PRODUCT_DEFINITION_FORMATION('','',#7);
#7 = PRODUCT('RV_Disc_D215mm_W44mm_P10mm','RV_Disc_D215mm_W44mm_P10mm',
'',(#8));
#8 = PRODUCT_CONTEXT('',#2,'mechanical');
#9 = PRODUCT_DEFINITION_CONTEXT('part definition',#2,'design');
#10 = ADVANCED_BREP_SHAPE_REPRESENTATION('',(#11,#15),#401);
#11 = AXIS2_PLACEMENT_3D('',#12,#13,#14);
#12 = CARTESIAN_POINT('',(0.E+000,0.E+000,0.E+000));
#13 = DIRECTION('',(0.E+000,0.E+000,1.));
#14 = DIRECTION('',(1.,0.E+000,-0.E+000));
#15 = MANIFOLD_SOLID_BREP('',#16);
#16 = CLOSED_SHELL('',(#17,#50,#156,#261,#270,#296,#305,#331,#357,#383,
#392));
#17 = ADVANCED_FACE('',(#18),#45,.T.);
#18 = FACE_BOUND('',#19,.F.);
#19 = EDGE_LOOP('',(#20,#30,#37,#38));
#20 = ORIENTED_EDGE('',*,*,#21,.T.);
#21 = EDGE_CURVE('',#22,#24,#26,.T.);
#22 = VERTEX_POINT('',#23);
#23 = CARTESIAN_POINT('',(15.75,-0.746341463415,10.78));
#24 = VERTEX_POINT('',#25);
#25 = CARTESIAN_POINT('',(15.75,-0.853658536585,10.78));
#26 = LINE('',#27,#28);
#27 = CARTESIAN_POINT('',(15.75,1.4,10.78));
#28 = VECTOR('',#29,1.);
#29 = DIRECTION('',(0.E+000,-1.,0.E+000));
#30 = ORIENTED_EDGE('',*,*,#31,.T.);
#31 = EDGE_CURVE('',#24,#24,#32,.T.);
#32 = CIRCLE('',#33,10.75);
#33 = AXIS2_PLACEMENT_3D('',#34,#35,#36);
#34 = CARTESIAN_POINT('',(5.,-0.853658536585,10.78));
#35 = DIRECTION('',(0.E+000,-1.,0.E+000));
#36 = DIRECTION('',(1.,0.E+000,0.E+000));
#37 = ORIENTED_EDGE('',*,*,#21,.F.);
#38 = ORIENTED_EDGE('',*,*,#39,.F.);
#39 = EDGE_CURVE('',#22,#22,#40,.T.);
#40 = CIRCLE('',#41,10.75);
#41 = AXIS2_PLACEMENT_3D('',#42,#43,#44);
#42 = CARTESIAN_POINT('',(5.,-0.746341463415,10.78));
#43 = DIRECTION('',(0.E+000,-1.,0.E+000));
#44 = DIRECTION('',(1.,0.E+000,0.E+000));
#45 = CYLINDRICAL_SURFACE('',#46,10.75);
#46 = AXIS2_PLACEMENT_3D('',#47,#48,#49);
#47 = CARTESIAN_POINT('',(5.,1.4,10.78));
#48 = DIRECTION('',(0.E+000,1.,0.E+000));
#49 = DIRECTION('',(1.,0.E+000,0.E+000));
#50 = ADVANCED_FACE('',(#51,#71),#151,.T.);
#51 = FACE_BOUND('',#52,.F.);
#52 = EDGE_LOOP('',(#53,#54,#63,#70));
#53 = ORIENTED_EDGE('',*,*,#39,.T.);
#54 = ORIENTED_EDGE('',*,*,#55,.T.);
#55 = EDGE_CURVE('',#22,#56,#58,.T.);
#56 = VERTEX_POINT('',#57);
#57 = CARTESIAN_POINT('',(13.603658536585,1.4,10.78));
#58 = CIRCLE('',#59,2.146341463415);
#59 = AXIS2_PLACEMENT_3D('',#60,#61,#62);
#60 = CARTESIAN_POINT('',(13.603658536585,-0.746341463415,10.78));
#61 = DIRECTION('',(0.E+000,0.E+000,1.));
#62 = DIRECTION('',(1.,0.E+000,0.E+000));
#63 = ORIENTED_EDGE('',*,*,#64,.F.);
#64 = EDGE_CURVE('',#56,#56,#65,.T.);
#65 = CIRCLE('',#66,8.603658536585);
#66 = AXIS2_PLACEMENT_3D('',#67,#68,#69);
#67 = CARTESIAN_POINT('',(5.,1.4,10.78));
#68 = DIRECTION('',(0.E+000,-1.,0.E+000));
#69 = DIRECTION('',(1.,0.E+000,0.E+000));
#70 = ORIENTED_EDGE('',*,*,#55,.F.);
#71 = FACE_BOUND('',#72,.F.);
#72 = EDGE_LOOP('',(#73,#110));
#73 = ORIENTED_EDGE('',*,*,#74,.T.);
#74 = EDGE_CURVE('',#75,#77,#79,.T.);
#75 = VERTEX_POINT('',#76);
#76 = CARTESIAN_POINT('',(0.45,0.E+000,1.188430202329));
#77 = VERTEX_POINT('',#78);
#78 = CARTESIAN_POINT('',(-0.308602355386,-0.327512726853,1.479686344754
));
#79 = B_SPLINE_CURVE_WITH_KNOTS('',8,(#80,#81,#82,#83,#84,#85,#86,#87,
#88,#89,#90,#91,#92,#93,#94,#95,#96,#97,#98,#99,#100,#101,#102,#103,
#104,#105,#106,#107,#108,#109),.UNSPECIFIED.,.F.,.F.,(9,7,7,7,9),(
0.E+000,0.186264299886,0.379994075919,0.489659592785,1.),
.UNSPECIFIED.);
#80 = CARTESIAN_POINT('',(0.45,-5.551115123126E-017,1.188430202329));
#81 = CARTESIAN_POINT('',(0.45,-2.296985581837E-002,1.179001432334));
#82 = CARTESIAN_POINT('',(0.44866001808,-4.61059440766E-002,
1.170519173759));
#83 = CARTESIAN_POINT('',(0.445946115497,-6.931694088712E-002,
1.16303779972));
#84 = CARTESIAN_POINT('',(0.441831587198,-9.250260478004E-002,
1.156604520951));
#85 = CARTESIAN_POINT('',(0.436299304658,-0.115555243753,1.151257685872)
);
#86 = CARTESIAN_POINT('',(0.429344058723,-0.138361182323,1.147025080661)
);
#87 = CARTESIAN_POINT('',(0.420974902453,-0.160802228572,1.143922229316)
);
#88 = CARTESIAN_POINT('',(0.401069008378,-0.205592007087,1.139900138962)
);
#89 = CARTESIAN_POINT('',(0.389417019524,-0.227905130277,1.139073076229)
);
#90 = CARTESIAN_POINT('',(0.376289673029,-0.249559883369,1.139472318377)
);
#91 = CARTESIAN_POINT('',(0.361731208881,-0.27042516168,1.141083696365)
);
#92 = CARTESIAN_POINT('',(0.345800419994,-0.290376592506,1.143878414883)
);
#93 = CARTESIAN_POINT('',(0.32856911079,-0.309297744367,1.147815407967)
);
#94 = CARTESIAN_POINT('',(0.310120555774,-0.327081336259,1.152843694622)
);
#95 = CARTESIAN_POINT('',(0.279468406564,-0.352998479065,1.162335735474)
);
#96 = CARTESIAN_POINT('',(0.268028133933,-0.361971365208,1.166097846883)
);
#97 = CARTESIAN_POINT('',(0.256243506995,-0.370531841126,1.170180658746)
);
#98 = CARTESIAN_POINT('',(0.244131739002,-0.378663638025,1.174573112356)
);
#99 = CARTESIAN_POINT('',(0.231710825038,-0.386351481946,1.179263626872)
);
#100 = CARTESIAN_POINT('',(0.218999477372,-0.393581093191,1.184240225982
));
#101 = CARTESIAN_POINT('',(0.206017060813,-0.400339185747,1.189490664568
));
#102 = CARTESIAN_POINT('',(0.131199844469,-0.435811515386,1.220652738505
));
#103 = CARTESIAN_POINT('',(6.309695271702E-002,-0.455045115803,
1.252414548403));
#104 = CARTESIAN_POINT('',(-8.264833210304E-003,-0.461677124911,
1.288732486464));
#105 = CARTESIAN_POINT('',(-7.908394060447E-002,-0.455255184805,
1.327295621996));
#106 = CARTESIAN_POINT('',(-0.146223327899,-0.436889699107,
1.366435021453));
#107 = CARTESIAN_POINT('',(-0.207565618205,-0.40837268096,1.405170697999
));
#108 = CARTESIAN_POINT('',(-0.261941709719,-0.371479217239,
1.442980193849));
#109 = CARTESIAN_POINT('',(-0.308602355386,-0.327512726853,
1.479686344754));
#110 = ORIENTED_EDGE('',*,*,#111,.T.);
#111 = EDGE_CURVE('',#77,#75,#112,.T.);
#112 = B_SPLINE_CURVE_WITH_KNOTS('',7,(#113,#114,#115,#116,#117,#118,
#119,#120,#121,#122,#123,#124,#125,#126,#127,#128,#129,#130,#131,
#132,#133,#134,#135,#136,#137,#138,#139,#140,#141,#142,#143,#144,
#145,#146,#147,#148,#149,#150),.UNSPECIFIED.,.F.,.F.,(8,6,6,6,6,6,8)
,(0.E+000,8.039720115072E-002,0.349306447182,0.497103672649,
0.627559624282,0.776079159171,1.),.UNSPECIFIED.);
#113 = CARTESIAN_POINT('',(-0.308602355386,-0.327512726853,
1.479686344754));
#114 = CARTESIAN_POINT('',(-0.323494789064,-0.313480172592,
1.491401654522));
#115 = CARTESIAN_POINT('',(-0.337583980655,-0.298712996864,
1.503001458325));
#116 = CARTESIAN_POINT('',(-0.350836798497,-0.283263627647,
1.514473862398));
#117 = CARTESIAN_POINT('',(-0.363223456839,-0.267184808764,
1.525808061069));
#118 = CARTESIAN_POINT('',(-0.374717285545,-0.250529491395,
1.536993760838));
#119 = CARTESIAN_POINT('',(-0.38529449981,-0.233350725593,1.548020604454
));
#120 = CARTESIAN_POINT('',(-0.427175672164,-0.156669322409,
1.595191609627));
#121 = CARTESIAN_POINT('',(-0.448895280975,-9.243107811912E-002,
1.629570184024));
#122 = CARTESIAN_POINT('',(-0.459384812362,-2.490762287254E-002,
1.661662854696));
#123 = CARTESIAN_POINT('',(-0.458128630727,4.394860003536E-002,
1.690960354147));
#124 = CARTESIAN_POINT('',(-0.444854834135,0.112036523539,1.716643485526
));
#125 = CARTESIAN_POINT('',(-0.41957034277,0.177111054477,1.737327672015)
);
#126 = CARTESIAN_POINT('',(-0.362471161711,0.269438566603,1.758667879529
));
#127 = CARTESIAN_POINT('',(-0.338737618839,0.300507490736,1.764144409403
));
#128 = CARTESIAN_POINT('',(-0.311623798866,0.329459630966,1.767209171381
));
#129 = CARTESIAN_POINT('',(-0.281309428822,0.355813627799,1.767501029115
));
#130 = CARTESIAN_POINT('',(-0.248097236873,0.379074179301,1.764655039418
));
#131 = CARTESIAN_POINT('',(-0.212433867824,0.398786564494,1.758385908897
));
#132 = CARTESIAN_POINT('',(-0.141783368973,0.428590608463,1.739994183347
));
#133 = CARTESIAN_POINT('',(-0.107190100691,0.439547141223,1.728639577412
));
#134 = CARTESIAN_POINT('',(-7.154761076481E-002,0.447243461494,
1.714500781412));
#135 = CARTESIAN_POINT('',(-3.538538963647E-002,0.4515119796,
1.697655946093));
#136 = CARTESIAN_POINT('',(6.834306106453E-004,0.452330902113,
1.678399982101));
#137 = CARTESIAN_POINT('',(3.600769071824E-002,0.449872241523,
1.657254252311));
#138 = CARTESIAN_POINT('',(0.108621896769,0.438443544938,1.609449804046)
);
#139 = CARTESIAN_POINT('',(0.14569778018,0.428588655537,1.582306882046)
);
#140 = CARTESIAN_POINT('',(0.180902565153,0.415370990173,1.554011400883)
);
#141 = CARTESIAN_POINT('',(0.214058923673,0.399154922517,1.525055148728)
);
#142 = CARTESIAN_POINT('',(0.24505560502,0.380243270172,1.495850845742)
);
#143 = CARTESIAN_POINT('',(0.273809937528,0.358868997003,1.466731090437)
);
#144 = CARTESIAN_POINT('',(0.340084303747,0.299506519101,1.394623934346)
);
#145 = CARTESIAN_POINT('',(0.37458231008,0.25864776052,1.352168215372));
#146 = CARTESIAN_POINT('',(0.403407220534,0.213265497955,1.311631873975)
);
#147 = CARTESIAN_POINT('',(0.426052425894,0.163895873141,1.273989259592)
);
#148 = CARTESIAN_POINT('',(0.441831381148,0.111200895293,1.240262444001)
);
#149 = CARTESIAN_POINT('',(0.45,5.612879252066E-002,1.211470202187));
#150 = CARTESIAN_POINT('',(0.45,-5.551115123126E-017,1.188430202329));
#151 = TOROIDAL_SURFACE('',#152,8.603658536585,2.146341463415);
#152 = AXIS2_PLACEMENT_3D('',#153,#154,#155);
#153 = CARTESIAN_POINT('',(5.,-0.746341463415,10.78));
#154 = DIRECTION('',(0.E+000,1.,0.E+000));
#155 = DIRECTION('',(1.,0.E+000,0.E+000));
#156 = ADVANCED_FACE('',(#157,#177),#256,.T.);
#157 = FACE_BOUND('',#158,.T.);
#158 = EDGE_LOOP('',(#159,#160,#169,#176));
#159 = ORIENTED_EDGE('',*,*,#31,.T.);
#160 = ORIENTED_EDGE('',*,*,#161,.T.);
#161 = EDGE_CURVE('',#24,#162,#164,.T.);
#162 = VERTEX_POINT('',#163);
#163 = CARTESIAN_POINT('',(13.603658536585,-3.,10.78));
#164 = CIRCLE('',#165,2.146341463415);
#165 = AXIS2_PLACEMENT_3D('',#166,#167,#168);
#166 = CARTESIAN_POINT('',(13.603658536585,-0.853658536585,10.78));
#167 = DIRECTION('',(0.E+000,0.E+000,-1.));
#168 = DIRECTION('',(1.,0.E+000,0.E+000));
#169 = ORIENTED_EDGE('',*,*,#170,.F.);
#170 = EDGE_CURVE('',#162,#162,#171,.T.);
#171 = CIRCLE('',#172,8.603658536585);
#172 = AXIS2_PLACEMENT_3D('',#173,#174,#175);
#173 = CARTESIAN_POINT('',(5.,-3.,10.78));
#174 = DIRECTION('',(0.E+000,-1.,0.E+000));
#175 = DIRECTION('',(1.,0.E+000,0.E+000));
#176 = ORIENTED_EDGE('',*,*,#161,.F.);
#177 = FACE_BOUND('',#178,.T.);
#178 = EDGE_LOOP('',(#179,#206));
#179 = ORIENTED_EDGE('',*,*,#180,.T.);
#180 = EDGE_CURVE('',#181,#183,#185,.T.);
#181 = VERTEX_POINT('',#182);
#182 = CARTESIAN_POINT('',(10.45,-1.6,1.669664595439));
#183 = VERTEX_POINT('',#184);
#184 = CARTESIAN_POINT('',(9.827513228386,-1.184369979888,1.203612364117
));
#185 = B_SPLINE_CURVE_WITH_KNOTS('',7,(#186,#187,#188,#189,#190,#191,
#192,#193,#194,#195,#196,#197,#198,#199,#200,#201,#202,#203,#204,
#205),.UNSPECIFIED.,.F.,.F.,(8,6,6,8),(0.E+000,0.265632632824,
0.47179727013,1.),.UNSPECIFIED.);
#186 = CARTESIAN_POINT('',(10.45,-1.6,1.669664595439));
#187 = CARTESIAN_POINT('',(10.45,-1.567738153366,1.655722074024));
#188 = CARTESIAN_POINT('',(10.447301554711,-1.535574330993,
1.641014026852));
#189 = CARTESIAN_POINT('',(10.441934186141,-1.503736671761,
1.625637015334));
#190 = CARTESIAN_POINT('',(10.433939888131,-1.47244983384,1.609667070541
));
#191 = CARTESIAN_POINT('',(10.423374327265,-1.441935722482,
1.593164736204));
#192 = CARTESIAN_POINT('',(10.41030804377,-1.412414217802,1.576180111731
));
#193 = CARTESIAN_POINT('',(10.382812903951,-1.36213150479,1.54523604394)
);
#194 = CARTESIAN_POINT('',(10.369344310687,-1.340889297331,
1.531450977333));
#195 = CARTESIAN_POINT('',(10.354462648318,-1.320479557288,
1.517423883849));
#196 = CARTESIAN_POINT('',(10.338215104031,-1.301004723474,
1.503174416279));
#197 = CARTESIAN_POINT('',(10.320655994086,-1.282567010035,
1.488722463344));
#198 = CARTESIAN_POINT('',(10.301847481384,-1.265268020075,
1.474089921292));
#199 = CARTESIAN_POINT('',(10.230652250873,-1.20806281275,1.421416363296
));
#200 = CARTESIAN_POINT('',(10.171728652897,-1.175068952468,
1.382529799249));
#201 = CARTESIAN_POINT('',(10.106043993818,-1.151712103936,
1.342891081263));
#202 = CARTESIAN_POINT('',(10.035217729908,-1.140062162041,
1.303297064648));
#203 = CARTESIAN_POINT('',(9.962318200482,-1.142010763038,1.265214337343
));
#204 = CARTESIAN_POINT('',(9.891769378838,-1.157703629019,1.231347317468
));
#205 = CARTESIAN_POINT('',(9.827513228386,-1.184369979888,1.203612364117
));
#206 = ORIENTED_EDGE('',*,*,#207,.T.);
#207 = EDGE_CURVE('',#183,#181,#208,.T.);
#208 = B_SPLINE_CURVE_WITH_KNOTS('',6,(#209,#210,#211,#212,#213,#214,
#215,#216,#217,#218,#219,#220,#221,#222,#223,#224,#225,#226,#227,
#228,#229,#230,#231,#232,#233,#234,#235,#236,#237,#238,#239,#240,
#241,#242,#243,#244,#245,#246,#247,#248,#249,#250,#251,#252,#253,
#254,#255),.UNSPECIFIED.,.F.,.F.,(7,5,5,5,5,5,5,5,5,7),(0.E+000,
6.389595359536E-002,0.169874140092,0.272534461323,0.323442793632,
0.473059189462,0.61279858377,0.735412868922,0.860677497439,1.),
.UNSPECIFIED.);
#209 = CARTESIAN_POINT('',(9.827513228386,-1.184369979888,1.203612364117
));
#210 = CARTESIAN_POINT('',(9.807340081588,-1.192741851014,1.194905006434
));
#211 = CARTESIAN_POINT('',(9.787697137274,-1.202271006555,1.186772814211
));
#212 = CARTESIAN_POINT('',(9.768664920758,-1.212913099577,1.179264799935
));
#213 = CARTESIAN_POINT('',(9.750319540706,-1.224616507956,1.172429288878
));
#214 = CARTESIAN_POINT('',(9.732731831748,-1.237322543628,1.166312077292
));
#215 = CARTESIAN_POINT('',(9.688159419091,-1.27359421411,1.152068633182)
);
#216 = CARTESIAN_POINT('',(9.662611144637,-1.298803382278,1.145271463126
));
#217 = CARTESIAN_POINT('',(9.639628008356,-1.326287574997,1.140756341748
));
#218 = CARTESIAN_POINT('',(9.619462426177,-1.355682047675,1.138676603156
));
#219 = CARTESIAN_POINT('',(9.602294413877,-1.386576632581,1.139117468972
));
#220 = CARTESIAN_POINT('',(9.574572641753,-1.449481956014,1.144925888961
));
#221 = CARTESIAN_POINT('',(9.563824976395,-1.481436344131,1.150139487));
#222 = CARTESIAN_POINT('',(9.556053332162,-1.5139916307,1.157701953133)
);
#223 = CARTESIAN_POINT('',(9.551244026746,-1.546766475707,1.167525301902
));
#224 = CARTESIAN_POINT('',(9.549316079417,-1.579416168082,1.179461971646
));
#225 = CARTESIAN_POINT('',(9.550564756612,-1.627633857835,1.200201839698
));
#226 = CARTESIAN_POINT('',(9.55165827769,-1.643516853445,1.207551929306)
);
#227 = CARTESIAN_POINT('',(9.553416524982,-1.659264113581,1.215354442459
));
#228 = CARTESIAN_POINT('',(9.555823664972,-1.674844382441,1.223585994904
));
#229 = CARTESIAN_POINT('',(9.558862886372,-1.690229613724,1.23222217423)
);
#230 = CARTESIAN_POINT('',(9.573253847884,-1.749965003468,1.267733134056
));
#231 = CARTESIAN_POINT('',(9.589295546205,-1.792621711988,1.297496944176
));
#232 = CARTESIAN_POINT('',(9.610203637891,-1.832759544951,1.329905374195
));
#233 = CARTESIAN_POINT('',(9.635548903501,-1.869939831318,1.36429610257)
);
#234 = CARTESIAN_POINT('',(9.665003704262,-1.903802708673,1.400030814978
));
#235 = CARTESIAN_POINT('',(9.729481386456,-1.962050497228,1.470427307369
));
#236 = CARTESIAN_POINT('',(9.763972869169,-1.986881712525,1.50496579548)
);
#237 = CARTESIAN_POINT('',(9.801665270746,-2.008117754851,1.539536866995
));
#238 = CARTESIAN_POINT('',(9.842409882193,-2.025293059973,1.573504497738
));
#239 = CARTESIAN_POINT('',(9.88595077756,-2.037767124068,1.605997823821)
);
#240 = CARTESIAN_POINT('',(9.97194313214,-2.050961241748,1.662378027292)
);
#241 = CARTESIAN_POINT('',(10.014066943673,-2.05296442643,1.686958840729
));
#242 = CARTESIAN_POINT('',(10.056986058353,-2.050101573556,
1.708536447808));
#243 = CARTESIAN_POINT('',(10.099497724524,-2.042212798409,1.72627851286
));
#244 = CARTESIAN_POINT('',(10.140588759261,-2.029578294777,
1.739994831332));
#245 = CARTESIAN_POINT('',(10.219297031384,-1.995335676469,1.75981453513
));
#246 = CARTESIAN_POINT('',(10.25683926921,-1.973531162771,1.765752492099
));
#247 = CARTESIAN_POINT('',(10.291374364031,-1.947682228516,
1.767731841332));
#248 = CARTESIAN_POINT('',(10.322358607143,-1.918437304152,
1.766202365264));
#249 = CARTESIAN_POINT('',(10.349486757883,-1.886456171982,
1.761659517791));
#250 = CARTESIAN_POINT('',(10.398294979276,-1.814386977889,
1.746625573134));
#251 = CARTESIAN_POINT('',(10.419019561465,-1.773795567553,
1.735524848226));
#252 = CARTESIAN_POINT('',(10.434565366924,-1.731354219764,
1.721840554051));
#253 = CARTESIAN_POINT('',(10.444880851632,-1.687804292489,
1.706078361328));
#254 = CARTESIAN_POINT('',(10.45,-1.643814296321,1.688599710086));
#255 = CARTESIAN_POINT('',(10.45,-1.6,1.669664595439));
#256 = TOROIDAL_SURFACE('',#257,8.603658536585,2.146341463415);
#257 = AXIS2_PLACEMENT_3D('',#258,#259,#260);
#258 = CARTESIAN_POINT('',(5.,-0.853658536585,10.78));
#259 = DIRECTION('',(0.E+000,-1.,0.E+000));
#260 = DIRECTION('',(1.,0.E+000,0.E+000));
#261 = ADVANCED_FACE('',(#262),#265,.F.);
#262 = FACE_BOUND('',#263,.F.);
#263 = EDGE_LOOP('',(#264));
#264 = ORIENTED_EDGE('',*,*,#64,.T.);
#265 = PLANE('',#266);
#266 = AXIS2_PLACEMENT_3D('',#267,#268,#269);
#267 = CARTESIAN_POINT('',(5.,1.4,10.78));
#268 = DIRECTION('',(-0.E+000,-1.,-0.E+000));
#269 = DIRECTION('',(0.E+000,0.E+000,-1.));
#270 = ADVANCED_FACE('',(#271),#291,.T.);
#271 = FACE_BOUND('',#272,.T.);
#272 = EDGE_LOOP('',(#273,#274,#282,#289,#290));
#273 = ORIENTED_EDGE('',*,*,#111,.T.);
#274 = ORIENTED_EDGE('',*,*,#275,.T.);
#275 = EDGE_CURVE('',#75,#276,#278,.T.);
#276 = VERTEX_POINT('',#277);
#277 = CARTESIAN_POINT('',(0.45,0.E+000,-2.82));
#278 = LINE('',#279,#280);
#279 = CARTESIAN_POINT('',(0.45,0.E+000,10.78));
#280 = VECTOR('',#281,1.);
#281 = DIRECTION('',(-0.E+000,-0.E+000,-1.));
#282 = ORIENTED_EDGE('',*,*,#283,.T.);
#283 = EDGE_CURVE('',#276,#276,#284,.T.);
#284 = CIRCLE('',#285,0.45);
#285 = AXIS2_PLACEMENT_3D('',#286,#287,#288);
#286 = CARTESIAN_POINT('',(0.E+000,0.E+000,-2.82));
#287 = DIRECTION('',(0.E+000,0.E+000,1.));
#288 = DIRECTION('',(1.,0.E+000,0.E+000));
#289 = ORIENTED_EDGE('',*,*,#275,.F.);
#290 = ORIENTED_EDGE('',*,*,#74,.T.);
#291 = CYLINDRICAL_SURFACE('',#292,0.45);
#292 = AXIS2_PLACEMENT_3D('',#293,#294,#295);
#293 = CARTESIAN_POINT('',(0.E+000,0.E+000,10.78));
#294 = DIRECTION('',(0.E+000,0.E+000,1.));
#295 = DIRECTION('',(1.,0.E+000,0.E+000));
#296 = ADVANCED_FACE('',(#297),#300,.T.);
#297 = FACE_BOUND('',#298,.T.);
#298 = EDGE_LOOP('',(#299));
#299 = ORIENTED_EDGE('',*,*,#170,.T.);
#300 = PLANE('',#301);
#301 = AXIS2_PLACEMENT_3D('',#302,#303,#304);
#302 = CARTESIAN_POINT('',(5.,-3.,10.78));
#303 = DIRECTION('',(-0.E+000,-1.,-0.E+000));
#304 = DIRECTION('',(0.E+000,0.E+000,-1.));
#305 = ADVANCED_FACE('',(#306),#326,.T.);
#306 = FACE_BOUND('',#307,.T.);
#307 = EDGE_LOOP('',(#308,#309,#317,#324,#325));
#308 = ORIENTED_EDGE('',*,*,#180,.F.);
#309 = ORIENTED_EDGE('',*,*,#310,.T.);
#310 = EDGE_CURVE('',#181,#311,#313,.T.);
#311 = VERTEX_POINT('',#312);
#312 = CARTESIAN_POINT('',(10.45,-1.6,-2.82));
#313 = LINE('',#314,#315);
#314 = CARTESIAN_POINT('',(10.45,-1.6,10.78));
#315 = VECTOR('',#316,1.);
#316 = DIRECTION('',(-0.E+000,-0.E+000,-1.));
#317 = ORIENTED_EDGE('',*,*,#318,.T.);
#318 = EDGE_CURVE('',#311,#311,#319,.T.);
#319 = CIRCLE('',#320,0.45);
#320 = AXIS2_PLACEMENT_3D('',#321,#322,#323);
#321 = CARTESIAN_POINT('',(10.,-1.6,-2.82));
#322 = DIRECTION('',(-1.460853528187E-030,5.194145877998E-030,1.));
#323 = DIRECTION('',(1.,2.077658351199E-030,1.460853528187E-030));
#324 = ORIENTED_EDGE('',*,*,#310,.F.);
#325 = ORIENTED_EDGE('',*,*,#207,.F.);
#326 = CYLINDRICAL_SURFACE('',#327,0.45);
#327 = AXIS2_PLACEMENT_3D('',#328,#329,#330);
#328 = CARTESIAN_POINT('',(10.,-1.6,10.78));
#329 = DIRECTION('',(0.E+000,0.E+000,1.));
#330 = DIRECTION('',(1.,0.E+000,0.E+000));
#331 = ADVANCED_FACE('',(#332),#352,.T.);
#332 = FACE_BOUND('',#333,.F.);
#333 = EDGE_LOOP('',(#334,#343,#344,#345));
#334 = ORIENTED_EDGE('',*,*,#335,.F.);
#335 = EDGE_CURVE('',#276,#336,#338,.T.);
#336 = VERTEX_POINT('',#337);
#337 = CARTESIAN_POINT('',(0.27,0.E+000,-3.));
#338 = CIRCLE('',#339,0.18);
#339 = AXIS2_PLACEMENT_3D('',#340,#341,#342);
#340 = CARTESIAN_POINT('',(0.27,0.E+000,-2.82));
#341 = DIRECTION('',(-0.E+000,1.,0.E+000));
#342 = DIRECTION('',(1.,0.E+000,0.E+000));
#343 = ORIENTED_EDGE('',*,*,#283,.T.);
#344 = ORIENTED_EDGE('',*,*,#335,.T.);
#345 = ORIENTED_EDGE('',*,*,#346,.F.);
#346 = EDGE_CURVE('',#336,#336,#347,.T.);
#347 = CIRCLE('',#348,0.27);
#348 = AXIS2_PLACEMENT_3D('',#349,#350,#351);
#349 = CARTESIAN_POINT('',(0.E+000,0.E+000,-3.));
#350 = DIRECTION('',(0.E+000,0.E+000,1.));
#351 = DIRECTION('',(1.,0.E+000,0.E+000));
#352 = TOROIDAL_SURFACE('',#353,0.27,0.18);
#353 = AXIS2_PLACEMENT_3D('',#354,#355,#356);
#354 = CARTESIAN_POINT('',(0.E+000,0.E+000,-2.82));
#355 = DIRECTION('',(-0.E+000,-0.E+000,-1.));
#356 = DIRECTION('',(1.,0.E+000,0.E+000));
#357 = ADVANCED_FACE('',(#358),#378,.T.);
#358 = FACE_BOUND('',#359,.F.);
#359 = EDGE_LOOP('',(#360,#369,#370,#371));
#360 = ORIENTED_EDGE('',*,*,#361,.F.);
#361 = EDGE_CURVE('',#311,#362,#364,.T.);
#362 = VERTEX_POINT('',#363);
#363 = CARTESIAN_POINT('',(10.27,-1.6,-3.));
#364 = CIRCLE('',#365,0.18);
#365 = AXIS2_PLACEMENT_3D('',#366,#367,#368);
#366 = CARTESIAN_POINT('',(10.27,-1.6,-2.82));
#367 = DIRECTION('',(-2.077658351199E-030,1.,-5.194145877998E-030));
#368 = DIRECTION('',(1.,2.077658351199E-030,1.460853528187E-030));
#369 = ORIENTED_EDGE('',*,*,#318,.T.);
#370 = ORIENTED_EDGE('',*,*,#361,.T.);
#371 = ORIENTED_EDGE('',*,*,#372,.F.);
#372 = EDGE_CURVE('',#362,#362,#373,.T.);
#373 = CIRCLE('',#374,0.27);
#374 = AXIS2_PLACEMENT_3D('',#375,#376,#377);
#375 = CARTESIAN_POINT('',(10.,-1.6,-3.));
#376 = DIRECTION('',(-1.460853528187E-030,5.194145877998E-030,1.));
#377 = DIRECTION('',(1.,2.077658351199E-030,1.460853528187E-030));
#378 = TOROIDAL_SURFACE('',#379,0.27,0.18);
#379 = AXIS2_PLACEMENT_3D('',#380,#381,#382);
#380 = CARTESIAN_POINT('',(10.,-1.6,-2.82));
#381 = DIRECTION('',(1.460853528187E-030,-5.194145877998E-030,-1.));
#382 = DIRECTION('',(1.,2.077658351199E-030,1.460853528187E-030));
#383 = ADVANCED_FACE('',(#384),#387,.F.);
#384 = FACE_BOUND('',#385,.F.);
#385 = EDGE_LOOP('',(#386));
#386 = ORIENTED_EDGE('',*,*,#346,.T.);
#387 = PLANE('',#388);
#388 = AXIS2_PLACEMENT_3D('',#389,#390,#391);
#389 = CARTESIAN_POINT('',(-1.18701400394E-017,2.911085817041E-017,-3.)
);
#390 = DIRECTION('',(0.E+000,0.E+000,1.));
#391 = DIRECTION('',(1.,0.E+000,0.E+000));
#392 = ADVANCED_FACE('',(#393),#396,.F.);
#393 = FACE_BOUND('',#394,.F.);
#394 = EDGE_LOOP('',(#395));
#395 = ORIENTED_EDGE('',*,*,#372,.T.);
#396 = PLANE('',#397);
#397 = AXIS2_PLACEMENT_3D('',#398,#399,#400);
#398 = CARTESIAN_POINT('',(10.,-1.6,-3.));
#399 = DIRECTION('',(-1.460853528187E-030,5.194145877998E-030,1.));
#400 = DIRECTION('',(0.E+000,1.,-5.194145877998E-030));
#401 = ( GEOMETRIC_REPRESENTATION_CONTEXT(3)
GLOBAL_UNCERTAINTY_ASSIGNED_CONTEXT((#405)) GLOBAL_UNIT_ASSIGNED_CONTEXT
((#402,#403,#404)) REPRESENTATION_CONTEXT('Context #1',
'3D Context with UNIT and UNCERTAINTY') );
#402 = ( LENGTH_UNIT() NAMED_UNIT(*) SI_UNIT(.MILLI.,.METRE.) );
#403 = ( NAMED_UNIT(*) PLANE_ANGLE_UNIT() SI_UNIT($,.RADIAN.) );
#404 = ( NAMED_UNIT(*) SI_UNIT($,.STERADIAN.) SOLID_ANGLE_UNIT() );
#405 = UNCERTAINTY_MEASURE_WITH_UNIT(LENGTH_MEASURE(1.E-007),#402,
'distance_accuracy_value','confusion accuracy');
#406 = PRODUCT_RELATED_PRODUCT_CATEGORY('part',$,(#7));
#407 = MECHANICAL_DESIGN_GEOMETRIC_PRESENTATION_REPRESENTATION('',(#408,
#416,#423,#430,#437,#445,#452,#459,#466,#473,#480),#401);
#408 = STYLED_ITEM('color',(#409),#17);
#409 = PRESENTATION_STYLE_ASSIGNMENT((#410));
#410 = SURFACE_STYLE_USAGE(.BOTH.,#411);
#411 = SURFACE_SIDE_STYLE('',(#412));
#412 = SURFACE_STYLE_FILL_AREA(#413);
#413 = FILL_AREA_STYLE('',(#414));
#414 = FILL_AREA_STYLE_COLOUR('',#415);
#415 = COLOUR_RGB('',0.136999994516,0.402000010014,0.726999998093);
#416 = STYLED_ITEM('color',(#417),#50);
#417 = PRESENTATION_STYLE_ASSIGNMENT((#418));
#418 = SURFACE_STYLE_USAGE(.BOTH.,#419);
#419 = SURFACE_SIDE_STYLE('',(#420));
#420 = SURFACE_STYLE_FILL_AREA(#421);
#421 = FILL_AREA_STYLE('',(#422));
#422 = FILL_AREA_STYLE_COLOUR('',#415);
#423 = STYLED_ITEM('color',(#424),#156);
#424 = PRESENTATION_STYLE_ASSIGNMENT((#425));
#425 = SURFACE_STYLE_USAGE(.BOTH.,#426);
#426 = SURFACE_SIDE_STYLE('',(#427));
#427 = SURFACE_STYLE_FILL_AREA(#428);
#428 = FILL_AREA_STYLE('',(#429));
#429 = FILL_AREA_STYLE_COLOUR('',#415);
#430 = STYLED_ITEM('color',(#431),#261);
#431 = PRESENTATION_STYLE_ASSIGNMENT((#432));
#432 = SURFACE_STYLE_USAGE(.BOTH.,#433);
#433 = SURFACE_SIDE_STYLE('',(#434));
#434 = SURFACE_STYLE_FILL_AREA(#435);
#435 = FILL_AREA_STYLE('',(#436));
#436 = FILL_AREA_STYLE_COLOUR('',#415);
#437 = STYLED_ITEM('color',(#438),#270);
#438 = PRESENTATION_STYLE_ASSIGNMENT((#439));
#439 = SURFACE_STYLE_USAGE(.BOTH.,#440);
#440 = SURFACE_SIDE_STYLE('',(#441));
#441 = SURFACE_STYLE_FILL_AREA(#442);
#442 = FILL_AREA_STYLE('',(#443));
#443 = FILL_AREA_STYLE_COLOUR('',#444);
#444 = COLOUR_RGB('',0.824000000954,0.819999992847,0.78100001812);
#445 = STYLED_ITEM('color',(#446),#296);
#446 = PRESENTATION_STYLE_ASSIGNMENT((#447));
#447 = SURFACE_STYLE_USAGE(.BOTH.,#448);
#448 = SURFACE_SIDE_STYLE('',(#449));
#449 = SURFACE_STYLE_FILL_AREA(#450);
#450 = FILL_AREA_STYLE('',(#451));
#451 = FILL_AREA_STYLE_COLOUR('',#415);
#452 = STYLED_ITEM('color',(#453),#305);
#453 = PRESENTATION_STYLE_ASSIGNMENT((#454));
#454 = SURFACE_STYLE_USAGE(.BOTH.,#455);
#455 = SURFACE_SIDE_STYLE('',(#456));
#456 = SURFACE_STYLE_FILL_AREA(#457);
#457 = FILL_AREA_STYLE('',(#458));
#458 = FILL_AREA_STYLE_COLOUR('',#444);
#459 = STYLED_ITEM('color',(#460),#331);
#460 = PRESENTATION_STYLE_ASSIGNMENT((#461));
#461 = SURFACE_STYLE_USAGE(.BOTH.,#462);
#462 = SURFACE_SIDE_STYLE('',(#463));
#463 = SURFACE_STYLE_FILL_AREA(#464);
#464 = FILL_AREA_STYLE('',(#465));
#465 = FILL_AREA_STYLE_COLOUR('',#444);
#466 = STYLED_ITEM('color',(#467),#357);
#467 = PRESENTATION_STYLE_ASSIGNMENT((#468));
#468 = SURFACE_STYLE_USAGE(.BOTH.,#469);
#469 = SURFACE_SIDE_STYLE('',(#470));
#470 = SURFACE_STYLE_FILL_AREA(#471);
#471 = FILL_AREA_STYLE('',(#472));
#472 = FILL_AREA_STYLE_COLOUR('',#444);
#473 = STYLED_ITEM('color',(#474),#383);
#474 = PRESENTATION_STYLE_ASSIGNMENT((#475));
#475 = SURFACE_STYLE_USAGE(.BOTH.,#476);
#476 = SURFACE_SIDE_STYLE('',(#477));
#477 = SURFACE_STYLE_FILL_AREA(#478);
#478 = FILL_AREA_STYLE('',(#479));
#479 = FILL_AREA_STYLE_COLOUR('',#444);
#480 = STYLED_ITEM('color',(#481),#392);
#481 = PRESENTATION_STYLE_ASSIGNMENT((#482));
#482 = SURFACE_STYLE_USAGE(.BOTH.,#483);
#483 = SURFACE_SIDE_STYLE('',(#484));
#484 = SURFACE_STYLE_FILL_AREA(#485);
#485 = FILL_AREA_STYLE('',(#486));
#486 = FILL_AREA_STYLE_COLOUR('',#444);
ENDSEC;
END-ISO-10303-21;
