ISO-10303-21;
HEADER;
FILE_DESCRIPTION(('FreeCAD Model'),'2;1');
FILE_NAME(
'D:/KiCAD/packages3D-source/Diode_THT.3dshapes\\
D_DO-201_P12.70mm_Horizontal.step','2017-11-24T17:58:17',('kicad StepUp'
    ),('ksu MCAD'),'Open CASCADE STEP processor 7.1','FreeCAD','Unknown'
  );
FILE_SCHEMA(('AUTOMOTIVE_DESIGN { 1 0 10303 214 1 1 1 1 }'));
ENDSEC;
DATA;
#1 = APPLICATION_PROTOCOL_DEFINITION('international standard',
  'automotive_design',2000,#2);
#2 = APPLICATION_CONTEXT(
  'core data for automotive mechanical design processes');
#3 = SHAPE_DEFINITION_REPRESENTATION(#4,#10);
#4 = PRODUCT_DEFINITION_SHAPE('','',#5);
#5 = PRODUCT_DEFINITION('design','',#6,#9);
#6 = PRODUCT_DEFINITION_FORMATION('','',#7);
#7 = PRODUCT('D_DO-201_P12.70mm_Horizontal',
  'D_DO-201_P12.70mm_Horizontal','',(#8));
#8 = PRODUCT_CONTEXT('',#2,'mechanical');
#9 = PRODUCT_DEFINITION_CONTEXT('part definition',#2,'design');
#10 = ADVANCED_BREP_SHAPE_REPRESENTATION('',(#11,#15),#350);
#11 = AXIS2_PLACEMENT_3D('',#12,#13,#14);
#12 = CARTESIAN_POINT('',(0.E+000,0.E+000,0.E+000));
#13 = DIRECTION('',(0.E+000,0.E+000,1.));
#14 = DIRECTION('',(1.,0.E+000,-0.E+000));
#15 = MANIFOLD_SOLID_BREP('',#16);
#16 = CLOSED_SHELL('',(#17,#50,#70,#90,#115,#140,#160,#180,#205,#230,
    #256,#282,#307,#332,#341));
#17 = ADVANCED_FACE('',(#18),#45,.T.);
#18 = FACE_BOUND('',#19,.T.);
#19 = EDGE_LOOP('',(#20,#29,#37,#44));
#20 = ORIENTED_EDGE('',*,*,#21,.T.);
#21 = EDGE_CURVE('',#22,#22,#24,.T.);
#22 = VERTEX_POINT('',#23);
#23 = CARTESIAN_POINT('',(3.0145,3.810285420514E-015,5.72));
#24 = CIRCLE('',#25,2.615);
#25 = AXIS2_PLACEMENT_3D('',#26,#27,#28);
#26 = CARTESIAN_POINT('',(3.0145,1.378896996584E-015,3.105));
#27 = DIRECTION('',(1.,0.E+000,-0.E+000));
#28 = DIRECTION('',(0.E+000,9.297852481564E-016,1.));
#29 = ORIENTED_EDGE('',*,*,#30,.T.);
#30 = EDGE_CURVE('',#22,#31,#33,.T.);
#31 = VERTEX_POINT('',#32);
#32 = CARTESIAN_POINT('',(5.397,3.810285420514E-015,5.72));
#33 = LINE('',#34,#35);
#34 = CARTESIAN_POINT('',(3.0145,3.810285420514E-015,5.72));
#35 = VECTOR('',#36,1.);
#36 = DIRECTION('',(1.,0.E+000,0.E+000));
#37 = ORIENTED_EDGE('',*,*,#38,.F.);
#38 = EDGE_CURVE('',#31,#31,#39,.T.);
#39 = CIRCLE('',#40,2.615);
#40 = AXIS2_PLACEMENT_3D('',#41,#42,#43);
#41 = CARTESIAN_POINT('',(5.397,1.378896996584E-015,3.105));
#42 = DIRECTION('',(1.,0.E+000,-0.E+000));
#43 = DIRECTION('',(0.E+000,9.297852481564E-016,1.));
#44 = ORIENTED_EDGE('',*,*,#30,.F.);
#45 = CYLINDRICAL_SURFACE('',#46,2.615);
#46 = AXIS2_PLACEMENT_3D('',#47,#48,#49);
#47 = CARTESIAN_POINT('',(3.0145,1.378896996584E-015,3.105));
#48 = DIRECTION('',(1.,0.E+000,0.E+000));
#49 = DIRECTION('',(0.E+000,9.297852481564E-016,1.));
#50 = ADVANCED_FACE('',(#51,#54),#65,.F.);
#51 = FACE_BOUND('',#52,.T.);
#52 = EDGE_LOOP('',(#53));
#53 = ORIENTED_EDGE('',*,*,#21,.F.);
#54 = FACE_BOUND('',#55,.T.);
#55 = EDGE_LOOP('',(#56));
#56 = ORIENTED_EDGE('',*,*,#57,.T.);
#57 = EDGE_CURVE('',#58,#58,#60,.T.);
#58 = VERTEX_POINT('',#59);
#59 = CARTESIAN_POINT('',(3.0145,3.803624082366E-015,5.71));
#60 = CIRCLE('',#61,2.605);
#61 = AXIS2_PLACEMENT_3D('',#62,#63,#64);
#62 = CARTESIAN_POINT('',(3.0145,1.378896996584E-015,3.105));
#63 = DIRECTION('',(1.,0.E+000,-0.E+000));
#64 = DIRECTION('',(0.E+000,9.307973457894E-016,1.));
#65 = PLANE('',#66);
#66 = AXIS2_PLACEMENT_3D('',#67,#68,#69);
#67 = CARTESIAN_POINT('',(3.0145,1.378896996584E-015,3.105));
#68 = DIRECTION('',(1.,0.E+000,0.E+000));
#69 = DIRECTION('',(0.E+000,9.318172437894E-016,1.));
#70 = ADVANCED_FACE('',(#71,#74),#85,.T.);
#71 = FACE_BOUND('',#72,.T.);
#72 = EDGE_LOOP('',(#73));
#73 = ORIENTED_EDGE('',*,*,#38,.T.);
#74 = FACE_BOUND('',#75,.T.);
#75 = EDGE_LOOP('',(#76));
#76 = ORIENTED_EDGE('',*,*,#77,.F.);
#77 = EDGE_CURVE('',#78,#78,#80,.T.);
#78 = VERTEX_POINT('',#79);
#79 = CARTESIAN_POINT('',(5.397,3.803624082366E-015,5.71));
#80 = CIRCLE('',#81,2.605);
#81 = AXIS2_PLACEMENT_3D('',#82,#83,#84);
#82 = CARTESIAN_POINT('',(5.397,1.378896996584E-015,3.105));
#83 = DIRECTION('',(1.,0.E+000,-0.E+000));
#84 = DIRECTION('',(0.E+000,9.307973457894E-016,1.));
#85 = PLANE('',#86);
#86 = AXIS2_PLACEMENT_3D('',#87,#88,#89);
#87 = CARTESIAN_POINT('',(5.397,1.378896996584E-015,3.105));
#88 = DIRECTION('',(1.,0.E+000,0.E+000));
#89 = DIRECTION('',(0.E+000,9.297852481564E-016,1.));
#90 = ADVANCED_FACE('',(#91),#110,.T.);
#91 = FACE_BOUND('',#92,.T.);
#92 = EDGE_LOOP('',(#93,#101,#108,#109));
#93 = ORIENTED_EDGE('',*,*,#94,.F.);
#94 = EDGE_CURVE('',#95,#58,#97,.T.);
#95 = VERTEX_POINT('',#96);
#96 = CARTESIAN_POINT('',(1.585,3.803624082366E-015,5.71));
#97 = LINE('',#98,#99);
#98 = CARTESIAN_POINT('',(1.585,3.803624082366E-015,5.71));
#99 = VECTOR('',#100,1.);
#100 = DIRECTION('',(1.,0.E+000,0.E+000));
#101 = ORIENTED_EDGE('',*,*,#102,.T.);
#102 = EDGE_CURVE('',#95,#95,#103,.T.);
#103 = CIRCLE('',#104,2.605);
#104 = AXIS2_PLACEMENT_3D('',#105,#106,#107);
#105 = CARTESIAN_POINT('',(1.585,1.378896996584E-015,3.105));
#106 = DIRECTION('',(1.,0.E+000,-0.E+000));
#107 = DIRECTION('',(0.E+000,9.307973457894E-016,1.));
#108 = ORIENTED_EDGE('',*,*,#94,.T.);
#109 = ORIENTED_EDGE('',*,*,#57,.F.);
#110 = CYLINDRICAL_SURFACE('',#111,2.605);
#111 = AXIS2_PLACEMENT_3D('',#112,#113,#114);
#112 = CARTESIAN_POINT('',(1.585,1.378896996584E-015,3.105));
#113 = DIRECTION('',(1.,0.E+000,0.E+000));
#114 = DIRECTION('',(0.E+000,9.307973457894E-016,1.));
#115 = ADVANCED_FACE('',(#116),#135,.T.);
#116 = FACE_BOUND('',#117,.T.);
#117 = EDGE_LOOP('',(#118,#119,#127,#134));
#118 = ORIENTED_EDGE('',*,*,#77,.T.);
#119 = ORIENTED_EDGE('',*,*,#120,.T.);
#120 = EDGE_CURVE('',#78,#121,#123,.T.);
#121 = VERTEX_POINT('',#122);
#122 = CARTESIAN_POINT('',(11.115,3.803624082366E-015,5.71));
#123 = LINE('',#124,#125);
#124 = CARTESIAN_POINT('',(1.585,3.803624082366E-015,5.71));
#125 = VECTOR('',#126,1.);
#126 = DIRECTION('',(1.,0.E+000,0.E+000));
#127 = ORIENTED_EDGE('',*,*,#128,.F.);
#128 = EDGE_CURVE('',#121,#121,#129,.T.);
#129 = CIRCLE('',#130,2.605);
#130 = AXIS2_PLACEMENT_3D('',#131,#132,#133);
#131 = CARTESIAN_POINT('',(11.115,1.378896996584E-015,3.105));
#132 = DIRECTION('',(1.,0.E+000,-0.E+000));
#133 = DIRECTION('',(0.E+000,9.307973457894E-016,1.));
#134 = ORIENTED_EDGE('',*,*,#120,.F.);
#135 = CYLINDRICAL_SURFACE('',#136,2.605);
#136 = AXIS2_PLACEMENT_3D('',#137,#138,#139);
#137 = CARTESIAN_POINT('',(1.585,1.378896996584E-015,3.105));
#138 = DIRECTION('',(1.,0.E+000,0.E+000));
#139 = DIRECTION('',(0.E+000,9.307973457894E-016,1.));
#140 = ADVANCED_FACE('',(#141,#144),#155,.F.);
#141 = FACE_BOUND('',#142,.T.);
#142 = EDGE_LOOP('',(#143));
#143 = ORIENTED_EDGE('',*,*,#102,.F.);
#144 = FACE_BOUND('',#145,.T.);
#145 = EDGE_LOOP('',(#146));
#146 = ORIENTED_EDGE('',*,*,#147,.T.);
#147 = EDGE_CURVE('',#148,#148,#150,.T.);
#148 = VERTEX_POINT('',#149);
#149 = CARTESIAN_POINT('',(1.585,1.02251540568E-015,2.605));
#150 = CIRCLE('',#151,0.5);
#151 = AXIS2_PLACEMENT_3D('',#152,#153,#154);
#152 = CARTESIAN_POINT('',(1.585,1.133537708142E-015,3.105));
#153 = DIRECTION('',(1.,0.E+000,0.E+000));
#154 = DIRECTION('',(0.E+000,-2.22044604925E-016,-1.));
#155 = PLANE('',#156);
#156 = AXIS2_PLACEMENT_3D('',#157,#158,#159);
#157 = CARTESIAN_POINT('',(1.585,1.378896996584E-015,3.105));
#158 = DIRECTION('',(1.,0.E+000,0.E+000));
#159 = DIRECTION('',(0.E+000,9.307973457894E-016,1.));
#160 = ADVANCED_FACE('',(#161,#164),#175,.T.);
#161 = FACE_BOUND('',#162,.F.);
#162 = EDGE_LOOP('',(#163));
#163 = ORIENTED_EDGE('',*,*,#128,.F.);
#164 = FACE_BOUND('',#165,.F.);
#165 = EDGE_LOOP('',(#166));
#166 = ORIENTED_EDGE('',*,*,#167,.T.);
#167 = EDGE_CURVE('',#168,#168,#170,.T.);
#168 = VERTEX_POINT('',#169);
#169 = CARTESIAN_POINT('',(11.115,1.02251540568E-015,2.605));
#170 = CIRCLE('',#171,0.5);
#171 = AXIS2_PLACEMENT_3D('',#172,#173,#174);
#172 = CARTESIAN_POINT('',(11.115,1.133537708142E-015,3.105));
#173 = DIRECTION('',(1.,0.E+000,0.E+000));
#174 = DIRECTION('',(0.E+000,-2.22044604925E-016,-1.));
#175 = PLANE('',#176);
#176 = AXIS2_PLACEMENT_3D('',#177,#178,#179);
#177 = CARTESIAN_POINT('',(11.115,1.378896996584E-015,3.105));
#178 = DIRECTION('',(1.,0.E+000,0.E+000));
#179 = DIRECTION('',(0.E+000,9.307973457894E-016,1.));
#180 = ADVANCED_FACE('',(#181),#200,.T.);
#181 = FACE_BOUND('',#182,.T.);
#182 = EDGE_LOOP('',(#183,#192,#198,#199));
#183 = ORIENTED_EDGE('',*,*,#184,.F.);
#184 = EDGE_CURVE('',#185,#185,#187,.T.);
#185 = VERTEX_POINT('',#186);
#186 = CARTESIAN_POINT('',(1.,1.02251540568E-015,2.605));
#187 = CIRCLE('',#188,0.5);
#188 = AXIS2_PLACEMENT_3D('',#189,#190,#191);
#189 = CARTESIAN_POINT('',(1.,1.133537708142E-015,3.105));
#190 = DIRECTION('',(-1.,-4.078893220341E-032,-1.836970198721E-016));
#191 = DIRECTION('',(-1.836970198721E-016,2.22044604925E-016,1.));
#192 = ORIENTED_EDGE('',*,*,#193,.T.);
#193 = EDGE_CURVE('',#185,#148,#194,.T.);
#194 = LINE('',#195,#196);
#195 = CARTESIAN_POINT('',(1.,1.02251540568E-015,2.605));
#196 = VECTOR('',#197,1.);
#197 = DIRECTION('',(1.,0.E+000,0.E+000));
#198 = ORIENTED_EDGE('',*,*,#147,.F.);
#199 = ORIENTED_EDGE('',*,*,#193,.F.);
#200 = CYLINDRICAL_SURFACE('',#201,0.5);
#201 = AXIS2_PLACEMENT_3D('',#202,#203,#204);
#202 = CARTESIAN_POINT('',(1.,1.133537708142E-015,3.105));
#203 = DIRECTION('',(1.,0.E+000,0.E+000));
#204 = DIRECTION('',(0.E+000,-2.22044604925E-016,-1.));
#205 = ADVANCED_FACE('',(#206),#225,.T.);
#206 = FACE_BOUND('',#207,.T.);
#207 = EDGE_LOOP('',(#208,#209,#217,#224));
#208 = ORIENTED_EDGE('',*,*,#167,.T.);
#209 = ORIENTED_EDGE('',*,*,#210,.T.);
#210 = EDGE_CURVE('',#168,#211,#213,.T.);
#211 = VERTEX_POINT('',#212);
#212 = CARTESIAN_POINT('',(11.7,1.02251540568E-015,2.605));
#213 = LINE('',#214,#215);
#214 = CARTESIAN_POINT('',(1.,1.02251540568E-015,2.605));
#215 = VECTOR('',#216,1.);
#216 = DIRECTION('',(1.,0.E+000,0.E+000));
#217 = ORIENTED_EDGE('',*,*,#218,.F.);
#218 = EDGE_CURVE('',#211,#211,#219,.T.);
#219 = CIRCLE('',#220,0.5);
#220 = AXIS2_PLACEMENT_3D('',#221,#222,#223);
#221 = CARTESIAN_POINT('',(11.7,1.133537708142E-015,3.105));
#222 = DIRECTION('',(1.,0.E+000,0.E+000));
#223 = DIRECTION('',(0.E+000,-2.22044604925E-016,-1.));
#224 = ORIENTED_EDGE('',*,*,#210,.F.);
#225 = CYLINDRICAL_SURFACE('',#226,0.5);
#226 = AXIS2_PLACEMENT_3D('',#227,#228,#229);
#227 = CARTESIAN_POINT('',(1.,1.133537708142E-015,3.105));
#228 = DIRECTION('',(1.,0.E+000,0.E+000));
#229 = DIRECTION('',(0.E+000,-2.22044604925E-016,-1.));
#230 = ADVANCED_FACE('',(#231),#251,.T.);
#231 = FACE_BOUND('',#232,.T.);
#232 = EDGE_LOOP('',(#233,#242,#243,#244));
#233 = ORIENTED_EDGE('',*,*,#234,.T.);
#234 = EDGE_CURVE('',#235,#185,#237,.T.);
#235 = VERTEX_POINT('',#236);
#236 = CARTESIAN_POINT('',(0.5,9.114931032173E-016,2.105));
#237 = CIRCLE('',#238,0.5);
#238 = AXIS2_PLACEMENT_3D('',#239,#240,#241);
#239 = CARTESIAN_POINT('',(1.,1.095190123089E-015,2.105));
#240 = DIRECTION('',(0.E+000,1.,-2.22044604925E-016));
#241 = DIRECTION('',(1.,0.E+000,0.E+000));
#242 = ORIENTED_EDGE('',*,*,#184,.T.);
#243 = ORIENTED_EDGE('',*,*,#234,.F.);
#244 = ORIENTED_EDGE('',*,*,#245,.T.);
#245 = EDGE_CURVE('',#235,#235,#246,.T.);
#246 = CIRCLE('',#247,0.5);
#247 = AXIS2_PLACEMENT_3D('',#248,#249,#250);
#248 = CARTESIAN_POINT('',(0.E+000,9.114931032173E-016,2.105));
#249 = DIRECTION('',(-0.E+000,2.22044604925E-016,1.));
#250 = DIRECTION('',(1.,0.E+000,0.E+000));
#251 = TOROIDAL_SURFACE('',#252,1.,0.5);
#252 = AXIS2_PLACEMENT_3D('',#253,#254,#255);
#253 = CARTESIAN_POINT('',(1.,9.114931032173E-016,2.105));
#254 = DIRECTION('',(0.E+000,1.,-2.22044604925E-016));
#255 = DIRECTION('',(1.,0.E+000,0.E+000));
#256 = ADVANCED_FACE('',(#257),#277,.T.);
#257 = FACE_BOUND('',#258,.T.);
#258 = EDGE_LOOP('',(#259,#268,#275,#276));
#259 = ORIENTED_EDGE('',*,*,#260,.T.);
#260 = EDGE_CURVE('',#211,#261,#263,.T.);
#261 = VERTEX_POINT('',#262);
#262 = CARTESIAN_POINT('',(12.2,9.114931032173E-016,2.105));
#263 = CIRCLE('',#264,0.5);
#264 = AXIS2_PLACEMENT_3D('',#265,#266,#267);
#265 = CARTESIAN_POINT('',(11.7,1.095190123089E-015,2.105));
#266 = DIRECTION('',(0.E+000,1.,-2.22044604925E-016));
#267 = DIRECTION('',(1.,0.E+000,0.E+000));
#268 = ORIENTED_EDGE('',*,*,#269,.T.);
#269 = EDGE_CURVE('',#261,#261,#270,.T.);
#270 = CIRCLE('',#271,0.5);
#271 = AXIS2_PLACEMENT_3D('',#272,#273,#274);
#272 = CARTESIAN_POINT('',(12.7,9.114931032173E-016,2.105));
#273 = DIRECTION('',(-2.449293598295E-016,2.22044604925E-016,1.));
#274 = DIRECTION('',(1.,5.438524293788E-032,2.449293598295E-016));
#275 = ORIENTED_EDGE('',*,*,#260,.F.);
#276 = ORIENTED_EDGE('',*,*,#218,.T.);
#277 = TOROIDAL_SURFACE('',#278,1.,0.5);
#278 = AXIS2_PLACEMENT_3D('',#279,#280,#281);
#279 = CARTESIAN_POINT('',(11.7,9.114931032173E-016,2.105));
#280 = DIRECTION('',(0.E+000,1.,-2.22044604925E-016));
#281 = DIRECTION('',(1.,0.E+000,0.E+000));
#282 = ADVANCED_FACE('',(#283),#302,.T.);
#283 = FACE_BOUND('',#284,.T.);
#284 = EDGE_LOOP('',(#285,#293,#294,#295));
#285 = ORIENTED_EDGE('',*,*,#286,.T.);
#286 = EDGE_CURVE('',#287,#235,#289,.T.);
#287 = VERTEX_POINT('',#288);
#288 = CARTESIAN_POINT('',(0.5,-2.334869823773E-016,-2.5));
#289 = LINE('',#290,#291);
#290 = CARTESIAN_POINT('',(0.5,9.114931032173E-016,2.105));
#291 = VECTOR('',#292,1.);
#292 = DIRECTION('',(0.E+000,2.22044604925E-016,1.));
#293 = ORIENTED_EDGE('',*,*,#245,.F.);
#294 = ORIENTED_EDGE('',*,*,#286,.F.);
#295 = ORIENTED_EDGE('',*,*,#296,.T.);
#296 = EDGE_CURVE('',#287,#287,#297,.T.);
#297 = CIRCLE('',#298,0.5);
#298 = AXIS2_PLACEMENT_3D('',#299,#300,#301);
#299 = CARTESIAN_POINT('',(0.E+000,-1.110223024625E-016,-2.5));
#300 = DIRECTION('',(-0.E+000,2.22044604925E-016,1.));
#301 = DIRECTION('',(1.,0.E+000,0.E+000));
#302 = CYLINDRICAL_SURFACE('',#303,0.5);
#303 = AXIS2_PLACEMENT_3D('',#304,#305,#306);
#304 = CARTESIAN_POINT('',(0.E+000,9.114931032173E-016,2.105));
#305 = DIRECTION('',(0.E+000,2.22044604925E-016,1.));
#306 = DIRECTION('',(1.,0.E+000,0.E+000));
#307 = ADVANCED_FACE('',(#308),#327,.T.);
#308 = FACE_BOUND('',#309,.T.);
#309 = EDGE_LOOP('',(#310,#318,#325,#326));
#310 = ORIENTED_EDGE('',*,*,#311,.T.);
#311 = EDGE_CURVE('',#261,#312,#314,.T.);
#312 = VERTEX_POINT('',#313);
#313 = CARTESIAN_POINT('',(12.2,-2.334869823773E-016,-2.5));
#314 = LINE('',#315,#316);
#315 = CARTESIAN_POINT('',(12.2,9.114931032173E-016,2.105));
#316 = VECTOR('',#317,1.);
#317 = DIRECTION('',(0.E+000,-2.22044604925E-016,-1.));
#318 = ORIENTED_EDGE('',*,*,#319,.F.);
#319 = EDGE_CURVE('',#312,#312,#320,.T.);
#320 = CIRCLE('',#321,0.5);
#321 = AXIS2_PLACEMENT_3D('',#322,#323,#324);
#322 = CARTESIAN_POINT('',(12.7,-1.110223024625E-016,-2.5));
#323 = DIRECTION('',(-0.E+000,-2.22044604925E-016,-1.));
#324 = DIRECTION('',(-1.,0.E+000,0.E+000));
#325 = ORIENTED_EDGE('',*,*,#311,.F.);
#326 = ORIENTED_EDGE('',*,*,#269,.F.);
#327 = CYLINDRICAL_SURFACE('',#328,0.5);
#328 = AXIS2_PLACEMENT_3D('',#329,#330,#331);
#329 = CARTESIAN_POINT('',(12.7,9.114931032173E-016,2.105));
#330 = DIRECTION('',(0.E+000,-2.22044604925E-016,-1.));
#331 = DIRECTION('',(-1.,0.E+000,0.E+000));
#332 = ADVANCED_FACE('',(#333),#336,.T.);
#333 = FACE_BOUND('',#334,.F.);
#334 = EDGE_LOOP('',(#335));
#335 = ORIENTED_EDGE('',*,*,#296,.T.);
#336 = PLANE('',#337);
#337 = AXIS2_PLACEMENT_3D('',#338,#339,#340);
#338 = CARTESIAN_POINT('',(0.5,-1.110223024625E-016,-2.5));
#339 = DIRECTION('',(0.E+000,0.E+000,-1.));
#340 = DIRECTION('',(-1.,0.E+000,0.E+000));
#341 = ADVANCED_FACE('',(#342),#345,.F.);
#342 = FACE_BOUND('',#343,.T.);
#343 = EDGE_LOOP('',(#344));
#344 = ORIENTED_EDGE('',*,*,#319,.T.);
#345 = PLANE('',#346);
#346 = AXIS2_PLACEMENT_3D('',#347,#348,#349);
#347 = CARTESIAN_POINT('',(12.2,-1.110223024625E-016,-2.5));
#348 = DIRECTION('',(0.E+000,0.E+000,1.));
#349 = DIRECTION('',(1.,0.E+000,0.E+000));
#350 = ( GEOMETRIC_REPRESENTATION_CONTEXT(3) 
GLOBAL_UNCERTAINTY_ASSIGNED_CONTEXT((#354)) GLOBAL_UNIT_ASSIGNED_CONTEXT
((#351,#352,#353)) REPRESENTATION_CONTEXT('Context #1',
  '3D Context with UNIT and UNCERTAINTY') );
#351 = ( LENGTH_UNIT() NAMED_UNIT(*) SI_UNIT(.MILLI.,.METRE.) );
#352 = ( NAMED_UNIT(*) PLANE_ANGLE_UNIT() SI_UNIT($,.RADIAN.) );
#353 = ( NAMED_UNIT(*) SI_UNIT($,.STERADIAN.) SOLID_ANGLE_UNIT() );
#354 = UNCERTAINTY_MEASURE_WITH_UNIT(LENGTH_MEASURE(1.E-007),#351,
  'distance_accuracy_value','confusion accuracy');
#355 = PRODUCT_RELATED_PRODUCT_CATEGORY('part',$,(#7));
#356 = MECHANICAL_DESIGN_GEOMETRIC_PRESENTATION_REPRESENTATION('',(#357,
    #365,#372,#379,#387,#394,#401,#408,#416,#423,#430,#437,#444,#451,
    #458),#350);
#357 = STYLED_ITEM('color',(#358),#17);
#358 = PRESENTATION_STYLE_ASSIGNMENT((#359));
#359 = SURFACE_STYLE_USAGE(.BOTH.,#360);
#360 = SURFACE_SIDE_STYLE('',(#361));
#361 = SURFACE_STYLE_FILL_AREA(#362);
#362 = FILL_AREA_STYLE('',(#363));
#363 = FILL_AREA_STYLE_COLOUR('',#364);
#364 = COLOUR_RGB('',0.894999980927,0.89099997282,0.813000023365);
#365 = STYLED_ITEM('color',(#366),#50);
#366 = PRESENTATION_STYLE_ASSIGNMENT((#367));
#367 = SURFACE_STYLE_USAGE(.BOTH.,#368);
#368 = SURFACE_SIDE_STYLE('',(#369));
#369 = SURFACE_STYLE_FILL_AREA(#370);
#370 = FILL_AREA_STYLE('',(#371));
#371 = FILL_AREA_STYLE_COLOUR('',#364);
#372 = STYLED_ITEM('color',(#373),#70);
#373 = PRESENTATION_STYLE_ASSIGNMENT((#374));
#374 = SURFACE_STYLE_USAGE(.BOTH.,#375);
#375 = SURFACE_SIDE_STYLE('',(#376));
#376 = SURFACE_STYLE_FILL_AREA(#377);
#377 = FILL_AREA_STYLE('',(#378));
#378 = FILL_AREA_STYLE_COLOUR('',#364);
#379 = STYLED_ITEM('color',(#380),#90);
#380 = PRESENTATION_STYLE_ASSIGNMENT((#381));
#381 = SURFACE_STYLE_USAGE(.BOTH.,#382);
#382 = SURFACE_SIDE_STYLE('',(#383));
#383 = SURFACE_STYLE_FILL_AREA(#384);
#384 = FILL_AREA_STYLE('',(#385));
#385 = FILL_AREA_STYLE_COLOUR('',#386);
#386 = COLOUR_RGB('',0.148000001907,0.144999995828,0.144999995828);
#387 = STYLED_ITEM('color',(#388),#115);
#388 = PRESENTATION_STYLE_ASSIGNMENT((#389));
#389 = SURFACE_STYLE_USAGE(.BOTH.,#390);
#390 = SURFACE_SIDE_STYLE('',(#391));
#391 = SURFACE_STYLE_FILL_AREA(#392);
#392 = FILL_AREA_STYLE('',(#393));
#393 = FILL_AREA_STYLE_COLOUR('',#386);
#394 = STYLED_ITEM('color',(#395),#140);
#395 = PRESENTATION_STYLE_ASSIGNMENT((#396));
#396 = SURFACE_STYLE_USAGE(.BOTH.,#397);
#397 = SURFACE_SIDE_STYLE('',(#398));
#398 = SURFACE_STYLE_FILL_AREA(#399);
#399 = FILL_AREA_STYLE('',(#400));
#400 = FILL_AREA_STYLE_COLOUR('',#386);
#401 = STYLED_ITEM('color',(#402),#160);
#402 = PRESENTATION_STYLE_ASSIGNMENT((#403));
#403 = SURFACE_STYLE_USAGE(.BOTH.,#404);
#404 = SURFACE_SIDE_STYLE('',(#405));
#405 = SURFACE_STYLE_FILL_AREA(#406);
#406 = FILL_AREA_STYLE('',(#407));
#407 = FILL_AREA_STYLE_COLOUR('',#386);
#408 = STYLED_ITEM('color',(#409),#180);
#409 = PRESENTATION_STYLE_ASSIGNMENT((#410));
#410 = SURFACE_STYLE_USAGE(.BOTH.,#411);
#411 = SURFACE_SIDE_STYLE('',(#412));
#412 = SURFACE_STYLE_FILL_AREA(#413);
#413 = FILL_AREA_STYLE('',(#414));
#414 = FILL_AREA_STYLE_COLOUR('',#415);
#415 = COLOUR_RGB('',0.824000000954,0.819999992847,0.78100001812);
#416 = STYLED_ITEM('color',(#417),#205);
#417 = PRESENTATION_STYLE_ASSIGNMENT((#418));
#418 = SURFACE_STYLE_USAGE(.BOTH.,#419);
#419 = SURFACE_SIDE_STYLE('',(#420));
#420 = SURFACE_STYLE_FILL_AREA(#421);
#421 = FILL_AREA_STYLE('',(#422));
#422 = FILL_AREA_STYLE_COLOUR('',#415);
#423 = STYLED_ITEM('color',(#424),#230);
#424 = PRESENTATION_STYLE_ASSIGNMENT((#425));
#425 = SURFACE_STYLE_USAGE(.BOTH.,#426);
#426 = SURFACE_SIDE_STYLE('',(#427));
#427 = SURFACE_STYLE_FILL_AREA(#428);
#428 = FILL_AREA_STYLE('',(#429));
#429 = FILL_AREA_STYLE_COLOUR('',#415);
#430 = STYLED_ITEM('color',(#431),#256);
#431 = PRESENTATION_STYLE_ASSIGNMENT((#432));
#432 = SURFACE_STYLE_USAGE(.BOTH.,#433);
#433 = SURFACE_SIDE_STYLE('',(#434));
#434 = SURFACE_STYLE_FILL_AREA(#435);
#435 = FILL_AREA_STYLE('',(#436));
#436 = FILL_AREA_STYLE_COLOUR('',#415);
#437 = STYLED_ITEM('color',(#438),#282);
#438 = PRESENTATION_STYLE_ASSIGNMENT((#439));
#439 = SURFACE_STYLE_USAGE(.BOTH.,#440);
#440 = SURFACE_SIDE_STYLE('',(#441));
#441 = SURFACE_STYLE_FILL_AREA(#442);
#442 = FILL_AREA_STYLE('',(#443));
#443 = FILL_AREA_STYLE_COLOUR('',#415);
#444 = STYLED_ITEM('color',(#445),#307);
#445 = PRESENTATION_STYLE_ASSIGNMENT((#446));
#446 = SURFACE_STYLE_USAGE(.BOTH.,#447);
#447 = SURFACE_SIDE_STYLE('',(#448));
#448 = SURFACE_STYLE_FILL_AREA(#449);
#449 = FILL_AREA_STYLE('',(#450));
#450 = FILL_AREA_STYLE_COLOUR('',#415);
#451 = STYLED_ITEM('color',(#452),#332);
#452 = PRESENTATION_STYLE_ASSIGNMENT((#453));
#453 = SURFACE_STYLE_USAGE(.BOTH.,#454);
#454 = SURFACE_SIDE_STYLE('',(#455));
#455 = SURFACE_STYLE_FILL_AREA(#456);
#456 = FILL_AREA_STYLE('',(#457));
#457 = FILL_AREA_STYLE_COLOUR('',#415);
#458 = STYLED_ITEM('color',(#459),#341);
#459 = PRESENTATION_STYLE_ASSIGNMENT((#460));
#460 = SURFACE_STYLE_USAGE(.BOTH.,#461);
#461 = SURFACE_SIDE_STYLE('',(#462));
#462 = SURFACE_STYLE_FILL_AREA(#463);
#463 = FILL_AREA_STYLE('',(#464));
#464 = FILL_AREA_STYLE_COLOUR('',#415);
ENDSEC;
END-ISO-10303-21;
