ISO-10303-21;
HEADER;
/* Crystal_AT310_D3.0mm_L10.0mm_Vertical.step 3D STEP model for use in ECAD systems
 * Copyright (C) 2019, kicad StepUp
 * 
 * This work is licensed under the [Creative Commons CC-BY-SA 4.0 License](https://creativecommons.org/licenses/by-sa/4.0/legalcode), 
 * with the following exception:
 * To the extent that the creation of electronic designs that use 'Licensed Material' can be considered to be 'Adapted Material', 
 * then the copyright holder waives article 3 of the license with respect to these designs and any generated files which use data provided 
 * as part of the 'Licensed Material'.
 * You are free to use the library data in your own projects without the obligation to share your project files under this or any other license agreement.
 * However, if you wish to redistribute these libraries, or parts thereof (including in modified form) as a collection then the exception above does not apply. 
 * Please refer to https://github.com/KiCad/kicad-packages3D/blob/master/LICENSE.md for further clarification of the exception.
 * Disclaimer of Warranties and Limitation of Liability.
 * These libraries are provided in the hope that they will be useful, but are provided without warranty of any kind, express or implied.
 * *USE 3D CAD DATA AT YOUR OWN RISK*
 * *DO NOT RELY UPON ANY INFORMATION FOUND HERE WITHOUT INDEPENDENT VERIFICATION.*
 * 
 * 
 * 
 * 
 * 
 * 
 * 
 * 
 * 
 * 
 */

FILE_DESCRIPTION(
/* description */ ('model of Crystal_AT310_D3.0mm_L10.0mm_Vertical'),
/* implementation_level */ '2;1');

FILE_NAME(
/* name */ 'Crystal_AT310_D3.0mm_L10.0mm_Vertical.step',
/* time_stamp */ '2019-07-06T22:04:08',
/* author */ ('kicad StepUp','ksu'),
/* organization */ ('FreeCAD'),
/* preprocessor_version */ 'OCC',
/* originating_system */ 'kicad StepUp',
/* authorisation */ '');

FILE_SCHEMA(('AUTOMOTIVE_DESIGN { 1 0 10303 214 1 1 1 1 }'));
ENDSEC;

DATA;
#1 = APPLICATION_PROTOCOL_DEFINITION('international standard',
'automotive_design',2000,#2);
#2 = APPLICATION_CONTEXT(
'core data for automotive mechanical design processes');
#3 = SHAPE_DEFINITION_REPRESENTATION(#4,#10);
#4 = PRODUCT_DEFINITION_SHAPE('','',#5);
#5 = PRODUCT_DEFINITION('design','',#6,#9);
#6 = PRODUCT_DEFINITION_FORMATION('','',#7);
#7 = PRODUCT('AT310_Vertical','AT310_Vertical','',(#8));
#8 = PRODUCT_CONTEXT('',#2,'mechanical');
#9 = PRODUCT_DEFINITION_CONTEXT('part definition',#2,'design');
#10 = ADVANCED_BREP_SHAPE_REPRESENTATION('',(#11,#15),#411);
#11 = AXIS2_PLACEMENT_3D('',#12,#13,#14);
#12 = CARTESIAN_POINT('',(0.E+000,0.E+000,0.E+000));
#13 = DIRECTION('',(0.E+000,0.E+000,1.));
#14 = DIRECTION('',(1.,0.E+000,-0.E+000));
#15 = MANIFOLD_SOLID_BREP('',#16);
#16 = CLOSED_SHELL('',(#17,#50,#59,#87,#112,#143,#168,#193,#213,#241,
#266,#291,#316,#342,#367,#376,#402));
#17 = ADVANCED_FACE('',(#18),#45,.T.);
#18 = FACE_BOUND('',#19,.T.);
#19 = EDGE_LOOP('',(#20,#30,#37,#38));
#20 = ORIENTED_EDGE('',*,*,#21,.T.);
#21 = EDGE_CURVE('',#22,#24,#26,.T.);
#22 = VERTEX_POINT('',#23);
#23 = CARTESIAN_POINT('',(0.15,-3.673940397442E-017,-3.));
#24 = VERTEX_POINT('',#25);
#25 = CARTESIAN_POINT('',(0.15,0.E+000,0.E+000));
#26 = LINE('',#27,#28);
#27 = CARTESIAN_POINT('',(0.15,0.E+000,-3.));
#28 = VECTOR('',#29,1.);
#29 = DIRECTION('',(0.E+000,0.E+000,1.));
#30 = ORIENTED_EDGE('',*,*,#31,.F.);
#31 = EDGE_CURVE('',#24,#24,#32,.T.);
#32 = CIRCLE('',#33,0.15);
#33 = AXIS2_PLACEMENT_3D('',#34,#35,#36);
#34 = CARTESIAN_POINT('',(0.E+000,0.E+000,0.E+000));
#35 = DIRECTION('',(0.E+000,0.E+000,1.));
#36 = DIRECTION('',(1.,0.E+000,0.E+000));
#37 = ORIENTED_EDGE('',*,*,#21,.F.);
#38 = ORIENTED_EDGE('',*,*,#39,.T.);
#39 = EDGE_CURVE('',#22,#22,#40,.T.);
#40 = CIRCLE('',#41,0.15);
#41 = AXIS2_PLACEMENT_3D('',#42,#43,#44);
#42 = CARTESIAN_POINT('',(0.E+000,0.E+000,-3.));
#43 = DIRECTION('',(0.E+000,0.E+000,1.));
#44 = DIRECTION('',(1.,0.E+000,0.E+000));
#45 = CYLINDRICAL_SURFACE('',#46,0.15);
#46 = AXIS2_PLACEMENT_3D('',#47,#48,#49);
#47 = CARTESIAN_POINT('',(0.E+000,0.E+000,-3.));
#48 = DIRECTION('',(0.E+000,0.E+000,1.));
#49 = DIRECTION('',(1.,0.E+000,0.E+000));
#50 = ADVANCED_FACE('',(#51),#54,.F.);
#51 = FACE_BOUND('',#52,.F.);
#52 = EDGE_LOOP('',(#53));
#53 = ORIENTED_EDGE('',*,*,#39,.T.);
#54 = PLANE('',#55);
#55 = AXIS2_PLACEMENT_3D('',#56,#57,#58);
#56 = CARTESIAN_POINT('',(-1.780521005911E-017,2.779371033817E-018,-3.)
);
#57 = DIRECTION('',(0.E+000,0.E+000,1.));
#58 = DIRECTION('',(1.,0.E+000,0.E+000));
#59 = ADVANCED_FACE('',(#60),#79,.T.);
#60 = FACE_BOUND('',#61,.T.);
#61 = EDGE_LOOP('',(#62,#70,#77,#78));
#62 = ORIENTED_EDGE('',*,*,#63,.T.);
#63 = EDGE_CURVE('',#24,#64,#66,.T.);
#64 = VERTEX_POINT('',#65);
#65 = CARTESIAN_POINT('',(0.87,0.E+000,1.));
#66 = LINE('',#67,#68);
#67 = CARTESIAN_POINT('',(0.15,0.E+000,0.E+000));
#68 = VECTOR('',#69,1.);
#69 = DIRECTION('',(0.584304725845,0.E+000,0.811534341451));
#70 = ORIENTED_EDGE('',*,*,#71,.F.);
#71 = EDGE_CURVE('',#64,#64,#72,.T.);
#72 = CIRCLE('',#73,0.15);
#73 = AXIS2_PLACEMENT_3D('',#74,#75,#76);
#74 = CARTESIAN_POINT('',(0.72,0.E+000,1.));
#75 = DIRECTION('',(0.E+000,0.E+000,1.));
#76 = DIRECTION('',(1.,0.E+000,0.E+000));
#77 = ORIENTED_EDGE('',*,*,#63,.F.);
#78 = ORIENTED_EDGE('',*,*,#31,.T.);
#79 = SURFACE_OF_LINEAR_EXTRUSION('',#80,#85);
#80 = CIRCLE('',#81,0.15);
#81 = AXIS2_PLACEMENT_3D('',#82,#83,#84);
#82 = CARTESIAN_POINT('',(0.E+000,0.E+000,0.E+000));
#83 = DIRECTION('',(0.E+000,0.E+000,1.));
#84 = DIRECTION('',(1.,0.E+000,0.E+000));
#85 = VECTOR('',#86,1.);
#86 = DIRECTION('',(0.584304725845,0.E+000,0.811534341451));
#87 = ADVANCED_FACE('',(#88),#107,.T.);
#88 = FACE_BOUND('',#89,.T.);
#89 = EDGE_LOOP('',(#90,#91,#99,#106));
#90 = ORIENTED_EDGE('',*,*,#71,.T.);
#91 = ORIENTED_EDGE('',*,*,#92,.T.);
#92 = EDGE_CURVE('',#64,#93,#95,.T.);
#93 = VERTEX_POINT('',#94);
#94 = CARTESIAN_POINT('',(0.87,0.E+000,2.));
#95 = LINE('',#96,#97);
#96 = CARTESIAN_POINT('',(0.87,0.E+000,1.));
#97 = VECTOR('',#98,1.);
#98 = DIRECTION('',(0.E+000,0.E+000,1.));
#99 = ORIENTED_EDGE('',*,*,#100,.F.);
#100 = EDGE_CURVE('',#93,#93,#101,.T.);
#101 = CIRCLE('',#102,0.15);
#102 = AXIS2_PLACEMENT_3D('',#103,#104,#105);
#103 = CARTESIAN_POINT('',(0.72,0.E+000,2.));
#104 = DIRECTION('',(0.E+000,0.E+000,1.));
#105 = DIRECTION('',(1.,0.E+000,0.E+000));
#106 = ORIENTED_EDGE('',*,*,#92,.F.);
#107 = CYLINDRICAL_SURFACE('',#108,0.15);
#108 = AXIS2_PLACEMENT_3D('',#109,#110,#111);
#109 = CARTESIAN_POINT('',(0.72,0.E+000,1.));
#110 = DIRECTION('',(0.E+000,0.E+000,1.));
#111 = DIRECTION('',(1.,0.E+000,0.E+000));
#112 = ADVANCED_FACE('',(#113,#124,#127),#138,.F.);
#113 = FACE_BOUND('',#114,.F.);
#114 = EDGE_LOOP('',(#115));
#115 = ORIENTED_EDGE('',*,*,#116,.T.);
#116 = EDGE_CURVE('',#117,#117,#119,.T.);
#117 = VERTEX_POINT('',#118);
#118 = CARTESIAN_POINT('',(2.679090909091,0.E+000,2.));
#119 = CIRCLE('',#120,1.409090909091);
#120 = AXIS2_PLACEMENT_3D('',#121,#122,#123);
#121 = CARTESIAN_POINT('',(1.27,0.E+000,2.));
#122 = DIRECTION('',(0.E+000,0.E+000,1.));
#123 = DIRECTION('',(1.,0.E+000,0.E+000));
#124 = FACE_BOUND('',#125,.F.);
#125 = EDGE_LOOP('',(#126));
#126 = ORIENTED_EDGE('',*,*,#100,.F.);
#127 = FACE_BOUND('',#128,.F.);
#128 = EDGE_LOOP('',(#129));
#129 = ORIENTED_EDGE('',*,*,#130,.F.);
#130 = EDGE_CURVE('',#131,#131,#133,.T.);
#131 = VERTEX_POINT('',#132);
#132 = CARTESIAN_POINT('',(1.97,0.E+000,2.));
#133 = CIRCLE('',#134,0.15);
#134 = AXIS2_PLACEMENT_3D('',#135,#136,#137);
#135 = CARTESIAN_POINT('',(1.82,0.E+000,2.));
#136 = DIRECTION('',(0.E+000,0.E+000,1.));
#137 = DIRECTION('',(1.,0.E+000,0.E+000));
#138 = PLANE('',#139);
#139 = AXIS2_PLACEMENT_3D('',#140,#141,#142);
#140 = CARTESIAN_POINT('',(1.27,1.244364705209E-016,2.));
#141 = DIRECTION('',(0.E+000,0.E+000,1.));
#142 = DIRECTION('',(1.,0.E+000,0.E+000));
#143 = ADVANCED_FACE('',(#144),#163,.T.);
#144 = FACE_BOUND('',#145,.F.);
#145 = EDGE_LOOP('',(#146,#147,#155,#162));
#146 = ORIENTED_EDGE('',*,*,#116,.F.);
#147 = ORIENTED_EDGE('',*,*,#148,.T.);
#148 = EDGE_CURVE('',#117,#149,#151,.T.);
#149 = VERTEX_POINT('',#150);
#150 = CARTESIAN_POINT('',(2.679090909091,0.E+000,2.2));
#151 = LINE('',#152,#153);
#152 = CARTESIAN_POINT('',(2.679090909091,0.E+000,2.));
#153 = VECTOR('',#154,1.);
#154 = DIRECTION('',(0.E+000,0.E+000,1.));
#155 = ORIENTED_EDGE('',*,*,#156,.F.);
#156 = EDGE_CURVE('',#149,#149,#157,.T.);
#157 = CIRCLE('',#158,1.409090909091);
#158 = AXIS2_PLACEMENT_3D('',#159,#160,#161);
#159 = CARTESIAN_POINT('',(1.27,0.E+000,2.2));
#160 = DIRECTION('',(0.E+000,0.E+000,-1.));
#161 = DIRECTION('',(1.,0.E+000,0.E+000));
#162 = ORIENTED_EDGE('',*,*,#148,.F.);
#163 = CYLINDRICAL_SURFACE('',#164,1.409090909091);
#164 = AXIS2_PLACEMENT_3D('',#165,#166,#167);
#165 = CARTESIAN_POINT('',(1.27,0.E+000,2.));
#166 = DIRECTION('',(-0.E+000,-0.E+000,-1.));
#167 = DIRECTION('',(1.,0.E+000,0.E+000));
#168 = ADVANCED_FACE('',(#169),#188,.T.);
#169 = FACE_BOUND('',#170,.T.);
#170 = EDGE_LOOP('',(#171,#180,#186,#187));
#171 = ORIENTED_EDGE('',*,*,#172,.T.);
#172 = EDGE_CURVE('',#173,#173,#175,.T.);
#173 = VERTEX_POINT('',#174);
#174 = CARTESIAN_POINT('',(1.97,0.E+000,1.));
#175 = CIRCLE('',#176,0.15);
#176 = AXIS2_PLACEMENT_3D('',#177,#178,#179);
#177 = CARTESIAN_POINT('',(1.82,0.E+000,1.));
#178 = DIRECTION('',(0.E+000,0.E+000,1.));
#179 = DIRECTION('',(1.,0.E+000,0.E+000));
#180 = ORIENTED_EDGE('',*,*,#181,.T.);
#181 = EDGE_CURVE('',#173,#131,#182,.T.);
#182 = LINE('',#183,#184);
#183 = CARTESIAN_POINT('',(1.97,0.E+000,1.));
#184 = VECTOR('',#185,1.);
#185 = DIRECTION('',(0.E+000,0.E+000,1.));
#186 = ORIENTED_EDGE('',*,*,#130,.F.);
#187 = ORIENTED_EDGE('',*,*,#181,.F.);
#188 = CYLINDRICAL_SURFACE('',#189,0.15);
#189 = AXIS2_PLACEMENT_3D('',#190,#191,#192);
#190 = CARTESIAN_POINT('',(1.82,0.E+000,1.));
#191 = DIRECTION('',(0.E+000,0.E+000,1.));
#192 = DIRECTION('',(1.,0.E+000,0.E+000));
#193 = ADVANCED_FACE('',(#194,#205),#208,.F.);
#194 = FACE_BOUND('',#195,.F.);
#195 = EDGE_LOOP('',(#196));
#196 = ORIENTED_EDGE('',*,*,#197,.T.);
#197 = EDGE_CURVE('',#198,#198,#200,.T.);
#198 = VERTEX_POINT('',#199);
#199 = CARTESIAN_POINT('',(2.82,0.E+000,2.2));
#200 = CIRCLE('',#201,1.55);
#201 = AXIS2_PLACEMENT_3D('',#202,#203,#204);
#202 = CARTESIAN_POINT('',(1.27,0.E+000,2.2));
#203 = DIRECTION('',(0.E+000,0.E+000,1.));
#204 = DIRECTION('',(1.,0.E+000,0.E+000));
#205 = FACE_BOUND('',#206,.F.);
#206 = EDGE_LOOP('',(#207));
#207 = ORIENTED_EDGE('',*,*,#156,.T.);
#208 = PLANE('',#209);
#209 = AXIS2_PLACEMENT_3D('',#210,#211,#212);
#210 = CARTESIAN_POINT('',(1.27,4.700401208756E-017,2.2));
#211 = DIRECTION('',(0.E+000,0.E+000,1.));
#212 = DIRECTION('',(1.,0.E+000,0.E+000));
#213 = ADVANCED_FACE('',(#214),#233,.T.);
#214 = FACE_BOUND('',#215,.T.);
#215 = EDGE_LOOP('',(#216,#224,#225,#226));
#216 = ORIENTED_EDGE('',*,*,#217,.T.);
#217 = EDGE_CURVE('',#218,#173,#220,.T.);
#218 = VERTEX_POINT('',#219);
#219 = CARTESIAN_POINT('',(2.69,0.E+000,0.E+000));
#220 = LINE('',#221,#222);
#221 = CARTESIAN_POINT('',(2.69,0.E+000,0.E+000));
#222 = VECTOR('',#223,1.);
#223 = DIRECTION('',(-0.584304725845,0.E+000,0.811534341451));
#224 = ORIENTED_EDGE('',*,*,#172,.F.);
#225 = ORIENTED_EDGE('',*,*,#217,.F.);
#226 = ORIENTED_EDGE('',*,*,#227,.T.);
#227 = EDGE_CURVE('',#218,#218,#228,.T.);
#228 = CIRCLE('',#229,0.15);
#229 = AXIS2_PLACEMENT_3D('',#230,#231,#232);
#230 = CARTESIAN_POINT('',(2.54,0.E+000,0.E+000));
#231 = DIRECTION('',(0.E+000,0.E+000,1.));
#232 = DIRECTION('',(1.,0.E+000,0.E+000));
#233 = SURFACE_OF_LINEAR_EXTRUSION('',#234,#239);
#234 = CIRCLE('',#235,0.15);
#235 = AXIS2_PLACEMENT_3D('',#236,#237,#238);
#236 = CARTESIAN_POINT('',(2.54,0.E+000,0.E+000));
#237 = DIRECTION('',(0.E+000,0.E+000,1.));
#238 = DIRECTION('',(1.,0.E+000,0.E+000));
#239 = VECTOR('',#240,1.);
#240 = DIRECTION('',(-0.584304725845,0.E+000,0.811534341451));
#241 = ADVANCED_FACE('',(#242),#261,.T.);
#242 = FACE_BOUND('',#243,.F.);
#243 = EDGE_LOOP('',(#244,#252,#259,#260));
#244 = ORIENTED_EDGE('',*,*,#245,.T.);
#245 = EDGE_CURVE('',#198,#246,#248,.T.);
#246 = VERTEX_POINT('',#247);
#247 = CARTESIAN_POINT('',(2.82,0.E+000,3.35875));
#248 = LINE('',#249,#250);
#249 = CARTESIAN_POINT('',(2.82,0.E+000,2.2));
#250 = VECTOR('',#251,1.);
#251 = DIRECTION('',(0.E+000,0.E+000,1.));
#252 = ORIENTED_EDGE('',*,*,#253,.T.);
#253 = EDGE_CURVE('',#246,#246,#254,.T.);
#254 = CIRCLE('',#255,1.55);
#255 = AXIS2_PLACEMENT_3D('',#256,#257,#258);
#256 = CARTESIAN_POINT('',(1.27,0.E+000,3.35875));
#257 = DIRECTION('',(0.E+000,0.E+000,1.));
#258 = DIRECTION('',(1.,0.E+000,0.E+000));
#259 = ORIENTED_EDGE('',*,*,#245,.F.);
#260 = ORIENTED_EDGE('',*,*,#197,.F.);
#261 = CYLINDRICAL_SURFACE('',#262,1.55);
#262 = AXIS2_PLACEMENT_3D('',#263,#264,#265);
#263 = CARTESIAN_POINT('',(1.27,0.E+000,2.2));
#264 = DIRECTION('',(-0.E+000,-0.E+000,-1.));
#265 = DIRECTION('',(1.,0.E+000,0.E+000));
#266 = ADVANCED_FACE('',(#267),#286,.T.);
#267 = FACE_BOUND('',#268,.T.);
#268 = EDGE_LOOP('',(#269,#277,#278,#279));
#269 = ORIENTED_EDGE('',*,*,#270,.T.);
#270 = EDGE_CURVE('',#271,#218,#273,.T.);
#271 = VERTEX_POINT('',#272);
#272 = CARTESIAN_POINT('',(2.69,0.E+000,-2.925));
#273 = LINE('',#274,#275);
#274 = CARTESIAN_POINT('',(2.69,0.E+000,-3.));
#275 = VECTOR('',#276,1.);
#276 = DIRECTION('',(0.E+000,0.E+000,1.));
#277 = ORIENTED_EDGE('',*,*,#227,.F.);
#278 = ORIENTED_EDGE('',*,*,#270,.F.);
#279 = ORIENTED_EDGE('',*,*,#280,.T.);
#280 = EDGE_CURVE('',#271,#271,#281,.T.);
#281 = CIRCLE('',#282,0.15);
#282 = AXIS2_PLACEMENT_3D('',#283,#284,#285);
#283 = CARTESIAN_POINT('',(2.54,0.E+000,-2.925));
#284 = DIRECTION('',(0.E+000,0.E+000,1.));
#285 = DIRECTION('',(1.,0.E+000,0.E+000));
#286 = CYLINDRICAL_SURFACE('',#287,0.15);
#287 = AXIS2_PLACEMENT_3D('',#288,#289,#290);
#288 = CARTESIAN_POINT('',(2.54,0.E+000,-3.));
#289 = DIRECTION('',(0.E+000,0.E+000,1.));
#290 = DIRECTION('',(1.,0.E+000,0.E+000));
#291 = ADVANCED_FACE('',(#292),#311,.T.);
#292 = FACE_BOUND('',#293,.T.);
#293 = EDGE_LOOP('',(#294,#295,#303,#310));
#294 = ORIENTED_EDGE('',*,*,#253,.T.);
#295 = ORIENTED_EDGE('',*,*,#296,.T.);
#296 = EDGE_CURVE('',#246,#297,#299,.T.);
#297 = VERTEX_POINT('',#298);
#298 = CARTESIAN_POINT('',(2.679090909091,0.E+000,3.499659090909));
#299 = LINE('',#300,#301);
#300 = CARTESIAN_POINT('',(2.82,0.E+000,3.35875));
#301 = VECTOR('',#302,1.);
#302 = DIRECTION('',(-0.707106781187,0.E+000,0.707106781187));
#303 = ORIENTED_EDGE('',*,*,#304,.T.);
#304 = EDGE_CURVE('',#297,#297,#305,.T.);
#305 = CIRCLE('',#306,1.409090909091);
#306 = AXIS2_PLACEMENT_3D('',#307,#308,#309);
#307 = CARTESIAN_POINT('',(1.27,0.E+000,3.499659090909));
#308 = DIRECTION('',(0.E+000,0.E+000,-1.));
#309 = DIRECTION('',(0.E+000,1.,0.E+000));
#310 = ORIENTED_EDGE('',*,*,#296,.F.);
#311 = CONICAL_SURFACE('',#312,1.55,0.785398163397);
#312 = AXIS2_PLACEMENT_3D('',#313,#314,#315);
#313 = CARTESIAN_POINT('',(1.27,0.E+000,3.35875));
#314 = DIRECTION('',(-0.E+000,-0.E+000,-1.));
#315 = DIRECTION('',(1.,0.E+000,0.E+000));
#316 = ADVANCED_FACE('',(#317),#337,.T.);
#317 = FACE_BOUND('',#318,.F.);
#318 = EDGE_LOOP('',(#319,#328,#329,#330));
#319 = ORIENTED_EDGE('',*,*,#320,.F.);
#320 = EDGE_CURVE('',#271,#321,#323,.T.);
#321 = VERTEX_POINT('',#322);
#322 = CARTESIAN_POINT('',(2.615,0.E+000,-3.));
#323 = CIRCLE('',#324,7.5E-002);
#324 = AXIS2_PLACEMENT_3D('',#325,#326,#327);
#325 = CARTESIAN_POINT('',(2.615,0.E+000,-2.925));
#326 = DIRECTION('',(-0.E+000,1.,0.E+000));
#327 = DIRECTION('',(1.,0.E+000,0.E+000));
#328 = ORIENTED_EDGE('',*,*,#280,.T.);
#329 = ORIENTED_EDGE('',*,*,#320,.T.);
#330 = ORIENTED_EDGE('',*,*,#331,.F.);
#331 = EDGE_CURVE('',#321,#321,#332,.T.);
#332 = CIRCLE('',#333,7.5E-002);
#333 = AXIS2_PLACEMENT_3D('',#334,#335,#336);
#334 = CARTESIAN_POINT('',(2.54,0.E+000,-3.));
#335 = DIRECTION('',(0.E+000,0.E+000,1.));
#336 = DIRECTION('',(1.,0.E+000,0.E+000));
#337 = TOROIDAL_SURFACE('',#338,7.5E-002,7.5E-002);
#338 = AXIS2_PLACEMENT_3D('',#339,#340,#341);
#339 = CARTESIAN_POINT('',(2.54,0.E+000,-2.925));
#340 = DIRECTION('',(-0.E+000,-0.E+000,-1.));
#341 = DIRECTION('',(1.,0.E+000,0.E+000));
#342 = ADVANCED_FACE('',(#343),#362,.T.);
#343 = FACE_BOUND('',#344,.F.);
#344 = EDGE_LOOP('',(#345,#353,#354,#355));
#345 = ORIENTED_EDGE('',*,*,#346,.F.);
#346 = EDGE_CURVE('',#297,#347,#349,.T.);
#347 = VERTEX_POINT('',#348);
#348 = CARTESIAN_POINT('',(2.679090909091,0.E+000,10.95));
#349 = LINE('',#350,#351);
#350 = CARTESIAN_POINT('',(2.679090909091,0.E+000,2.2));
#351 = VECTOR('',#352,1.);
#352 = DIRECTION('',(0.E+000,0.E+000,1.));
#353 = ORIENTED_EDGE('',*,*,#304,.T.);
#354 = ORIENTED_EDGE('',*,*,#346,.T.);
#355 = ORIENTED_EDGE('',*,*,#356,.T.);
#356 = EDGE_CURVE('',#347,#347,#357,.T.);
#357 = CIRCLE('',#358,1.409090909091);
#358 = AXIS2_PLACEMENT_3D('',#359,#360,#361);
#359 = CARTESIAN_POINT('',(1.27,0.E+000,10.95));
#360 = DIRECTION('',(0.E+000,0.E+000,1.));
#361 = DIRECTION('',(1.,0.E+000,0.E+000));
#362 = CYLINDRICAL_SURFACE('',#363,1.409090909091);
#363 = AXIS2_PLACEMENT_3D('',#364,#365,#366);
#364 = CARTESIAN_POINT('',(1.27,0.E+000,2.2));
#365 = DIRECTION('',(-0.E+000,-0.E+000,-1.));
#366 = DIRECTION('',(1.,0.E+000,0.E+000));
#367 = ADVANCED_FACE('',(#368),#371,.F.);
#368 = FACE_BOUND('',#369,.F.);
#369 = EDGE_LOOP('',(#370));
#370 = ORIENTED_EDGE('',*,*,#331,.T.);
#371 = PLANE('',#372);
#372 = AXIS2_PLACEMENT_3D('',#373,#374,#375);
#373 = CARTESIAN_POINT('',(2.54,2.779371033817E-018,-3.));
#374 = DIRECTION('',(0.E+000,0.E+000,1.));
#375 = DIRECTION('',(1.,0.E+000,0.E+000));
#376 = ADVANCED_FACE('',(#377),#397,.T.);
#377 = FACE_BOUND('',#378,.T.);
#378 = EDGE_LOOP('',(#379,#388,#389,#390));
#379 = ORIENTED_EDGE('',*,*,#380,.F.);
#380 = EDGE_CURVE('',#347,#381,#383,.T.);
#381 = VERTEX_POINT('',#382);
#382 = CARTESIAN_POINT('',(2.429090909091,0.E+000,11.2));
#383 = CIRCLE('',#384,0.25);
#384 = AXIS2_PLACEMENT_3D('',#385,#386,#387);
#385 = CARTESIAN_POINT('',(2.429090909091,0.E+000,10.95));
#386 = DIRECTION('',(0.E+000,-1.,0.E+000));
#387 = DIRECTION('',(1.,0.E+000,0.E+000));
#388 = ORIENTED_EDGE('',*,*,#356,.T.);
#389 = ORIENTED_EDGE('',*,*,#380,.T.);
#390 = ORIENTED_EDGE('',*,*,#391,.F.);
#391 = EDGE_CURVE('',#381,#381,#392,.T.);
#392 = CIRCLE('',#393,1.159090909091);
#393 = AXIS2_PLACEMENT_3D('',#394,#395,#396);
#394 = CARTESIAN_POINT('',(1.27,0.E+000,11.2));
#395 = DIRECTION('',(0.E+000,0.E+000,1.));
#396 = DIRECTION('',(1.,0.E+000,0.E+000));
#397 = TOROIDAL_SURFACE('',#398,1.159090909091,0.25);
#398 = AXIS2_PLACEMENT_3D('',#399,#400,#401);
#399 = CARTESIAN_POINT('',(1.27,0.E+000,10.95));
#400 = DIRECTION('',(0.E+000,0.E+000,1.));
#401 = DIRECTION('',(1.,0.E+000,0.E+000));
#402 = ADVANCED_FACE('',(#403),#406,.T.);
#403 = FACE_BOUND('',#404,.T.);
#404 = EDGE_LOOP('',(#405));
#405 = ORIENTED_EDGE('',*,*,#391,.T.);
#406 = PLANE('',#407);
#407 = AXIS2_PLACEMENT_3D('',#408,#409,#410);
#408 = CARTESIAN_POINT('',(1.27,1.244364705209E-016,11.2));
#409 = DIRECTION('',(0.E+000,0.E+000,1.));
#410 = DIRECTION('',(1.,0.E+000,0.E+000));
#411 = ( GEOMETRIC_REPRESENTATION_CONTEXT(3)
GLOBAL_UNCERTAINTY_ASSIGNED_CONTEXT((#415)) GLOBAL_UNIT_ASSIGNED_CONTEXT
((#412,#413,#414)) REPRESENTATION_CONTEXT('Context #1',
'3D Context with UNIT and UNCERTAINTY') );
#412 = ( LENGTH_UNIT() NAMED_UNIT(*) SI_UNIT(.MILLI.,.METRE.) );
#413 = ( NAMED_UNIT(*) PLANE_ANGLE_UNIT() SI_UNIT($,.RADIAN.) );
#414 = ( NAMED_UNIT(*) SI_UNIT($,.STERADIAN.) SOLID_ANGLE_UNIT() );
#415 = UNCERTAINTY_MEASURE_WITH_UNIT(LENGTH_MEASURE(1.E-007),#412,
'distance_accuracy_value','confusion accuracy');
#416 = PRODUCT_RELATED_PRODUCT_CATEGORY('part',$,(#7));
#417 = MECHANICAL_DESIGN_GEOMETRIC_PRESENTATION_REPRESENTATION('',(#418,
#426,#433,#440,#447,#455,#462,#469,#477,#484,#491,#498,#505,#512,
#519,#526,#533),#411);
#418 = STYLED_ITEM('color',(#419),#17);
#419 = PRESENTATION_STYLE_ASSIGNMENT((#420));
#420 = SURFACE_STYLE_USAGE(.BOTH.,#421);
#421 = SURFACE_SIDE_STYLE('',(#422));
#422 = SURFACE_STYLE_FILL_AREA(#423);
#423 = FILL_AREA_STYLE('',(#424));
#424 = FILL_AREA_STYLE_COLOUR('',#425);
#425 = COLOUR_RGB('',0.507539987564,0.507539987564,0.507539987564);
#426 = STYLED_ITEM('color',(#427),#50);
#427 = PRESENTATION_STYLE_ASSIGNMENT((#428));
#428 = SURFACE_STYLE_USAGE(.BOTH.,#429);
#429 = SURFACE_SIDE_STYLE('',(#430));
#430 = SURFACE_STYLE_FILL_AREA(#431);
#431 = FILL_AREA_STYLE('',(#432));
#432 = FILL_AREA_STYLE_COLOUR('',#425);
#433 = STYLED_ITEM('color',(#434),#59);
#434 = PRESENTATION_STYLE_ASSIGNMENT((#435));
#435 = SURFACE_STYLE_USAGE(.BOTH.,#436);
#436 = SURFACE_SIDE_STYLE('',(#437));
#437 = SURFACE_STYLE_FILL_AREA(#438);
#438 = FILL_AREA_STYLE('',(#439));
#439 = FILL_AREA_STYLE_COLOUR('',#425);
#440 = STYLED_ITEM('color',(#441),#87);
#441 = PRESENTATION_STYLE_ASSIGNMENT((#442));
#442 = SURFACE_STYLE_USAGE(.BOTH.,#443);
#443 = SURFACE_SIDE_STYLE('',(#444));
#444 = SURFACE_STYLE_FILL_AREA(#445);
#445 = FILL_AREA_STYLE('',(#446));
#446 = FILL_AREA_STYLE_COLOUR('',#425);
#447 = STYLED_ITEM('color',(#448),#112);
#448 = PRESENTATION_STYLE_ASSIGNMENT((#449));
#449 = SURFACE_STYLE_USAGE(.BOTH.,#450);
#450 = SURFACE_SIDE_STYLE('',(#451));
#451 = SURFACE_STYLE_FILL_AREA(#452);
#452 = FILL_AREA_STYLE('',(#453));
#453 = FILL_AREA_STYLE_COLOUR('',#454);
#454 = COLOUR_RGB('',0.379000008106,0.270000010729,0.215000003576);
#455 = STYLED_ITEM('color',(#456),#143);
#456 = PRESENTATION_STYLE_ASSIGNMENT((#457));
#457 = SURFACE_STYLE_USAGE(.BOTH.,#458);
#458 = SURFACE_SIDE_STYLE('',(#459));
#459 = SURFACE_STYLE_FILL_AREA(#460);
#460 = FILL_AREA_STYLE('',(#461));
#461 = FILL_AREA_STYLE_COLOUR('',#454);
#462 = STYLED_ITEM('color',(#463),#168);
#463 = PRESENTATION_STYLE_ASSIGNMENT((#464));
#464 = SURFACE_STYLE_USAGE(.BOTH.,#465);
#465 = SURFACE_SIDE_STYLE('',(#466));
#466 = SURFACE_STYLE_FILL_AREA(#467);
#467 = FILL_AREA_STYLE('',(#468));
#468 = FILL_AREA_STYLE_COLOUR('',#425);
#469 = STYLED_ITEM('color',(#470),#193);
#470 = PRESENTATION_STYLE_ASSIGNMENT((#471));
#471 = SURFACE_STYLE_USAGE(.BOTH.,#472);
#472 = SURFACE_SIDE_STYLE('',(#473));
#473 = SURFACE_STYLE_FILL_AREA(#474);
#474 = FILL_AREA_STYLE('',(#475));
#475 = FILL_AREA_STYLE_COLOUR('',#476);
#476 = COLOUR_RGB('',0.372321993113,0.371574014425,0.373172998428);
#477 = STYLED_ITEM('color',(#478),#213);
#478 = PRESENTATION_STYLE_ASSIGNMENT((#479));
#479 = SURFACE_STYLE_USAGE(.BOTH.,#480);
#480 = SURFACE_SIDE_STYLE('',(#481));
#481 = SURFACE_STYLE_FILL_AREA(#482);
#482 = FILL_AREA_STYLE('',(#483));
#483 = FILL_AREA_STYLE_COLOUR('',#425);
#484 = STYLED_ITEM('color',(#485),#241);
#485 = PRESENTATION_STYLE_ASSIGNMENT((#486));
#486 = SURFACE_STYLE_USAGE(.BOTH.,#487);
#487 = SURFACE_SIDE_STYLE('',(#488));
#488 = SURFACE_STYLE_FILL_AREA(#489);
#489 = FILL_AREA_STYLE('',(#490));
#490 = FILL_AREA_STYLE_COLOUR('',#476);
#491 = STYLED_ITEM('color',(#492),#266);
#492 = PRESENTATION_STYLE_ASSIGNMENT((#493));
#493 = SURFACE_STYLE_USAGE(.BOTH.,#494);
#494 = SURFACE_SIDE_STYLE('',(#495));
#495 = SURFACE_STYLE_FILL_AREA(#496);
#496 = FILL_AREA_STYLE('',(#497));
#497 = FILL_AREA_STYLE_COLOUR('',#425);
#498 = STYLED_ITEM('color',(#499),#291);
#499 = PRESENTATION_STYLE_ASSIGNMENT((#500));
#500 = SURFACE_STYLE_USAGE(.BOTH.,#501);
#501 = SURFACE_SIDE_STYLE('',(#502));
#502 = SURFACE_STYLE_FILL_AREA(#503);
#503 = FILL_AREA_STYLE('',(#504));
#504 = FILL_AREA_STYLE_COLOUR('',#476);
#505 = STYLED_ITEM('color',(#506),#316);
#506 = PRESENTATION_STYLE_ASSIGNMENT((#507));
#507 = SURFACE_STYLE_USAGE(.BOTH.,#508);
#508 = SURFACE_SIDE_STYLE('',(#509));
#509 = SURFACE_STYLE_FILL_AREA(#510);
#510 = FILL_AREA_STYLE('',(#511));
#511 = FILL_AREA_STYLE_COLOUR('',#425);
#512 = STYLED_ITEM('color',(#513),#342);
#513 = PRESENTATION_STYLE_ASSIGNMENT((#514));
#514 = SURFACE_STYLE_USAGE(.BOTH.,#515);
#515 = SURFACE_SIDE_STYLE('',(#516));
#516 = SURFACE_STYLE_FILL_AREA(#517);
#517 = FILL_AREA_STYLE('',(#518));
#518 = FILL_AREA_STYLE_COLOUR('',#476);
#519 = STYLED_ITEM('color',(#520),#367);
#520 = PRESENTATION_STYLE_ASSIGNMENT((#521));
#521 = SURFACE_STYLE_USAGE(.BOTH.,#522);
#522 = SURFACE_SIDE_STYLE('',(#523));
#523 = SURFACE_STYLE_FILL_AREA(#524);
#524 = FILL_AREA_STYLE('',(#525));
#525 = FILL_AREA_STYLE_COLOUR('',#425);
#526 = STYLED_ITEM('color',(#527),#376);
#527 = PRESENTATION_STYLE_ASSIGNMENT((#528));
#528 = SURFACE_STYLE_USAGE(.BOTH.,#529);
#529 = SURFACE_SIDE_STYLE('',(#530));
#530 = SURFACE_STYLE_FILL_AREA(#531);
#531 = FILL_AREA_STYLE('',(#532));
#532 = FILL_AREA_STYLE_COLOUR('',#476);
#533 = STYLED_ITEM('color',(#534),#402);
#534 = PRESENTATION_STYLE_ASSIGNMENT((#535));
#535 = SURFACE_STYLE_USAGE(.BOTH.,#536);
#536 = SURFACE_SIDE_STYLE('',(#537));
#537 = SURFACE_STYLE_FILL_AREA(#538);
#538 = FILL_AREA_STYLE('',(#539));
#539 = FILL_AREA_STYLE_COLOUR('',#476);
ENDSEC;
END-ISO-10303-21;
