ISO-10303-21;
HEADER;
FILE_DESCRIPTION(('FreeCAD Model'),'2;1');
FILE_NAME(
'D:/KiCAD/packages3D-source/Diode_THT.3dshapes\\
D_DO-34_SOD68_P7.62mm_Horizontal.step','2018-04-28T11:32:37',(
    'kicad StepUp'),('ksu MCAD'),'Open CASCADE STEP processor 6.8',
  'FreeCAD','Unknown');
FILE_SCHEMA(('AUTOMOTIVE_DESIGN_CC2 { 1 2 10303 214 -1 1 5 4 }'));
ENDSEC;
DATA;
#1 = APPLICATION_PROTOCOL_DEFINITION('committee draft',
  'automotive_design',1997,#2);
#2 = APPLICATION_CONTEXT(
  'core data for automotive mechanical design processes');
#3 = SHAPE_DEFINITION_REPRESENTATION(#4,#10);
#4 = PRODUCT_DEFINITION_SHAPE('','',#5);
#5 = PRODUCT_DEFINITION('design','',#6,#9);
#6 = PRODUCT_DEFINITION_FORMATION('','',#7);
#7 = PRODUCT('D_DO-34_SOD68_P7.62mm_Horizontal',
  'D_DO-34_SOD68_P7.62mm_Horizontal','',(#8));
#8 = MECHANICAL_CONTEXT('',#2,'mechanical');
#9 = PRODUCT_DEFINITION_CONTEXT('part definition',#2,'design');
#10 = ADVANCED_BREP_SHAPE_REPRESENTATION('',(#11,#15),#500);
#11 = AXIS2_PLACEMENT_3D('',#12,#13,#14);
#12 = CARTESIAN_POINT('',(0.E+000,0.E+000,0.E+000));
#13 = DIRECTION('',(0.E+000,0.E+000,1.));
#14 = DIRECTION('',(1.,0.E+000,-0.E+000));
#15 = MANIFOLD_SOLID_BREP('',#16);
#16 = CLOSED_SHELL('',(#17,#50,#59,#85,#110,#130,#155,#175,#205,#230,
    #250,#275,#295,#320,#350,#370,#395,#415,#440,#466,#491));
#17 = ADVANCED_FACE('',(#18),#45,.T.);
#18 = FACE_BOUND('',#19,.T.);
#19 = EDGE_LOOP('',(#20,#30,#37,#38));
#20 = ORIENTED_EDGE('',*,*,#21,.T.);
#21 = EDGE_CURVE('',#22,#24,#26,.T.);
#22 = VERTEX_POINT('',#23);
#23 = CARTESIAN_POINT('',(0.275,-1.783778764156E-016,-2.5));
#24 = VERTEX_POINT('',#25);
#25 = CARTESIAN_POINT('',(0.275,6.106226635438E-016,0.75));
#26 = LINE('',#27,#28);
#27 = CARTESIAN_POINT('',(0.275,6.106226635438E-016,0.75));
#28 = VECTOR('',#29,1.);
#29 = DIRECTION('',(0.E+000,2.22044604925E-016,1.));
#30 = ORIENTED_EDGE('',*,*,#31,.F.);
#31 = EDGE_CURVE('',#24,#24,#32,.T.);
#32 = CIRCLE('',#33,0.275);
#33 = AXIS2_PLACEMENT_3D('',#34,#35,#36);
#34 = CARTESIAN_POINT('',(0.E+000,6.106226635438E-016,0.75));
#35 = DIRECTION('',(-0.E+000,2.22044604925E-016,1.));
#36 = DIRECTION('',(1.,0.E+000,0.E+000));
#37 = ORIENTED_EDGE('',*,*,#21,.F.);
#38 = ORIENTED_EDGE('',*,*,#39,.T.);
#39 = EDGE_CURVE('',#22,#22,#40,.T.);
#40 = CIRCLE('',#41,0.275);
#41 = AXIS2_PLACEMENT_3D('',#42,#43,#44);
#42 = CARTESIAN_POINT('',(0.E+000,-1.110223024625E-016,-2.5));
#43 = DIRECTION('',(-0.E+000,2.22044604925E-016,1.));
#44 = DIRECTION('',(1.,0.E+000,0.E+000));
#45 = CYLINDRICAL_SURFACE('',#46,0.275);
#46 = AXIS2_PLACEMENT_3D('',#47,#48,#49);
#47 = CARTESIAN_POINT('',(0.E+000,6.106226635438E-016,0.75));
#48 = DIRECTION('',(0.E+000,2.22044604925E-016,1.));
#49 = DIRECTION('',(1.,0.E+000,0.E+000));
#50 = ADVANCED_FACE('',(#51),#54,.T.);
#51 = FACE_BOUND('',#52,.F.);
#52 = EDGE_LOOP('',(#53));
#53 = ORIENTED_EDGE('',*,*,#39,.T.);
#54 = PLANE('',#55);
#55 = AXIS2_PLACEMENT_3D('',#56,#57,#58);
#56 = CARTESIAN_POINT('',(0.275,-1.110223024625E-016,-2.5));
#57 = DIRECTION('',(0.E+000,0.E+000,-1.));
#58 = DIRECTION('',(-1.,0.E+000,0.E+000));
#59 = ADVANCED_FACE('',(#60),#80,.T.);
#60 = FACE_BOUND('',#61,.T.);
#61 = EDGE_LOOP('',(#62,#71,#78,#79));
#62 = ORIENTED_EDGE('',*,*,#63,.T.);
#63 = EDGE_CURVE('',#24,#64,#66,.T.);
#64 = VERTEX_POINT('',#65);
#65 = CARTESIAN_POINT('',(0.55,6.716849298982E-016,1.025));
#66 = CIRCLE('',#67,0.275);
#67 = AXIS2_PLACEMENT_3D('',#68,#69,#70);
#68 = CARTESIAN_POINT('',(0.55,5.737743920134E-014,0.75));
#69 = DIRECTION('',(0.E+000,1.,-2.22044604925E-016));
#70 = DIRECTION('',(1.,0.E+000,0.E+000));
#71 = ORIENTED_EDGE('',*,*,#72,.T.);
#72 = EDGE_CURVE('',#64,#64,#73,.T.);
#73 = CIRCLE('',#74,0.275);
#74 = AXIS2_PLACEMENT_3D('',#75,#76,#77);
#75 = CARTESIAN_POINT('',(0.55,7.327471962526E-016,1.3));
#76 = DIRECTION('',(-1.,-2.291775518361E-029,-1.032123937051E-013));
#77 = DIRECTION('',(-1.032123937051E-013,2.22044604925E-016,1.));
#78 = ORIENTED_EDGE('',*,*,#63,.F.);
#79 = ORIENTED_EDGE('',*,*,#31,.T.);
#80 = TOROIDAL_SURFACE('',#81,0.55,0.275);
#81 = AXIS2_PLACEMENT_3D('',#82,#83,#84);
#82 = CARTESIAN_POINT('',(0.55,6.106226635438E-016,0.75));
#83 = DIRECTION('',(0.E+000,1.,-2.22044604925E-016));
#84 = DIRECTION('',(1.,0.E+000,0.E+000));
#85 = ADVANCED_FACE('',(#86),#105,.T.);
#86 = FACE_BOUND('',#87,.T.);
#87 = EDGE_LOOP('',(#88,#89,#97,#104));
#88 = ORIENTED_EDGE('',*,*,#72,.F.);
#89 = ORIENTED_EDGE('',*,*,#90,.T.);
#90 = EDGE_CURVE('',#64,#91,#93,.T.);
#91 = VERTEX_POINT('',#92);
#92 = CARTESIAN_POINT('',(2.29,6.716849298982E-016,1.025));
#93 = LINE('',#94,#95);
#94 = CARTESIAN_POINT('',(0.55,6.716849298982E-016,1.025));
#95 = VECTOR('',#96,1.);
#96 = DIRECTION('',(1.,0.E+000,0.E+000));
#97 = ORIENTED_EDGE('',*,*,#98,.F.);
#98 = EDGE_CURVE('',#91,#91,#99,.T.);
#99 = CIRCLE('',#100,0.275);
#100 = AXIS2_PLACEMENT_3D('',#101,#102,#103);
#101 = CARTESIAN_POINT('',(2.29,7.327471962526E-016,1.3));
#102 = DIRECTION('',(1.,0.E+000,0.E+000));
#103 = DIRECTION('',(0.E+000,-2.22044604925E-016,-1.));
#104 = ORIENTED_EDGE('',*,*,#90,.F.);
#105 = CYLINDRICAL_SURFACE('',#106,0.275);
#106 = AXIS2_PLACEMENT_3D('',#107,#108,#109);
#107 = CARTESIAN_POINT('',(0.55,7.327471962526E-016,1.3));
#108 = DIRECTION('',(1.,0.E+000,0.E+000));
#109 = DIRECTION('',(0.E+000,-2.22044604925E-016,-1.));
#110 = ADVANCED_FACE('',(#111,#122),#125,.F.);
#111 = FACE_BOUND('',#112,.T.);
#112 = EDGE_LOOP('',(#113));
#113 = ORIENTED_EDGE('',*,*,#114,.F.);
#114 = EDGE_CURVE('',#115,#115,#117,.T.);
#115 = VERTEX_POINT('',#116);
#116 = CARTESIAN_POINT('',(2.29,5.474787290183E-016,1.64375));
#117 = CIRCLE('',#118,0.34375);
#118 = AXIS2_PLACEMENT_3D('',#119,#120,#121);
#119 = CARTESIAN_POINT('',(2.29,4.329869796038E-016,1.3));
#120 = DIRECTION('',(1.,0.E+000,-0.E+000));
#121 = DIRECTION('',(0.E+000,3.330669073875E-016,1.));
#122 = FACE_BOUND('',#123,.T.);
#123 = EDGE_LOOP('',(#124));
#124 = ORIENTED_EDGE('',*,*,#98,.T.);
#125 = PLANE('',#126);
#126 = AXIS2_PLACEMENT_3D('',#127,#128,#129);
#127 = CARTESIAN_POINT('',(2.29,4.329869796038E-016,1.3));
#128 = DIRECTION('',(1.,0.E+000,0.E+000));
#129 = DIRECTION('',(0.E+000,3.330669073875E-016,1.));
#130 = ADVANCED_FACE('',(#131),#150,.T.);
#131 = FACE_BOUND('',#132,.T.);
#132 = EDGE_LOOP('',(#133,#141,#142,#143));
#133 = ORIENTED_EDGE('',*,*,#134,.F.);
#134 = EDGE_CURVE('',#115,#135,#137,.T.);
#135 = VERTEX_POINT('',#136);
#136 = CARTESIAN_POINT('',(2.44,5.474787290183E-016,1.64375));
#137 = LINE('',#138,#139);
#138 = CARTESIAN_POINT('',(2.29,5.474787290183E-016,1.64375));
#139 = VECTOR('',#140,1.);
#140 = DIRECTION('',(1.,0.E+000,0.E+000));
#141 = ORIENTED_EDGE('',*,*,#114,.T.);
#142 = ORIENTED_EDGE('',*,*,#134,.T.);
#143 = ORIENTED_EDGE('',*,*,#144,.F.);
#144 = EDGE_CURVE('',#135,#135,#145,.T.);
#145 = CIRCLE('',#146,0.34375);
#146 = AXIS2_PLACEMENT_3D('',#147,#148,#149);
#147 = CARTESIAN_POINT('',(2.44,4.329869796038E-016,1.3));
#148 = DIRECTION('',(1.,0.E+000,-0.E+000));
#149 = DIRECTION('',(0.E+000,3.330669073875E-016,1.));
#150 = CYLINDRICAL_SURFACE('',#151,0.34375);
#151 = AXIS2_PLACEMENT_3D('',#152,#153,#154);
#152 = CARTESIAN_POINT('',(2.29,4.329869796038E-016,1.3));
#153 = DIRECTION('',(1.,0.E+000,0.E+000));
#154 = DIRECTION('',(0.E+000,3.330669073875E-016,1.));
#155 = ADVANCED_FACE('',(#156,#167),#170,.F.);
#156 = FACE_BOUND('',#157,.T.);
#157 = EDGE_LOOP('',(#158));
#158 = ORIENTED_EDGE('',*,*,#159,.F.);
#159 = EDGE_CURVE('',#160,#160,#162,.T.);
#160 = VERTEX_POINT('',#161);
#161 = CARTESIAN_POINT('',(2.44,1.292299600664E-015,1.94));
#162 = CIRCLE('',#163,0.64);
#163 = AXIS2_PLACEMENT_3D('',#164,#165,#166);
#164 = CARTESIAN_POINT('',(2.44,5.773159728051E-016,1.3));
#165 = DIRECTION('',(1.,0.E+000,-0.E+000));
#166 = DIRECTION('',(0.E+000,1.117161918529E-015,1.));
#167 = FACE_BOUND('',#168,.T.);
#168 = EDGE_LOOP('',(#169));
#169 = ORIENTED_EDGE('',*,*,#144,.T.);
#170 = PLANE('',#171);
#171 = AXIS2_PLACEMENT_3D('',#172,#173,#174);
#172 = CARTESIAN_POINT('',(2.44,5.773159728051E-016,1.3));
#173 = DIRECTION('',(1.,0.E+000,0.E+000));
#174 = DIRECTION('',(0.E+000,1.117161918529E-015,1.));
#175 = ADVANCED_FACE('',(#176),#196,.F.);
#176 = FACE_BOUND('',#177,.F.);
#177 = EDGE_LOOP('',(#178,#187,#194,#195));
#178 = ORIENTED_EDGE('',*,*,#179,.T.);
#179 = EDGE_CURVE('',#180,#180,#182,.T.);
#180 = VERTEX_POINT('',#181);
#181 = CARTESIAN_POINT('',(2.6,1.398881011028E-015,2.1));
#182 = CIRCLE('',#183,0.8);
#183 = AXIS2_PLACEMENT_3D('',#184,#185,#186);
#184 = CARTESIAN_POINT('',(2.6,5.773159728051E-016,1.3));
#185 = DIRECTION('',(1.,0.E+000,-0.E+000));
#186 = DIRECTION('',(0.E+000,1.026956297778E-015,1.));
#187 = ORIENTED_EDGE('',*,*,#188,.T.);
#188 = EDGE_CURVE('',#180,#160,#189,.T.);
#189 = CIRCLE('',#190,0.16);
#190 = AXIS2_PLACEMENT_3D('',#191,#192,#193);
#191 = CARTESIAN_POINT('',(2.6,1.292299600664E-015,1.94));
#192 = DIRECTION('',(0.E+000,-1.,6.661338147751E-016));
#193 = DIRECTION('',(1.,0.E+000,0.E+000));
#194 = ORIENTED_EDGE('',*,*,#159,.F.);
#195 = ORIENTED_EDGE('',*,*,#188,.F.);
#196 = SURFACE_OF_REVOLUTION('',#197,#202);
#197 = CIRCLE('',#198,0.16);
#198 = AXIS2_PLACEMENT_3D('',#199,#200,#201);
#199 = CARTESIAN_POINT('',(2.6,1.292299600664E-015,1.94));
#200 = DIRECTION('',(0.E+000,-1.,6.661338147751E-016));
#201 = DIRECTION('',(1.,0.E+000,0.E+000));
#202 = AXIS1_PLACEMENT('',#203,#204);
#203 = CARTESIAN_POINT('',(3.81,5.773159728051E-016,1.3));
#204 = DIRECTION('',(1.,0.E+000,0.E+000));
#205 = ADVANCED_FACE('',(#206),#225,.T.);
#206 = FACE_BOUND('',#207,.T.);
#207 = EDGE_LOOP('',(#208,#216,#217,#218));
#208 = ORIENTED_EDGE('',*,*,#209,.F.);
#209 = EDGE_CURVE('',#180,#210,#212,.T.);
#210 = VERTEX_POINT('',#211);
#211 = CARTESIAN_POINT('',(2.746,6.994405055138E-016,2.1));
#212 = LINE('',#213,#214);
#213 = CARTESIAN_POINT('',(2.6,1.398881011028E-015,2.1));
#214 = VECTOR('',#215,1.);
#215 = DIRECTION('',(1.,0.E+000,0.E+000));
#216 = ORIENTED_EDGE('',*,*,#179,.T.);
#217 = ORIENTED_EDGE('',*,*,#209,.T.);
#218 = ORIENTED_EDGE('',*,*,#219,.F.);
#219 = EDGE_CURVE('',#210,#210,#220,.T.);
#220 = CIRCLE('',#221,0.8);
#221 = AXIS2_PLACEMENT_3D('',#222,#223,#224);
#222 = CARTESIAN_POINT('',(2.746,4.329869796038E-016,1.3));
#223 = DIRECTION('',(1.,0.E+000,-0.E+000));
#224 = DIRECTION('',(0.E+000,3.330669073875E-016,1.));
#225 = CYLINDRICAL_SURFACE('',#226,0.8);
#226 = AXIS2_PLACEMENT_3D('',#227,#228,#229);
#227 = CARTESIAN_POINT('',(2.6,5.773159728051E-016,1.3));
#228 = DIRECTION('',(1.,0.E+000,0.E+000));
#229 = DIRECTION('',(0.E+000,1.026956297778E-015,1.));
#230 = ADVANCED_FACE('',(#231,#242),#245,.F.);
#231 = FACE_BOUND('',#232,.F.);
#232 = EDGE_LOOP('',(#233));
#233 = ORIENTED_EDGE('',*,*,#234,.T.);
#234 = EDGE_CURVE('',#235,#235,#237,.T.);
#235 = VERTEX_POINT('',#236);
#236 = CARTESIAN_POINT('',(2.746,7.011058400508E-016,2.105));
#237 = CIRCLE('',#238,0.805);
#238 = AXIS2_PLACEMENT_3D('',#239,#240,#241);
#239 = CARTESIAN_POINT('',(2.746,4.329869796038E-016,1.3));
#240 = DIRECTION('',(1.,0.E+000,-0.E+000));
#241 = DIRECTION('',(0.E+000,3.330669073875E-016,1.));
#242 = FACE_BOUND('',#243,.F.);
#243 = EDGE_LOOP('',(#244));
#244 = ORIENTED_EDGE('',*,*,#219,.F.);
#245 = PLANE('',#246);
#246 = AXIS2_PLACEMENT_3D('',#247,#248,#249);
#247 = CARTESIAN_POINT('',(2.746,4.329869796038E-016,1.3));
#248 = DIRECTION('',(1.,0.E+000,0.E+000));
#249 = DIRECTION('',(0.E+000,3.330669073875E-016,1.));
#250 = ADVANCED_FACE('',(#251),#270,.T.);
#251 = FACE_BOUND('',#252,.F.);
#252 = EDGE_LOOP('',(#253,#262,#268,#269));
#253 = ORIENTED_EDGE('',*,*,#254,.T.);
#254 = EDGE_CURVE('',#255,#255,#257,.T.);
#255 = VERTEX_POINT('',#256);
#256 = CARTESIAN_POINT('',(3.246,7.011058400508E-016,2.105));
#257 = CIRCLE('',#258,0.805);
#258 = AXIS2_PLACEMENT_3D('',#259,#260,#261);
#259 = CARTESIAN_POINT('',(3.246,4.329869796038E-016,1.3));
#260 = DIRECTION('',(1.,0.E+000,-0.E+000));
#261 = DIRECTION('',(0.E+000,3.330669073875E-016,1.));
#262 = ORIENTED_EDGE('',*,*,#263,.T.);
#263 = EDGE_CURVE('',#255,#235,#264,.T.);
#264 = LINE('',#265,#266);
#265 = CARTESIAN_POINT('',(3.246,7.011058400508E-016,2.105));
#266 = VECTOR('',#267,1.);
#267 = DIRECTION('',(-1.,0.E+000,0.E+000));
#268 = ORIENTED_EDGE('',*,*,#234,.F.);
#269 = ORIENTED_EDGE('',*,*,#263,.F.);
#270 = CYLINDRICAL_SURFACE('',#271,0.805);
#271 = AXIS2_PLACEMENT_3D('',#272,#273,#274);
#272 = CARTESIAN_POINT('',(3.246,4.329869796038E-016,1.3));
#273 = DIRECTION('',(-1.,0.E+000,0.E+000));
#274 = DIRECTION('',(0.E+000,3.330669073875E-016,1.));
#275 = ADVANCED_FACE('',(#276,#279),#290,.T.);
#276 = FACE_BOUND('',#277,.F.);
#277 = EDGE_LOOP('',(#278));
#278 = ORIENTED_EDGE('',*,*,#254,.F.);
#279 = FACE_BOUND('',#280,.F.);
#280 = EDGE_LOOP('',(#281));
#281 = ORIENTED_EDGE('',*,*,#282,.T.);
#282 = EDGE_CURVE('',#283,#283,#285,.T.);
#283 = VERTEX_POINT('',#284);
#284 = CARTESIAN_POINT('',(3.246,6.994405055138E-016,2.1));
#285 = CIRCLE('',#286,0.8);
#286 = AXIS2_PLACEMENT_3D('',#287,#288,#289);
#287 = CARTESIAN_POINT('',(3.246,4.329869796038E-016,1.3));
#288 = DIRECTION('',(1.,0.E+000,-0.E+000));
#289 = DIRECTION('',(0.E+000,3.330669073875E-016,1.));
#290 = PLANE('',#291);
#291 = AXIS2_PLACEMENT_3D('',#292,#293,#294);
#292 = CARTESIAN_POINT('',(3.246,4.329869796038E-016,1.3));
#293 = DIRECTION('',(1.,0.E+000,0.E+000));
#294 = DIRECTION('',(0.E+000,3.330669073875E-016,1.));
#295 = ADVANCED_FACE('',(#296),#315,.T.);
#296 = FACE_BOUND('',#297,.T.);
#297 = EDGE_LOOP('',(#298,#299,#307,#314));
#298 = ORIENTED_EDGE('',*,*,#282,.T.);
#299 = ORIENTED_EDGE('',*,*,#300,.T.);
#300 = EDGE_CURVE('',#283,#301,#303,.T.);
#301 = VERTEX_POINT('',#302);
#302 = CARTESIAN_POINT('',(5.02,1.398881011028E-015,2.1));
#303 = LINE('',#304,#305);
#304 = CARTESIAN_POINT('',(2.6,1.398881011028E-015,2.1));
#305 = VECTOR('',#306,1.);
#306 = DIRECTION('',(1.,0.E+000,0.E+000));
#307 = ORIENTED_EDGE('',*,*,#308,.F.);
#308 = EDGE_CURVE('',#301,#301,#309,.T.);
#309 = CIRCLE('',#310,0.8);
#310 = AXIS2_PLACEMENT_3D('',#311,#312,#313);
#311 = CARTESIAN_POINT('',(5.02,5.773159728051E-016,1.3));
#312 = DIRECTION('',(1.,0.E+000,-0.E+000));
#313 = DIRECTION('',(0.E+000,1.026956297778E-015,1.));
#314 = ORIENTED_EDGE('',*,*,#300,.F.);
#315 = CYLINDRICAL_SURFACE('',#316,0.8);
#316 = AXIS2_PLACEMENT_3D('',#317,#318,#319);
#317 = CARTESIAN_POINT('',(2.6,5.773159728051E-016,1.3));
#318 = DIRECTION('',(1.,0.E+000,0.E+000));
#319 = DIRECTION('',(0.E+000,1.026956297778E-015,1.));
#320 = ADVANCED_FACE('',(#321),#341,.F.);
#321 = FACE_BOUND('',#322,.F.);
#322 = EDGE_LOOP('',(#323,#332,#339,#340));
#323 = ORIENTED_EDGE('',*,*,#324,.T.);
#324 = EDGE_CURVE('',#325,#325,#327,.T.);
#325 = VERTEX_POINT('',#326);
#326 = CARTESIAN_POINT('',(5.18,1.292299600664E-015,1.94));
#327 = CIRCLE('',#328,0.64);
#328 = AXIS2_PLACEMENT_3D('',#329,#330,#331);
#329 = CARTESIAN_POINT('',(5.18,5.773159728051E-016,1.3));
#330 = DIRECTION('',(1.,0.E+000,-0.E+000));
#331 = DIRECTION('',(0.E+000,1.117161918529E-015,1.));
#332 = ORIENTED_EDGE('',*,*,#333,.T.);
#333 = EDGE_CURVE('',#325,#301,#334,.T.);
#334 = CIRCLE('',#335,0.16);
#335 = AXIS2_PLACEMENT_3D('',#336,#337,#338);
#336 = CARTESIAN_POINT('',(5.02,1.292299600664E-015,1.94));
#337 = DIRECTION('',(0.E+000,-1.,6.661338147751E-016));
#338 = DIRECTION('',(1.,0.E+000,0.E+000));
#339 = ORIENTED_EDGE('',*,*,#308,.F.);
#340 = ORIENTED_EDGE('',*,*,#333,.F.);
#341 = SURFACE_OF_REVOLUTION('',#342,#347);
#342 = CIRCLE('',#343,0.16);
#343 = AXIS2_PLACEMENT_3D('',#344,#345,#346);
#344 = CARTESIAN_POINT('',(5.02,1.292299600664E-015,1.94));
#345 = DIRECTION('',(0.E+000,-1.,6.661338147751E-016));
#346 = DIRECTION('',(1.,0.E+000,0.E+000));
#347 = AXIS1_PLACEMENT('',#348,#349);
#348 = CARTESIAN_POINT('',(3.81,5.773159728051E-016,1.3));
#349 = DIRECTION('',(1.,0.E+000,0.E+000));
#350 = ADVANCED_FACE('',(#351,#354),#365,.T.);
#351 = FACE_BOUND('',#352,.T.);
#352 = EDGE_LOOP('',(#353));
#353 = ORIENTED_EDGE('',*,*,#324,.T.);
#354 = FACE_BOUND('',#355,.T.);
#355 = EDGE_LOOP('',(#356));
#356 = ORIENTED_EDGE('',*,*,#357,.F.);
#357 = EDGE_CURVE('',#358,#358,#360,.T.);
#358 = VERTEX_POINT('',#359);
#359 = CARTESIAN_POINT('',(5.18,5.474787290183E-016,1.64375));
#360 = CIRCLE('',#361,0.34375);
#361 = AXIS2_PLACEMENT_3D('',#362,#363,#364);
#362 = CARTESIAN_POINT('',(5.18,4.329869796038E-016,1.3));
#363 = DIRECTION('',(1.,0.E+000,-0.E+000));
#364 = DIRECTION('',(0.E+000,3.330669073875E-016,1.));
#365 = PLANE('',#366);
#366 = AXIS2_PLACEMENT_3D('',#367,#368,#369);
#367 = CARTESIAN_POINT('',(5.18,5.773159728051E-016,1.3));
#368 = DIRECTION('',(1.,0.E+000,0.E+000));
#369 = DIRECTION('',(0.E+000,1.117161918529E-015,1.));
#370 = ADVANCED_FACE('',(#371),#390,.T.);
#371 = FACE_BOUND('',#372,.T.);
#372 = EDGE_LOOP('',(#373,#374,#382,#389));
#373 = ORIENTED_EDGE('',*,*,#357,.T.);
#374 = ORIENTED_EDGE('',*,*,#375,.T.);
#375 = EDGE_CURVE('',#358,#376,#378,.T.);
#376 = VERTEX_POINT('',#377);
#377 = CARTESIAN_POINT('',(5.33,5.474787290183E-016,1.64375));
#378 = LINE('',#379,#380);
#379 = CARTESIAN_POINT('',(2.29,5.474787290183E-016,1.64375));
#380 = VECTOR('',#381,1.);
#381 = DIRECTION('',(1.,0.E+000,0.E+000));
#382 = ORIENTED_EDGE('',*,*,#383,.F.);
#383 = EDGE_CURVE('',#376,#376,#384,.T.);
#384 = CIRCLE('',#385,0.34375);
#385 = AXIS2_PLACEMENT_3D('',#386,#387,#388);
#386 = CARTESIAN_POINT('',(5.33,4.329869796038E-016,1.3));
#387 = DIRECTION('',(1.,0.E+000,-0.E+000));
#388 = DIRECTION('',(0.E+000,3.330669073875E-016,1.));
#389 = ORIENTED_EDGE('',*,*,#375,.F.);
#390 = CYLINDRICAL_SURFACE('',#391,0.34375);
#391 = AXIS2_PLACEMENT_3D('',#392,#393,#394);
#392 = CARTESIAN_POINT('',(2.29,4.329869796038E-016,1.3));
#393 = DIRECTION('',(1.,0.E+000,0.E+000));
#394 = DIRECTION('',(0.E+000,3.330669073875E-016,1.));
#395 = ADVANCED_FACE('',(#396,#399),#410,.T.);
#396 = FACE_BOUND('',#397,.T.);
#397 = EDGE_LOOP('',(#398));
#398 = ORIENTED_EDGE('',*,*,#383,.T.);
#399 = FACE_BOUND('',#400,.T.);
#400 = EDGE_LOOP('',(#401));
#401 = ORIENTED_EDGE('',*,*,#402,.F.);
#402 = EDGE_CURVE('',#403,#403,#405,.T.);
#403 = VERTEX_POINT('',#404);
#404 = CARTESIAN_POINT('',(5.33,6.716849298982E-016,1.025));
#405 = CIRCLE('',#406,0.275);
#406 = AXIS2_PLACEMENT_3D('',#407,#408,#409);
#407 = CARTESIAN_POINT('',(5.33,7.327471962526E-016,1.3));
#408 = DIRECTION('',(1.,0.E+000,0.E+000));
#409 = DIRECTION('',(0.E+000,-2.22044604925E-016,-1.));
#410 = PLANE('',#411);
#411 = AXIS2_PLACEMENT_3D('',#412,#413,#414);
#412 = CARTESIAN_POINT('',(5.33,4.329869796038E-016,1.3));
#413 = DIRECTION('',(1.,0.E+000,0.E+000));
#414 = DIRECTION('',(0.E+000,3.330669073875E-016,1.));
#415 = ADVANCED_FACE('',(#416),#435,.T.);
#416 = FACE_BOUND('',#417,.T.);
#417 = EDGE_LOOP('',(#418,#419,#427,#434));
#418 = ORIENTED_EDGE('',*,*,#402,.T.);
#419 = ORIENTED_EDGE('',*,*,#420,.T.);
#420 = EDGE_CURVE('',#403,#421,#423,.T.);
#421 = VERTEX_POINT('',#422);
#422 = CARTESIAN_POINT('',(7.07,6.716849298982E-016,1.025));
#423 = LINE('',#424,#425);
#424 = CARTESIAN_POINT('',(0.55,6.716849298982E-016,1.025));
#425 = VECTOR('',#426,1.);
#426 = DIRECTION('',(1.,0.E+000,0.E+000));
#427 = ORIENTED_EDGE('',*,*,#428,.F.);
#428 = EDGE_CURVE('',#421,#421,#429,.T.);
#429 = CIRCLE('',#430,0.275);
#430 = AXIS2_PLACEMENT_3D('',#431,#432,#433);
#431 = CARTESIAN_POINT('',(7.07,7.327471962526E-016,1.3));
#432 = DIRECTION('',(1.,0.E+000,0.E+000));
#433 = DIRECTION('',(0.E+000,-2.22044604925E-016,-1.));
#434 = ORIENTED_EDGE('',*,*,#420,.F.);
#435 = CYLINDRICAL_SURFACE('',#436,0.275);
#436 = AXIS2_PLACEMENT_3D('',#437,#438,#439);
#437 = CARTESIAN_POINT('',(0.55,7.327471962526E-016,1.3));
#438 = DIRECTION('',(1.,0.E+000,0.E+000));
#439 = DIRECTION('',(0.E+000,-2.22044604925E-016,-1.));
#440 = ADVANCED_FACE('',(#441),#461,.T.);
#441 = FACE_BOUND('',#442,.T.);
#442 = EDGE_LOOP('',(#443,#452,#459,#460));
#443 = ORIENTED_EDGE('',*,*,#444,.T.);
#444 = EDGE_CURVE('',#421,#445,#447,.T.);
#445 = VERTEX_POINT('',#446);
#446 = CARTESIAN_POINT('',(7.345,6.106226635438E-016,0.75));
#447 = CIRCLE('',#448,0.275);
#448 = AXIS2_PLACEMENT_3D('',#449,#450,#451);
#449 = CARTESIAN_POINT('',(7.07,5.737743920134E-014,0.75));
#450 = DIRECTION('',(0.E+000,1.,-2.22044604925E-016));
#451 = DIRECTION('',(1.,0.E+000,0.E+000));
#452 = ORIENTED_EDGE('',*,*,#453,.T.);
#453 = EDGE_CURVE('',#445,#445,#454,.T.);
#454 = CIRCLE('',#455,0.275);
#455 = AXIS2_PLACEMENT_3D('',#456,#457,#458);
#456 = CARTESIAN_POINT('',(7.62,6.106226635438E-016,0.75));
#457 = DIRECTION('',(-2.449293598295E-016,2.22044604925E-016,1.));
#458 = DIRECTION('',(1.,5.438524293788E-032,2.449293598295E-016));
#459 = ORIENTED_EDGE('',*,*,#444,.F.);
#460 = ORIENTED_EDGE('',*,*,#428,.T.);
#461 = TOROIDAL_SURFACE('',#462,0.55,0.275);
#462 = AXIS2_PLACEMENT_3D('',#463,#464,#465);
#463 = CARTESIAN_POINT('',(7.07,6.106226635438E-016,0.75));
#464 = DIRECTION('',(0.E+000,1.,-2.22044604925E-016));
#465 = DIRECTION('',(1.,0.E+000,0.E+000));
#466 = ADVANCED_FACE('',(#467),#486,.T.);
#467 = FACE_BOUND('',#468,.T.);
#468 = EDGE_LOOP('',(#469,#477,#484,#485));
#469 = ORIENTED_EDGE('',*,*,#470,.T.);
#470 = EDGE_CURVE('',#445,#471,#473,.T.);
#471 = VERTEX_POINT('',#472);
#472 = CARTESIAN_POINT('',(7.345,-1.783778764156E-016,-2.5));
#473 = LINE('',#474,#475);
#474 = CARTESIAN_POINT('',(7.345,6.106226635438E-016,0.75));
#475 = VECTOR('',#476,1.);
#476 = DIRECTION('',(0.E+000,-2.22044604925E-016,-1.));
#477 = ORIENTED_EDGE('',*,*,#478,.F.);
#478 = EDGE_CURVE('',#471,#471,#479,.T.);
#479 = CIRCLE('',#480,0.275);
#480 = AXIS2_PLACEMENT_3D('',#481,#482,#483);
#481 = CARTESIAN_POINT('',(7.62,-1.110223024625E-016,-2.5));
#482 = DIRECTION('',(-0.E+000,-2.22044604925E-016,-1.));
#483 = DIRECTION('',(-1.,0.E+000,0.E+000));
#484 = ORIENTED_EDGE('',*,*,#470,.F.);
#485 = ORIENTED_EDGE('',*,*,#453,.F.);
#486 = CYLINDRICAL_SURFACE('',#487,0.275);
#487 = AXIS2_PLACEMENT_3D('',#488,#489,#490);
#488 = CARTESIAN_POINT('',(7.62,6.106226635438E-016,0.75));
#489 = DIRECTION('',(0.E+000,-2.22044604925E-016,-1.));
#490 = DIRECTION('',(-1.,0.E+000,0.E+000));
#491 = ADVANCED_FACE('',(#492),#495,.F.);
#492 = FACE_BOUND('',#493,.T.);
#493 = EDGE_LOOP('',(#494));
#494 = ORIENTED_EDGE('',*,*,#478,.T.);
#495 = PLANE('',#496);
#496 = AXIS2_PLACEMENT_3D('',#497,#498,#499);
#497 = CARTESIAN_POINT('',(7.345,-1.110223024625E-016,-2.5));
#498 = DIRECTION('',(0.E+000,0.E+000,1.));
#499 = DIRECTION('',(1.,0.E+000,0.E+000));
#500 = ( GEOMETRIC_REPRESENTATION_CONTEXT(3) 
GLOBAL_UNCERTAINTY_ASSIGNED_CONTEXT((#504)) GLOBAL_UNIT_ASSIGNED_CONTEXT
((#501,#502,#503)) REPRESENTATION_CONTEXT('Context #1',
  '3D Context with UNIT and UNCERTAINTY') );
#501 = ( LENGTH_UNIT() NAMED_UNIT(*) SI_UNIT(.MILLI.,.METRE.) );
#502 = ( NAMED_UNIT(*) PLANE_ANGLE_UNIT() SI_UNIT($,.RADIAN.) );
#503 = ( NAMED_UNIT(*) SI_UNIT($,.STERADIAN.) SOLID_ANGLE_UNIT() );
#504 = UNCERTAINTY_MEASURE_WITH_UNIT(LENGTH_MEASURE(1.E-007),#501,
  'distance_accuracy_value','confusion accuracy');
#505 = PRODUCT_TYPE('part',$,(#7));
#506 = MECHANICAL_DESIGN_GEOMETRIC_PRESENTATION_REPRESENTATION('',(#507,
    #515,#522,#529,#536,#543,#550,#558,#565,#572,#580,#587,#594,#601,
    #608,#615,#622,#629,#636,#643,#650),#500);
#507 = STYLED_ITEM('color',(#508),#17);
#508 = PRESENTATION_STYLE_ASSIGNMENT((#509));
#509 = SURFACE_STYLE_USAGE(.BOTH.,#510);
#510 = SURFACE_SIDE_STYLE('',(#511));
#511 = SURFACE_STYLE_FILL_AREA(#512);
#512 = FILL_AREA_STYLE('',(#513));
#513 = FILL_AREA_STYLE_COLOUR('',#514);
#514 = COLOUR_RGB('',0.824000000954,0.819999992847,0.78100001812);
#515 = STYLED_ITEM('color',(#516),#50);
#516 = PRESENTATION_STYLE_ASSIGNMENT((#517));
#517 = SURFACE_STYLE_USAGE(.BOTH.,#518);
#518 = SURFACE_SIDE_STYLE('',(#519));
#519 = SURFACE_STYLE_FILL_AREA(#520);
#520 = FILL_AREA_STYLE('',(#521));
#521 = FILL_AREA_STYLE_COLOUR('',#514);
#522 = STYLED_ITEM('color',(#523),#59);
#523 = PRESENTATION_STYLE_ASSIGNMENT((#524));
#524 = SURFACE_STYLE_USAGE(.BOTH.,#525);
#525 = SURFACE_SIDE_STYLE('',(#526));
#526 = SURFACE_STYLE_FILL_AREA(#527);
#527 = FILL_AREA_STYLE('',(#528));
#528 = FILL_AREA_STYLE_COLOUR('',#514);
#529 = STYLED_ITEM('color',(#530),#85);
#530 = PRESENTATION_STYLE_ASSIGNMENT((#531));
#531 = SURFACE_STYLE_USAGE(.BOTH.,#532);
#532 = SURFACE_SIDE_STYLE('',(#533));
#533 = SURFACE_STYLE_FILL_AREA(#534);
#534 = FILL_AREA_STYLE('',(#535));
#535 = FILL_AREA_STYLE_COLOUR('',#514);
#536 = STYLED_ITEM('color',(#537),#110);
#537 = PRESENTATION_STYLE_ASSIGNMENT((#538));
#538 = SURFACE_STYLE_USAGE(.BOTH.,#539);
#539 = SURFACE_SIDE_STYLE('',(#540));
#540 = SURFACE_STYLE_FILL_AREA(#541);
#541 = FILL_AREA_STYLE('',(#542));
#542 = FILL_AREA_STYLE_COLOUR('',#514);
#543 = STYLED_ITEM('color',(#544),#130);
#544 = PRESENTATION_STYLE_ASSIGNMENT((#545));
#545 = SURFACE_STYLE_USAGE(.BOTH.,#546);
#546 = SURFACE_SIDE_STYLE('',(#547));
#547 = SURFACE_STYLE_FILL_AREA(#548);
#548 = FILL_AREA_STYLE('',(#549));
#549 = FILL_AREA_STYLE_COLOUR('',#514);
#550 = STYLED_ITEM('color',(#551),#155);
#551 = PRESENTATION_STYLE_ASSIGNMENT((#552));
#552 = SURFACE_STYLE_USAGE(.BOTH.,#553);
#553 = SURFACE_SIDE_STYLE('',(#554));
#554 = SURFACE_STYLE_FILL_AREA(#555);
#555 = FILL_AREA_STYLE('',(#556));
#556 = FILL_AREA_STYLE_COLOUR('',#557);
#557 = COLOUR_RGB('',0.E+000,0.631244003773,0.748015999794);
#558 = STYLED_ITEM('color',(#559),#175);
#559 = PRESENTATION_STYLE_ASSIGNMENT((#560));
#560 = SURFACE_STYLE_USAGE(.BOTH.,#561);
#561 = SURFACE_SIDE_STYLE('',(#562));
#562 = SURFACE_STYLE_FILL_AREA(#563);
#563 = FILL_AREA_STYLE('',(#564));
#564 = FILL_AREA_STYLE_COLOUR('',#557);
#565 = STYLED_ITEM('color',(#566),#205);
#566 = PRESENTATION_STYLE_ASSIGNMENT((#567));
#567 = SURFACE_STYLE_USAGE(.BOTH.,#568);
#568 = SURFACE_SIDE_STYLE('',(#569));
#569 = SURFACE_STYLE_FILL_AREA(#570);
#570 = FILL_AREA_STYLE('',(#571));
#571 = FILL_AREA_STYLE_COLOUR('',#557);
#572 = STYLED_ITEM('color',(#573),#230);
#573 = PRESENTATION_STYLE_ASSIGNMENT((#574));
#574 = SURFACE_STYLE_USAGE(.BOTH.,#575);
#575 = SURFACE_SIDE_STYLE('',(#576));
#576 = SURFACE_STYLE_FILL_AREA(#577);
#577 = FILL_AREA_STYLE('',(#578));
#578 = FILL_AREA_STYLE_COLOUR('',#579);
#579 = COLOUR_RGB('',0.699999988079,0.10000000149,5.000000074506E-002);
#580 = STYLED_ITEM('color',(#581),#250);
#581 = PRESENTATION_STYLE_ASSIGNMENT((#582));
#582 = SURFACE_STYLE_USAGE(.BOTH.,#583);
#583 = SURFACE_SIDE_STYLE('',(#584));
#584 = SURFACE_STYLE_FILL_AREA(#585);
#585 = FILL_AREA_STYLE('',(#586));
#586 = FILL_AREA_STYLE_COLOUR('',#579);
#587 = STYLED_ITEM('color',(#588),#275);
#588 = PRESENTATION_STYLE_ASSIGNMENT((#589));
#589 = SURFACE_STYLE_USAGE(.BOTH.,#590);
#590 = SURFACE_SIDE_STYLE('',(#591));
#591 = SURFACE_STYLE_FILL_AREA(#592);
#592 = FILL_AREA_STYLE('',(#593));
#593 = FILL_AREA_STYLE_COLOUR('',#579);
#594 = STYLED_ITEM('color',(#595),#295);
#595 = PRESENTATION_STYLE_ASSIGNMENT((#596));
#596 = SURFACE_STYLE_USAGE(.BOTH.,#597);
#597 = SURFACE_SIDE_STYLE('',(#598));
#598 = SURFACE_STYLE_FILL_AREA(#599);
#599 = FILL_AREA_STYLE('',(#600));
#600 = FILL_AREA_STYLE_COLOUR('',#557);
#601 = STYLED_ITEM('color',(#602),#320);
#602 = PRESENTATION_STYLE_ASSIGNMENT((#603));
#603 = SURFACE_STYLE_USAGE(.BOTH.,#604);
#604 = SURFACE_SIDE_STYLE('',(#605));
#605 = SURFACE_STYLE_FILL_AREA(#606);
#606 = FILL_AREA_STYLE('',(#607));
#607 = FILL_AREA_STYLE_COLOUR('',#557);
#608 = STYLED_ITEM('color',(#609),#350);
#609 = PRESENTATION_STYLE_ASSIGNMENT((#610));
#610 = SURFACE_STYLE_USAGE(.BOTH.,#611);
#611 = SURFACE_SIDE_STYLE('',(#612));
#612 = SURFACE_STYLE_FILL_AREA(#613);
#613 = FILL_AREA_STYLE('',(#614));
#614 = FILL_AREA_STYLE_COLOUR('',#557);
#615 = STYLED_ITEM('color',(#616),#370);
#616 = PRESENTATION_STYLE_ASSIGNMENT((#617));
#617 = SURFACE_STYLE_USAGE(.BOTH.,#618);
#618 = SURFACE_SIDE_STYLE('',(#619));
#619 = SURFACE_STYLE_FILL_AREA(#620);
#620 = FILL_AREA_STYLE('',(#621));
#621 = FILL_AREA_STYLE_COLOUR('',#514);
#622 = STYLED_ITEM('color',(#623),#395);
#623 = PRESENTATION_STYLE_ASSIGNMENT((#624));
#624 = SURFACE_STYLE_USAGE(.BOTH.,#625);
#625 = SURFACE_SIDE_STYLE('',(#626));
#626 = SURFACE_STYLE_FILL_AREA(#627);
#627 = FILL_AREA_STYLE('',(#628));
#628 = FILL_AREA_STYLE_COLOUR('',#514);
#629 = STYLED_ITEM('color',(#630),#415);
#630 = PRESENTATION_STYLE_ASSIGNMENT((#631));
#631 = SURFACE_STYLE_USAGE(.BOTH.,#632);
#632 = SURFACE_SIDE_STYLE('',(#633));
#633 = SURFACE_STYLE_FILL_AREA(#634);
#634 = FILL_AREA_STYLE('',(#635));
#635 = FILL_AREA_STYLE_COLOUR('',#514);
#636 = STYLED_ITEM('color',(#637),#440);
#637 = PRESENTATION_STYLE_ASSIGNMENT((#638));
#638 = SURFACE_STYLE_USAGE(.BOTH.,#639);
#639 = SURFACE_SIDE_STYLE('',(#640));
#640 = SURFACE_STYLE_FILL_AREA(#641);
#641 = FILL_AREA_STYLE('',(#642));
#642 = FILL_AREA_STYLE_COLOUR('',#514);
#643 = STYLED_ITEM('color',(#644),#466);
#644 = PRESENTATION_STYLE_ASSIGNMENT((#645));
#645 = SURFACE_STYLE_USAGE(.BOTH.,#646);
#646 = SURFACE_SIDE_STYLE('',(#647));
#647 = SURFACE_STYLE_FILL_AREA(#648);
#648 = FILL_AREA_STYLE('',(#649));
#649 = FILL_AREA_STYLE_COLOUR('',#514);
#650 = STYLED_ITEM('color',(#651),#491);
#651 = PRESENTATION_STYLE_ASSIGNMENT((#652));
#652 = SURFACE_STYLE_USAGE(.BOTH.,#653);
#653 = SURFACE_SIDE_STYLE('',(#654));
#654 = SURFACE_STYLE_FILL_AREA(#655);
#655 = FILL_AREA_STYLE('',(#656));
#656 = FILL_AREA_STYLE_COLOUR('',#514);
ENDSEC;
END-ISO-10303-21;
