ISO-10303-21;
HEADER;
/* RV_Disc_D15.5mm_W7.2mm_P7.5mm.step 3D STEP model for use in ECAD systems
 * Copyright (C) 2018, kicad StepUp
 * 
 * This work is licensed under the [Creative Commons CC-BY-SA 4.0 License](https://creativecommons.org/licenses/by-sa/4.0/legalcode), 
 * with the following exception:
 * To the extent that the creation of electronic designs that use 'Licensed Material' can be considered to be 'Adapted Material', 
 * then the copyright holder waives article 3 of the license with respect to these designs and any generated files which use data provided 
 * as part of the 'Licensed Material'.
 * You are free to use the library data in your own projects without the obligation to share your project files under this or any other license agreement.
 * However, if you wish to redistribute these libraries, or parts thereof (including in modified form) as a collection then the exception above does not apply. 
 * Please refer to https://github.com/KiCad/kicad-packages3D/blob/master/LICENSE.md for further clarification of the exception.
 * Disclaimer of Warranties and Limitation of Liability.
 * These libraries are provided in the hope that they will be useful, but are provided without warranty of any kind, express or implied.
 * *USE 3D CAD DATA AT YOUR OWN RISK*
 * *DO NOT RELY UPON ANY INFORMATION FOUND HERE WITHOUT INDEPENDENT VERIFICATION.*
 * 
 */

FILE_DESCRIPTION(
/* description */ ('model of RV_Disc_D15.5mm_W7.2mm_P7.5mm'),
/* implementation_level */ '2;1');

FILE_NAME(
/* name */ 'RV_Disc_D15.5mm_W7.2mm_P7.5mm.step',
/* time_stamp */ '2018-11-11T21:01:32',
/* author */ ('kicad StepUp','ksu'),
/* organization */ ('FreeCAD'),
/* preprocessor_version */ 'OCC',
/* originating_system */ 'kicad StepUp',
/* authorisation */ '');

FILE_SCHEMA(('AUTOMOTIVE_DESIGN { 1 0 10303 214 1 1 1 1 }'));
ENDSEC;

DATA;
#1 = APPLICATION_PROTOCOL_DEFINITION('international standard',
'automotive_design',2000,#2);
#2 = APPLICATION_CONTEXT(
'core data for automotive mechanical design processes');
#3 = SHAPE_DEFINITION_REPRESENTATION(#4,#10);
#4 = PRODUCT_DEFINITION_SHAPE('','',#5);
#5 = PRODUCT_DEFINITION('design','',#6,#9);
#6 = PRODUCT_DEFINITION_FORMATION('','',#7);
#7 = PRODUCT('RV_Disc_D155mm_W72mm_P75mm','RV_Disc_D155mm_W72mm_P75mm',
'',(#8));
#8 = PRODUCT_CONTEXT('',#2,'mechanical');
#9 = PRODUCT_DEFINITION_CONTEXT('part definition',#2,'design');
#10 = ADVANCED_BREP_SHAPE_REPRESENTATION('',(#11,#15),#383);
#11 = AXIS2_PLACEMENT_3D('',#12,#13,#14);
#12 = CARTESIAN_POINT('',(0.E+000,0.E+000,0.E+000));
#13 = DIRECTION('',(0.E+000,0.E+000,1.));
#14 = DIRECTION('',(1.,0.E+000,-0.E+000));
#15 = MANIFOLD_SOLID_BREP('',#16);
#16 = CLOSED_SHELL('',(#17,#50,#149,#243,#252,#278,#287,#313,#339,#365,
#374));
#17 = ADVANCED_FACE('',(#18),#45,.T.);
#18 = FACE_BOUND('',#19,.F.);
#19 = EDGE_LOOP('',(#20,#30,#37,#38));
#20 = ORIENTED_EDGE('',*,*,#21,.T.);
#21 = EDGE_CURVE('',#22,#24,#26,.T.);
#22 = VERTEX_POINT('',#23);
#23 = CARTESIAN_POINT('',(11.5,-1.762195121951,7.78));
#24 = VERTEX_POINT('',#25);
#25 = CARTESIAN_POINT('',(11.5,-1.937804878049,7.78));
#26 = LINE('',#27,#28);
#27 = CARTESIAN_POINT('',(11.5,1.75,7.78));
#28 = VECTOR('',#29,1.);
#29 = DIRECTION('',(0.E+000,-1.,0.E+000));
#30 = ORIENTED_EDGE('',*,*,#31,.T.);
#31 = EDGE_CURVE('',#24,#24,#32,.T.);
#32 = CIRCLE('',#33,7.75);
#33 = AXIS2_PLACEMENT_3D('',#34,#35,#36);
#34 = CARTESIAN_POINT('',(3.75,-1.937804878049,7.78));
#35 = DIRECTION('',(1.09450004193E-033,-1.,7.66150029351E-033));
#36 = DIRECTION('',(1.,1.09450004193E-033,-3.472088252605E-033));
#37 = ORIENTED_EDGE('',*,*,#21,.F.);
#38 = ORIENTED_EDGE('',*,*,#39,.F.);
#39 = EDGE_CURVE('',#22,#22,#40,.T.);
#40 = CIRCLE('',#41,7.75);
#41 = AXIS2_PLACEMENT_3D('',#42,#43,#44);
#42 = CARTESIAN_POINT('',(3.75,-1.762195121951,7.78));
#43 = DIRECTION('',(1.09450004193E-033,-1.,7.66150029351E-033));
#44 = DIRECTION('',(1.,1.09450004193E-033,3.472088252605E-033));
#45 = CYLINDRICAL_SURFACE('',#46,7.75);
#46 = AXIS2_PLACEMENT_3D('',#47,#48,#49);
#47 = CARTESIAN_POINT('',(3.75,1.75,7.78));
#48 = DIRECTION('',(0.E+000,1.,0.E+000));
#49 = DIRECTION('',(1.,0.E+000,0.E+000));
#50 = ADVANCED_FACE('',(#51,#71),#144,.T.);
#51 = FACE_BOUND('',#52,.F.);
#52 = EDGE_LOOP('',(#53,#54,#63,#70));
#53 = ORIENTED_EDGE('',*,*,#39,.T.);
#54 = ORIENTED_EDGE('',*,*,#55,.T.);
#55 = EDGE_CURVE('',#22,#56,#58,.T.);
#56 = VERTEX_POINT('',#57);
#57 = CARTESIAN_POINT('',(7.987804878049,1.75,7.78));
#58 = CIRCLE('',#59,3.512195121951);
#59 = AXIS2_PLACEMENT_3D('',#60,#61,#62);
#60 = CARTESIAN_POINT('',(7.987804878049,-1.762195121951,7.78));
#61 = DIRECTION('',(-3.472088252605E-033,7.66150029351E-033,1.));
#62 = DIRECTION('',(1.,1.09450004193E-033,3.472088252605E-033));
#63 = ORIENTED_EDGE('',*,*,#64,.F.);
#64 = EDGE_CURVE('',#56,#56,#65,.T.);
#65 = CIRCLE('',#66,4.237804878049);
#66 = AXIS2_PLACEMENT_3D('',#67,#68,#69);
#67 = CARTESIAN_POINT('',(3.75,1.75,7.78));
#68 = DIRECTION('',(1.09450004193E-033,-1.,7.66150029351E-033));
#69 = DIRECTION('',(1.,1.09450004193E-033,3.472088252605E-033));
#70 = ORIENTED_EDGE('',*,*,#55,.F.);
#71 = FACE_BOUND('',#72,.F.);
#72 = EDGE_LOOP('',(#73,#97));
#73 = ORIENTED_EDGE('',*,*,#74,.T.);
#74 = EDGE_CURVE('',#75,#77,#79,.T.);
#75 = VERTEX_POINT('',#76);
#76 = CARTESIAN_POINT('',(0.36,0.E+000,1.342065060699));
#77 = VERTEX_POINT('',#78);
#78 = CARTESIAN_POINT('',(5.374992945115E-002,-0.355964808772,
1.30446374388));
#79 = B_SPLINE_CURVE_WITH_KNOTS('',6,(#80,#81,#82,#83,#84,#85,#86,#87,
#88,#89,#90,#91,#92,#93,#94,#95,#96),.UNSPECIFIED.,.F.,.F.,(7,5,5,7)
,(0.E+000,0.176381986404,0.516949458994,1.),.UNSPECIFIED.);
#80 = CARTESIAN_POINT('',(0.36,5.551115123126E-017,1.342065060699));
#81 = CARTESIAN_POINT('',(0.36,-1.408414699982E-002,1.332832522587));
#82 = CARTESIAN_POINT('',(0.359338784963,-2.82583102003E-002,
1.32401093485));
#83 = CARTESIAN_POINT('',(0.358000526774,-4.248784316558E-002,
1.315630408711));
#84 = CARTESIAN_POINT('',(0.355970915524,-5.673397830497E-002,
1.307721552451));
#85 = CARTESIAN_POINT('',(0.35323862425,-7.09539665303E-002,
1.300314478685));
#86 = CARTESIAN_POINT('',(0.343151070388,-0.112417460512,1.280159986847)
);
#87 = CARTESIAN_POINT('',(0.333859011619,-0.139466499116,1.268857703028)
);
#88 = CARTESIAN_POINT('',(0.321872037151,-0.165905162926,1.259741609144)
);
#89 = CARTESIAN_POINT('',(0.307207001361,-0.191343201941,1.252995558196)
);
#90 = CARTESIAN_POINT('',(0.289989274677,-0.21536219708,1.248742006666)
);
#91 = CARTESIAN_POINT('',(0.242788194511,-0.269097565919,1.244545314691)
);
#92 = CARTESIAN_POINT('',(0.210458540331,-0.297015441634,1.24714819087)
);
#93 = CARTESIAN_POINT('',(0.17421127574,-0.320215504663,1.2549055559));
#94 = CARTESIAN_POINT('',(0.135173309057,-0.337910891036,1.267473588367)
);
#95 = CARTESIAN_POINT('',(9.461872074336E-002,-0.349793708161,
1.284240466201));
#96 = CARTESIAN_POINT('',(5.374992945115E-002,-0.355964808772,
1.30446374388));
#97 = ORIENTED_EDGE('',*,*,#98,.T.);
#98 = EDGE_CURVE('',#77,#75,#99,.T.);
#99 = B_SPLINE_CURVE_WITH_KNOTS('',7,(#100,#101,#102,#103,#104,#105,#106
,#107,#108,#109,#110,#111,#112,#113,#114,#115,#116,#117,#118,#119,
#120,#121,#122,#123,#124,#125,#126,#127,#128,#129,#130,#131,#132,
#133,#134,#135,#136,#137,#138,#139,#140,#141,#142,#143),
.UNSPECIFIED.,.F.,.F.,(8,6,6,6,6,6,6,8),(0.E+000,0.226440225174,
0.421385337857,0.472068786132,0.55800960637,0.684975637146,
0.832195402819,1.),.UNSPECIFIED.);
#100 = CARTESIAN_POINT('',(5.374992945115E-002,-0.355964808772,
1.30446374388));
#101 = CARTESIAN_POINT('',(-5.835634792406E-003,-0.364962102312,
1.333948721861));
#102 = CARTESIAN_POINT('',(-6.592515179897E-002,-0.362133491353,
1.370505193802));
#103 = CARTESIAN_POINT('',(-0.123550187418,-0.347933637921,
1.412184380569));
#104 = CARTESIAN_POINT('',(-0.176383683565,-0.323821474583,
1.457070473114));
#105 = CARTESIAN_POINT('',(-0.222968852235,-0.291479179951,
1.503691926642));
#106 = CARTESIAN_POINT('',(-0.262388646498,-0.252430873928,
1.550903402482));
#107 = CARTESIAN_POINT('',(-0.320962118709,-0.169658363415,
1.638025073828));
#108 = CARTESIAN_POINT('',(-0.342117330602,-0.127417333694,
1.677956261339));
#109 = CARTESIAN_POINT('',(-0.356848009751,-8.21056335815E-002,
1.716845789238));
#110 = CARTESIAN_POINT('',(-0.36468548604,-3.461905517817E-002,
1.753972676903));
#111 = CARTESIAN_POINT('',(-0.365178765799,1.403790664904E-002,
1.788460374328));
#112 = CARTESIAN_POINT('',(-0.357952000187,6.26816992068E-002,
1.819215951803));
#113 = CARTESIAN_POINT('',(-0.33887959268,0.122175325185,1.851591281054)
);
#114 = CARTESIAN_POINT('',(-0.334410730987,0.13435106243,1.857927518388)
);
#115 = CARTESIAN_POINT('',(-0.32940625918,0.146400194314,1.863895881685)
);
#116 = CARTESIAN_POINT('',(-0.323865615136,0.158294405151,1.869471300441
));
#117 = CARTESIAN_POINT('',(-0.317790442363,0.170003680907,1.874627963964
));
#118 = CARTESIAN_POINT('',(-0.311185173755,0.181496607945,1.879339925192
));
#119 = CARTESIAN_POINT('',(-0.291971850901,0.211806542407,1.890774230037
));
#120 = CARTESIAN_POINT('',(-0.27838271021,0.230159548095,1.896615899704)
);
#121 = CARTESIAN_POINT('',(-0.26333058918,0.24763646249,1.900980593338)
);
#122 = CARTESIAN_POINT('',(-0.246885624539,0.264066540149,1.903748447264
));
#123 = CARTESIAN_POINT('',(-0.229156072302,0.279280859357,1.904820477032
));
#124 = CARTESIAN_POINT('',(-0.210291491403,0.293125486456,1.904135021803
));
#125 = CARTESIAN_POINT('',(-0.161212994282,0.323728325127,1.89806792462)
);
#126 = CARTESIAN_POINT('',(-0.129847901777,0.338742855161,1.890597097665
));
#127 = CARTESIAN_POINT('',(-9.702926812975E-002,0.350086470395,
1.879240321876));
#128 = CARTESIAN_POINT('',(-6.347496182501E-002,0.357591354248,
1.864251818327));
#129 = CARTESIAN_POINT('',(-2.985514253889E-002,0.361306535133,
1.846086797549));
#130 = CARTESIAN_POINT('',(3.268154560404E-003,0.36143392395,
1.825306776493));
#131 = CARTESIAN_POINT('',(7.27441129038E-002,0.354561000159,
1.776004645064));
#132 = CARTESIAN_POINT('',(0.108794445708,0.346418287577,1.746758996441)
);
#133 = CARTESIAN_POINT('',(0.143066297003,0.334232286256,1.715488605466)
);
#134 = CARTESIAN_POINT('',(0.175191587307,0.318427053693,1.682885833401)
);
#135 = CARTESIAN_POINT('',(0.204908533209,0.299386548367,1.649536433517)
);
#136 = CARTESIAN_POINT('',(0.232010479477,0.277429043106,1.615915779208)
);
#137 = CARTESIAN_POINT('',(0.283972882294,0.224750753248,1.544265084985)
);
#138 = CARTESIAN_POINT('',(0.307956304801,0.193268042802,1.506322247609)
);
#139 = CARTESIAN_POINT('',(0.327937468751,0.158776732557,1.469231683027)
);
#140 = CARTESIAN_POINT('',(0.343555673184,0.121673048333,1.433603741855)
);
#141 = CARTESIAN_POINT('',(0.354390635957,8.24180500479E-002,
1.400079056933));
#142 = CARTESIAN_POINT('',(0.36,4.160333993807E-002,1.369337171787));
#143 = CARTESIAN_POINT('',(0.36,5.551115123126E-017,1.342065060699));
#144 = TOROIDAL_SURFACE('',#145,4.237804878049,3.512195121951);
#145 = AXIS2_PLACEMENT_3D('',#146,#147,#148);
#146 = CARTESIAN_POINT('',(3.75,-1.762195121951,7.78));
#147 = DIRECTION('',(-1.09450004193E-033,1.,-7.66150029351E-033));
#148 = DIRECTION('',(1.,1.09450004193E-033,3.472088252605E-033));
#149 = ADVANCED_FACE('',(#150,#170),#238,.T.);
#150 = FACE_BOUND('',#151,.T.);
#151 = EDGE_LOOP('',(#152,#153,#162,#169));
#152 = ORIENTED_EDGE('',*,*,#31,.T.);
#153 = ORIENTED_EDGE('',*,*,#154,.T.);
#154 = EDGE_CURVE('',#24,#155,#157,.T.);
#155 = VERTEX_POINT('',#156);
#156 = CARTESIAN_POINT('',(7.987804878049,-5.45,7.78));
#157 = CIRCLE('',#158,3.512195121951);
#158 = AXIS2_PLACEMENT_3D('',#159,#160,#161);
#159 = CARTESIAN_POINT('',(7.987804878049,-1.937804878049,7.78));
#160 = DIRECTION('',(-3.472088252605E-033,-7.66150029351E-033,-1.));
#161 = DIRECTION('',(1.,1.09450004193E-033,-3.472088252605E-033));
#162 = ORIENTED_EDGE('',*,*,#163,.F.);
#163 = EDGE_CURVE('',#155,#155,#164,.T.);
#164 = CIRCLE('',#165,4.237804878049);
#165 = AXIS2_PLACEMENT_3D('',#166,#167,#168);
#166 = CARTESIAN_POINT('',(3.75,-5.45,7.78));
#167 = DIRECTION('',(1.09450004193E-033,-1.,7.66150029351E-033));
#168 = DIRECTION('',(1.,1.09450004193E-033,-3.472088252605E-033));
#169 = ORIENTED_EDGE('',*,*,#154,.F.);
#170 = FACE_BOUND('',#171,.T.);
#171 = EDGE_LOOP('',(#172,#185));
#172 = ORIENTED_EDGE('',*,*,#173,.T.);
#173 = EDGE_CURVE('',#174,#176,#178,.T.);
#174 = VERTEX_POINT('',#175);
#175 = CARTESIAN_POINT('',(7.86,-3.7,1.776084087641));
#176 = VERTEX_POINT('',#177);
#177 = CARTESIAN_POINT('',(7.790562431004,-3.487459477537,1.592861503327
));
#178 = B_SPLINE_CURVE_WITH_KNOTS('',5,(#179,#180,#181,#182,#183,#184),
.UNSPECIFIED.,.F.,.F.,(6,6),(0.E+000,1.),.PIECEWISE_BEZIER_KNOTS.);
#179 = CARTESIAN_POINT('',(7.86,-3.7,1.776084087641));
#180 = CARTESIAN_POINT('',(7.86,-3.653764365908,1.743584387031));
#181 = CARTESIAN_POINT('',(7.852576794494,-3.608208529369,1.707975827806
));
#182 = CARTESIAN_POINT('',(7.838170156212,-3.564607274535,1.670426708837
));
#183 = CARTESIAN_POINT('',(7.817300458579,-3.524012819,1.631788034702));
#184 = CARTESIAN_POINT('',(7.790562431004,-3.487459477537,1.592861503327
));
#185 = ORIENTED_EDGE('',*,*,#186,.T.);
#186 = EDGE_CURVE('',#176,#174,#187,.T.);
#187 = B_SPLINE_CURVE_WITH_KNOTS('',7,(#188,#189,#190,#191,#192,#193,
#194,#195,#196,#197,#198,#199,#200,#201,#202,#203,#204,#205,#206,
#207,#208,#209,#210,#211,#212,#213,#214,#215,#216,#217,#218,#219,
#220,#221,#222,#223,#224,#225,#226,#227,#228,#229,#230,#231,#232,
#233,#234,#235,#236,#237),.UNSPECIFIED.,.F.,.F.,(8,6,6,6,6,6,6,6,8),
(0.E+000,0.175820722809,0.312452215748,0.402375239564,0.448136115339,
0.584290411377,0.750949011283,0.923314921567,1.),.UNSPECIFIED.);
#188 = CARTESIAN_POINT('',(7.790562431004,-3.487459477537,1.592861503327
));
#189 = CARTESIAN_POINT('',(7.762081359488,-3.448523234785,1.551397363128
));
#190 = CARTESIAN_POINT('',(7.727417469554,-3.41390878549,1.509673706436)
);
#191 = CARTESIAN_POINT('',(7.687126180367,-3.384530702812,1.46839955061)
);
#192 = CARTESIAN_POINT('',(7.641861803765,-3.361427362869,1.428367853338
));
#193 = CARTESIAN_POINT('',(7.592575321032,-3.345719072977,1.390552460105
));
#194 = CARTESIAN_POINT('',(7.540673109457,-3.338442184113,1.356165068071
));
#195 = CARTESIAN_POINT('',(7.447053725104,-3.341566564639,1.303511107181
));
#196 = CARTESIAN_POINT('',(7.405673863831,-3.348388354301,1.283375996834
));
#197 = CARTESIAN_POINT('',(7.36488513982,-3.360927467107,1.26684177636)
);
#198 = CARTESIAN_POINT('',(7.325833959506,-3.379155461428,1.254557943522
));
#199 = CARTESIAN_POINT('',(7.289661538961,-3.402681110645,1.247034534243
));
#200 = CARTESIAN_POINT('',(7.257359129189,-3.430753298342,1.244543668494
));
#201 = CARTESIAN_POINT('',(7.211326658984,-3.483127506057,1.248617492052
));
#202 = CARTESIAN_POINT('',(7.195012980335,-3.505448739885,1.252378514033
));
#203 = CARTESIAN_POINT('',(7.180845572564,-3.529019697875,1.258264736283
));
#204 = CARTESIAN_POINT('',(7.168934613382,-3.553534083271,1.266197851485
));
#205 = CARTESIAN_POINT('',(7.159321044303,-3.578692364648,1.276056626185
));
#206 = CARTESIAN_POINT('',(7.151991199626,-3.604219680332,1.287692664432
));
#207 = CARTESIAN_POINT('',(7.144303913587,-3.642926125296,1.30768959424)
);
#208 = CARTESIAN_POINT('',(7.142289931769,-3.65601363875,1.314852955168)
);
#209 = CARTESIAN_POINT('',(7.140848126008,-3.669103112338,1.322414820315
));
#210 = CARTESIAN_POINT('',(7.139969864662,-3.682165395044,1.330353906768
));
#211 = CARTESIAN_POINT('',(7.139644894702,-3.695173560536,1.338648669518
));
#212 = CARTESIAN_POINT('',(7.139861888717,-3.708102900493,1.347277648361
));
#213 = CARTESIAN_POINT('',(7.142831880197,-3.759098668336,1.382825826079
));
#214 = CARTESIAN_POINT('',(7.149746736816,-3.79635301927,1.412192924572)
);
#215 = CARTESIAN_POINT('',(7.161034437876,-3.832125888869,1.443779072944
));
#216 = CARTESIAN_POINT('',(7.176349222091,-3.865971511861,1.477053553633
));
#217 = CARTESIAN_POINT('',(7.195365523957,-3.897530435603,1.511511713985
));
#218 = CARTESIAN_POINT('',(7.21779922973,-3.926484640797,1.546666073288)
);
#219 = CARTESIAN_POINT('',(7.274743886765,-3.984352318962,1.62528088969)
);
#220 = CARTESIAN_POINT('',(7.310766204872,-4.011733764178,1.668743357782
));
#221 = CARTESIAN_POINT('',(7.351061298993,-4.034157198019,1.711585419406
));
#222 = CARTESIAN_POINT('',(7.39521457128,-4.050876956258,1.752749789738)
);
#223 = CARTESIAN_POINT('',(7.442573728238,-4.060963650589,1.790805859788
));
#224 = CARTESIAN_POINT('',(7.492012907022,-4.063391699094,1.823952437886
));
#225 = CARTESIAN_POINT('',(7.593385065591,-4.051527973649,1.878120098939
));
#226 = CARTESIAN_POINT('',(7.645448822567,-4.036649523986,1.898742627927
));
#227 = CARTESIAN_POINT('',(7.69517417331,-4.012311287769,1.910078399165)
);
#228 = CARTESIAN_POINT('',(7.739725868546,-3.979348867487,1.911165305565
));
#229 = CARTESIAN_POINT('',(7.77711621099,-3.939718330197,1.902935650594)
);
#230 = CARTESIAN_POINT('',(7.806403452296,-3.895699865612,1.886970760444
));
#231 = CARTESIAN_POINT('',(7.836885860483,-3.828914252593,1.855353404136
));
#232 = CARTESIAN_POINT('',(7.844676161466,-3.807857686048,1.844419894939
));
#233 = CARTESIAN_POINT('',(7.850865244428,-3.786458277377,1.832418815755
));
#234 = CARTESIAN_POINT('',(7.855464936881,-3.764853672851,1.819474646603
));
#235 = CARTESIAN_POINT('',(7.858499411967,-3.743169223152,1.805703228115
));
#236 = CARTESIAN_POINT('',(7.86,-3.721517864535,1.791209308024));
#237 = CARTESIAN_POINT('',(7.86,-3.7,1.776084087641));
#238 = TOROIDAL_SURFACE('',#239,4.237804878049,3.512195121951);
#239 = AXIS2_PLACEMENT_3D('',#240,#241,#242);
#240 = CARTESIAN_POINT('',(3.75,-1.937804878049,7.78));
#241 = DIRECTION('',(1.09450004193E-033,-1.,7.66150029351E-033));
#242 = DIRECTION('',(1.,1.09450004193E-033,-3.472088252605E-033));
#243 = ADVANCED_FACE('',(#244),#247,.F.);
#244 = FACE_BOUND('',#245,.F.);
#245 = EDGE_LOOP('',(#246));
#246 = ORIENTED_EDGE('',*,*,#64,.T.);
#247 = PLANE('',#248);
#248 = AXIS2_PLACEMENT_3D('',#249,#250,#251);
#249 = CARTESIAN_POINT('',(3.75,1.75,7.78));
#250 = DIRECTION('',(1.09450004193E-033,-1.,7.66150029351E-033));
#251 = DIRECTION('',(0.E+000,-7.66150029351E-033,-1.));
#252 = ADVANCED_FACE('',(#253),#273,.T.);
#253 = FACE_BOUND('',#254,.T.);
#254 = EDGE_LOOP('',(#255,#256,#264,#271,#272));
#255 = ORIENTED_EDGE('',*,*,#98,.T.);
#256 = ORIENTED_EDGE('',*,*,#257,.T.);
#257 = EDGE_CURVE('',#75,#258,#260,.T.);
#258 = VERTEX_POINT('',#259);
#259 = CARTESIAN_POINT('',(0.36,0.E+000,-2.856));
#260 = LINE('',#261,#262);
#261 = CARTESIAN_POINT('',(0.36,0.E+000,7.78));
#262 = VECTOR('',#263,1.);
#263 = DIRECTION('',(-0.E+000,-0.E+000,-1.));
#264 = ORIENTED_EDGE('',*,*,#265,.T.);
#265 = EDGE_CURVE('',#258,#258,#266,.T.);
#266 = CIRCLE('',#267,0.36);
#267 = AXIS2_PLACEMENT_3D('',#268,#269,#270);
#268 = CARTESIAN_POINT('',(0.E+000,0.E+000,-2.856));
#269 = DIRECTION('',(0.E+000,0.E+000,1.));
#270 = DIRECTION('',(1.,0.E+000,0.E+000));
#271 = ORIENTED_EDGE('',*,*,#257,.F.);
#272 = ORIENTED_EDGE('',*,*,#74,.T.);
#273 = CYLINDRICAL_SURFACE('',#274,0.36);
#274 = AXIS2_PLACEMENT_3D('',#275,#276,#277);
#275 = CARTESIAN_POINT('',(0.E+000,0.E+000,7.78));
#276 = DIRECTION('',(0.E+000,0.E+000,1.));
#277 = DIRECTION('',(1.,0.E+000,0.E+000));
#278 = ADVANCED_FACE('',(#279),#282,.T.);
#279 = FACE_BOUND('',#280,.T.);
#280 = EDGE_LOOP('',(#281));
#281 = ORIENTED_EDGE('',*,*,#163,.T.);
#282 = PLANE('',#283);
#283 = AXIS2_PLACEMENT_3D('',#284,#285,#286);
#284 = CARTESIAN_POINT('',(3.75,-5.45,7.78));
#285 = DIRECTION('',(1.09450004193E-033,-1.,7.66150029351E-033));
#286 = DIRECTION('',(0.E+000,-7.66150029351E-033,-1.));
#287 = ADVANCED_FACE('',(#288),#308,.T.);
#288 = FACE_BOUND('',#289,.T.);
#289 = EDGE_LOOP('',(#290,#291,#299,#306,#307));
#290 = ORIENTED_EDGE('',*,*,#173,.F.);
#291 = ORIENTED_EDGE('',*,*,#292,.T.);
#292 = EDGE_CURVE('',#174,#293,#295,.T.);
#293 = VERTEX_POINT('',#294);
#294 = CARTESIAN_POINT('',(7.86,-3.7,-2.856));
#295 = LINE('',#296,#297);
#296 = CARTESIAN_POINT('',(7.86,-3.7,7.78));
#297 = VECTOR('',#298,1.);
#298 = DIRECTION('',(-0.E+000,-0.E+000,-1.));
#299 = ORIENTED_EDGE('',*,*,#300,.T.);
#300 = EDGE_CURVE('',#293,#293,#301,.T.);
#301 = CIRCLE('',#302,0.36);
#302 = AXIS2_PLACEMENT_3D('',#303,#304,#305);
#303 = CARTESIAN_POINT('',(7.5,-3.7,-2.856));
#304 = DIRECTION('',(0.E+000,0.E+000,1.));
#305 = DIRECTION('',(1.,0.E+000,0.E+000));
#306 = ORIENTED_EDGE('',*,*,#292,.F.);
#307 = ORIENTED_EDGE('',*,*,#186,.F.);
#308 = CYLINDRICAL_SURFACE('',#309,0.36);
#309 = AXIS2_PLACEMENT_3D('',#310,#311,#312);
#310 = CARTESIAN_POINT('',(7.5,-3.7,7.78));
#311 = DIRECTION('',(0.E+000,0.E+000,1.));
#312 = DIRECTION('',(1.,0.E+000,0.E+000));
#313 = ADVANCED_FACE('',(#314),#334,.T.);
#314 = FACE_BOUND('',#315,.F.);
#315 = EDGE_LOOP('',(#316,#325,#326,#327));
#316 = ORIENTED_EDGE('',*,*,#317,.F.);
#317 = EDGE_CURVE('',#258,#318,#320,.T.);
#318 = VERTEX_POINT('',#319);
#319 = CARTESIAN_POINT('',(0.216,0.E+000,-3.));
#320 = CIRCLE('',#321,0.144);
#321 = AXIS2_PLACEMENT_3D('',#322,#323,#324);
#322 = CARTESIAN_POINT('',(0.216,0.E+000,-2.856));
#323 = DIRECTION('',(-0.E+000,1.,0.E+000));
#324 = DIRECTION('',(1.,0.E+000,0.E+000));
#325 = ORIENTED_EDGE('',*,*,#265,.T.);
#326 = ORIENTED_EDGE('',*,*,#317,.T.);
#327 = ORIENTED_EDGE('',*,*,#328,.F.);
#328 = EDGE_CURVE('',#318,#318,#329,.T.);
#329 = CIRCLE('',#330,0.216);
#330 = AXIS2_PLACEMENT_3D('',#331,#332,#333);
#331 = CARTESIAN_POINT('',(0.E+000,0.E+000,-3.));
#332 = DIRECTION('',(0.E+000,0.E+000,1.));
#333 = DIRECTION('',(1.,0.E+000,0.E+000));
#334 = TOROIDAL_SURFACE('',#335,0.216,0.144);
#335 = AXIS2_PLACEMENT_3D('',#336,#337,#338);
#336 = CARTESIAN_POINT('',(0.E+000,0.E+000,-2.856));
#337 = DIRECTION('',(-0.E+000,-0.E+000,-1.));
#338 = DIRECTION('',(1.,0.E+000,0.E+000));
#339 = ADVANCED_FACE('',(#340),#360,.T.);
#340 = FACE_BOUND('',#341,.F.);
#341 = EDGE_LOOP('',(#342,#351,#352,#353));
#342 = ORIENTED_EDGE('',*,*,#343,.F.);
#343 = EDGE_CURVE('',#293,#344,#346,.T.);
#344 = VERTEX_POINT('',#345);
#345 = CARTESIAN_POINT('',(7.716,-3.7,-3.));
#346 = CIRCLE('',#347,0.144);
#347 = AXIS2_PLACEMENT_3D('',#348,#349,#350);
#348 = CARTESIAN_POINT('',(7.716,-3.7,-2.856));
#349 = DIRECTION('',(-0.E+000,1.,0.E+000));
#350 = DIRECTION('',(1.,0.E+000,0.E+000));
#351 = ORIENTED_EDGE('',*,*,#300,.T.);
#352 = ORIENTED_EDGE('',*,*,#343,.T.);
#353 = ORIENTED_EDGE('',*,*,#354,.F.);
#354 = EDGE_CURVE('',#344,#344,#355,.T.);
#355 = CIRCLE('',#356,0.216);
#356 = AXIS2_PLACEMENT_3D('',#357,#358,#359);
#357 = CARTESIAN_POINT('',(7.5,-3.7,-3.));
#358 = DIRECTION('',(0.E+000,0.E+000,1.));
#359 = DIRECTION('',(1.,0.E+000,0.E+000));
#360 = TOROIDAL_SURFACE('',#361,0.216,0.144);
#361 = AXIS2_PLACEMENT_3D('',#362,#363,#364);
#362 = CARTESIAN_POINT('',(7.5,-3.7,-2.856));
#363 = DIRECTION('',(-0.E+000,-0.E+000,-1.));
#364 = DIRECTION('',(1.,0.E+000,0.E+000));
#365 = ADVANCED_FACE('',(#366),#369,.F.);
#366 = FACE_BOUND('',#367,.F.);
#367 = EDGE_LOOP('',(#368));
#368 = ORIENTED_EDGE('',*,*,#328,.T.);
#369 = PLANE('',#370);
#370 = AXIS2_PLACEMENT_3D('',#371,#372,#373);
#371 = CARTESIAN_POINT('',(-1.483767504926E-017,1.497958850874E-017,-3.)
);
#372 = DIRECTION('',(0.E+000,0.E+000,1.));
#373 = DIRECTION('',(1.,0.E+000,0.E+000));
#374 = ADVANCED_FACE('',(#375),#378,.F.);
#375 = FACE_BOUND('',#376,.F.);
#376 = EDGE_LOOP('',(#377));
#377 = ORIENTED_EDGE('',*,*,#354,.T.);
#378 = PLANE('',#379);
#379 = AXIS2_PLACEMENT_3D('',#380,#381,#382);
#380 = CARTESIAN_POINT('',(7.5,-3.7,-3.));
#381 = DIRECTION('',(0.E+000,0.E+000,1.));
#382 = DIRECTION('',(1.,0.E+000,0.E+000));
#383 = ( GEOMETRIC_REPRESENTATION_CONTEXT(3)
GLOBAL_UNCERTAINTY_ASSIGNED_CONTEXT((#387)) GLOBAL_UNIT_ASSIGNED_CONTEXT
((#384,#385,#386)) REPRESENTATION_CONTEXT('Context #1',
'3D Context with UNIT and UNCERTAINTY') );
#384 = ( LENGTH_UNIT() NAMED_UNIT(*) SI_UNIT(.MILLI.,.METRE.) );
#385 = ( NAMED_UNIT(*) PLANE_ANGLE_UNIT() SI_UNIT($,.RADIAN.) );
#386 = ( NAMED_UNIT(*) SI_UNIT($,.STERADIAN.) SOLID_ANGLE_UNIT() );
#387 = UNCERTAINTY_MEASURE_WITH_UNIT(LENGTH_MEASURE(1.E-007),#384,
'distance_accuracy_value','confusion accuracy');
#388 = PRODUCT_RELATED_PRODUCT_CATEGORY('part',$,(#7));
#389 = MECHANICAL_DESIGN_GEOMETRIC_PRESENTATION_REPRESENTATION('',(#390,
#398,#405,#412,#419,#427,#434,#441,#448,#455,#462),#383);
#390 = STYLED_ITEM('color',(#391),#17);
#391 = PRESENTATION_STYLE_ASSIGNMENT((#392));
#392 = SURFACE_STYLE_USAGE(.BOTH.,#393);
#393 = SURFACE_SIDE_STYLE('',(#394));
#394 = SURFACE_STYLE_FILL_AREA(#395);
#395 = FILL_AREA_STYLE('',(#396));
#396 = FILL_AREA_STYLE_COLOUR('',#397);
#397 = COLOUR_RGB('',0.136999994516,0.402000010014,0.726999998093);
#398 = STYLED_ITEM('color',(#399),#50);
#399 = PRESENTATION_STYLE_ASSIGNMENT((#400));
#400 = SURFACE_STYLE_USAGE(.BOTH.,#401);
#401 = SURFACE_SIDE_STYLE('',(#402));
#402 = SURFACE_STYLE_FILL_AREA(#403);
#403 = FILL_AREA_STYLE('',(#404));
#404 = FILL_AREA_STYLE_COLOUR('',#397);
#405 = STYLED_ITEM('color',(#406),#149);
#406 = PRESENTATION_STYLE_ASSIGNMENT((#407));
#407 = SURFACE_STYLE_USAGE(.BOTH.,#408);
#408 = SURFACE_SIDE_STYLE('',(#409));
#409 = SURFACE_STYLE_FILL_AREA(#410);
#410 = FILL_AREA_STYLE('',(#411));
#411 = FILL_AREA_STYLE_COLOUR('',#397);
#412 = STYLED_ITEM('color',(#413),#243);
#413 = PRESENTATION_STYLE_ASSIGNMENT((#414));
#414 = SURFACE_STYLE_USAGE(.BOTH.,#415);
#415 = SURFACE_SIDE_STYLE('',(#416));
#416 = SURFACE_STYLE_FILL_AREA(#417);
#417 = FILL_AREA_STYLE('',(#418));
#418 = FILL_AREA_STYLE_COLOUR('',#397);
#419 = STYLED_ITEM('color',(#420),#252);
#420 = PRESENTATION_STYLE_ASSIGNMENT((#421));
#421 = SURFACE_STYLE_USAGE(.BOTH.,#422);
#422 = SURFACE_SIDE_STYLE('',(#423));
#423 = SURFACE_STYLE_FILL_AREA(#424);
#424 = FILL_AREA_STYLE('',(#425));
#425 = FILL_AREA_STYLE_COLOUR('',#426);
#426 = COLOUR_RGB('',0.824000000954,0.819999992847,0.78100001812);
#427 = STYLED_ITEM('color',(#428),#278);
#428 = PRESENTATION_STYLE_ASSIGNMENT((#429));
#429 = SURFACE_STYLE_USAGE(.BOTH.,#430);
#430 = SURFACE_SIDE_STYLE('',(#431));
#431 = SURFACE_STYLE_FILL_AREA(#432);
#432 = FILL_AREA_STYLE('',(#433));
#433 = FILL_AREA_STYLE_COLOUR('',#397);
#434 = STYLED_ITEM('color',(#435),#287);
#435 = PRESENTATION_STYLE_ASSIGNMENT((#436));
#436 = SURFACE_STYLE_USAGE(.BOTH.,#437);
#437 = SURFACE_SIDE_STYLE('',(#438));
#438 = SURFACE_STYLE_FILL_AREA(#439);
#439 = FILL_AREA_STYLE('',(#440));
#440 = FILL_AREA_STYLE_COLOUR('',#426);
#441 = STYLED_ITEM('color',(#442),#313);
#442 = PRESENTATION_STYLE_ASSIGNMENT((#443));
#443 = SURFACE_STYLE_USAGE(.BOTH.,#444);
#444 = SURFACE_SIDE_STYLE('',(#445));
#445 = SURFACE_STYLE_FILL_AREA(#446);
#446 = FILL_AREA_STYLE('',(#447));
#447 = FILL_AREA_STYLE_COLOUR('',#426);
#448 = STYLED_ITEM('color',(#449),#339);
#449 = PRESENTATION_STYLE_ASSIGNMENT((#450));
#450 = SURFACE_STYLE_USAGE(.BOTH.,#451);
#451 = SURFACE_SIDE_STYLE('',(#452));
#452 = SURFACE_STYLE_FILL_AREA(#453);
#453 = FILL_AREA_STYLE('',(#454));
#454 = FILL_AREA_STYLE_COLOUR('',#426);
#455 = STYLED_ITEM('color',(#456),#365);
#456 = PRESENTATION_STYLE_ASSIGNMENT((#457));
#457 = SURFACE_STYLE_USAGE(.BOTH.,#458);
#458 = SURFACE_SIDE_STYLE('',(#459));
#459 = SURFACE_STYLE_FILL_AREA(#460);
#460 = FILL_AREA_STYLE('',(#461));
#461 = FILL_AREA_STYLE_COLOUR('',#426);
#462 = STYLED_ITEM('color',(#463),#374);
#463 = PRESENTATION_STYLE_ASSIGNMENT((#464));
#464 = SURFACE_STYLE_USAGE(.BOTH.,#465);
#465 = SURFACE_SIDE_STYLE('',(#466));
#466 = SURFACE_STYLE_FILL_AREA(#467);
#467 = FILL_AREA_STYLE('',(#468));
#468 = FILL_AREA_STYLE_COLOUR('',#426);
ENDSEC;
END-ISO-10303-21;
