ISO-10303-21;
HEADER;
/* RV_Disc_D21.5mm_W8.4mm_P10mm.step 3D STEP model for use in ECAD systems
 * Copyright (C) 2018, kicad StepUp
 * 
 * This work is licensed under the [Creative Commons CC-BY-SA 4.0 License](https://creativecommons.org/licenses/by-sa/4.0/legalcode), 
 * with the following exception:
 * To the extent that the creation of electronic designs that use 'Licensed Material' can be considered to be 'Adapted Material', 
 * then the copyright holder waives article 3 of the license with respect to these designs and any generated files which use data provided 
 * as part of the 'Licensed Material'.
 * You are free to use the library data in your own projects without the obligation to share your project files under this or any other license agreement.
 * However, if you wish to redistribute these libraries, or parts thereof (including in modified form) as a collection then the exception above does not apply. 
 * Please refer to https://github.com/KiCad/kicad-packages3D/blob/master/LICENSE.md for further clarification of the exception.
 * Disclaimer of Warranties and Limitation of Liability.
 * These libraries are provided in the hope that they will be useful, but are provided without warranty of any kind, express or implied.
 * *USE 3D CAD DATA AT YOUR OWN RISK*
 * *DO NOT RELY UPON ANY INFORMATION FOUND HERE WITHOUT INDEPENDENT VERIFICATION.*
 * 
 */

FILE_DESCRIPTION(
/* description */ ('model of RV_Disc_D21.5mm_W8.4mm_P10mm'),
/* implementation_level */ '2;1');

FILE_NAME(
/* name */ 'RV_Disc_D21.5mm_W8.4mm_P10mm.step',
/* time_stamp */ '2018-11-11T21:06:31',
/* author */ ('kicad StepUp','ksu'),
/* organization */ ('FreeCAD'),
/* preprocessor_version */ 'OCC',
/* originating_system */ 'kicad StepUp',
/* authorisation */ '');

FILE_SCHEMA(('AUTOMOTIVE_DESIGN { 1 0 10303 214 1 1 1 1 }'));
ENDSEC;

DATA;
#1 = APPLICATION_PROTOCOL_DEFINITION('international standard',
'automotive_design',2000,#2);
#2 = APPLICATION_CONTEXT(
'core data for automotive mechanical design processes');
#3 = SHAPE_DEFINITION_REPRESENTATION(#4,#10);
#4 = PRODUCT_DEFINITION_SHAPE('','',#5);
#5 = PRODUCT_DEFINITION('design','',#6,#9);
#6 = PRODUCT_DEFINITION_FORMATION('','',#7);
#7 = PRODUCT('RV_Disc_D215mm_W84mm_P10mm','RV_Disc_D215mm_W84mm_P10mm',
'',(#8));
#8 = PRODUCT_CONTEXT('',#2,'mechanical');
#9 = PRODUCT_DEFINITION_CONTEXT('part definition',#2,'design');
#10 = ADVANCED_BREP_SHAPE_REPRESENTATION('',(#11,#15),#406);
#11 = AXIS2_PLACEMENT_3D('',#12,#13,#14);
#12 = CARTESIAN_POINT('',(0.E+000,0.E+000,0.E+000));
#13 = DIRECTION('',(0.E+000,0.E+000,1.));
#14 = DIRECTION('',(1.,0.E+000,-0.E+000));
#15 = MANIFOLD_SOLID_BREP('',#16);
#16 = CLOSED_SHELL('',(#17,#50,#159,#266,#275,#301,#310,#336,#362,#388,
#397));
#17 = ADVANCED_FACE('',(#18),#45,.T.);
#18 = FACE_BOUND('',#19,.F.);
#19 = EDGE_LOOP('',(#20,#30,#37,#38));
#20 = ORIENTED_EDGE('',*,*,#21,.T.);
#21 = EDGE_CURVE('',#22,#24,#26,.T.);
#22 = VERTEX_POINT('',#23);
#23 = CARTESIAN_POINT('',(15.75,-2.14756097561,10.78));
#24 = VERTEX_POINT('',#25);
#25 = CARTESIAN_POINT('',(15.75,-2.35243902439,10.78));
#26 = LINE('',#27,#28);
#27 = CARTESIAN_POINT('',(15.75,1.95,10.78));
#28 = VECTOR('',#29,1.);
#29 = DIRECTION('',(0.E+000,-1.,0.E+000));
#30 = ORIENTED_EDGE('',*,*,#31,.T.);
#31 = EDGE_CURVE('',#24,#24,#32,.T.);
#32 = CIRCLE('',#33,10.75);
#33 = AXIS2_PLACEMENT_3D('',#34,#35,#36);
#34 = CARTESIAN_POINT('',(5.,-2.35243902439,10.78));
#35 = DIRECTION('',(0.E+000,-1.,0.E+000));
#36 = DIRECTION('',(1.,0.E+000,0.E+000));
#37 = ORIENTED_EDGE('',*,*,#21,.F.);
#38 = ORIENTED_EDGE('',*,*,#39,.F.);
#39 = EDGE_CURVE('',#22,#22,#40,.T.);
#40 = CIRCLE('',#41,10.75);
#41 = AXIS2_PLACEMENT_3D('',#42,#43,#44);
#42 = CARTESIAN_POINT('',(5.,-2.14756097561,10.78));
#43 = DIRECTION('',(0.E+000,-1.,0.E+000));
#44 = DIRECTION('',(1.,0.E+000,0.E+000));
#45 = CYLINDRICAL_SURFACE('',#46,10.75);
#46 = AXIS2_PLACEMENT_3D('',#47,#48,#49);
#47 = CARTESIAN_POINT('',(5.,1.95,10.78));
#48 = DIRECTION('',(0.E+000,1.,0.E+000));
#49 = DIRECTION('',(1.,0.E+000,0.E+000));
#50 = ADVANCED_FACE('',(#51,#71),#154,.T.);
#51 = FACE_BOUND('',#52,.F.);
#52 = EDGE_LOOP('',(#53,#54,#63,#70));
#53 = ORIENTED_EDGE('',*,*,#39,.T.);
#54 = ORIENTED_EDGE('',*,*,#55,.T.);
#55 = EDGE_CURVE('',#22,#56,#58,.T.);
#56 = VERTEX_POINT('',#57);
#57 = CARTESIAN_POINT('',(11.65243902439,1.95,10.78));
#58 = CIRCLE('',#59,4.09756097561);
#59 = AXIS2_PLACEMENT_3D('',#60,#61,#62);
#60 = CARTESIAN_POINT('',(11.65243902439,-2.14756097561,10.78));
#61 = DIRECTION('',(0.E+000,0.E+000,1.));
#62 = DIRECTION('',(1.,0.E+000,0.E+000));
#63 = ORIENTED_EDGE('',*,*,#64,.F.);
#64 = EDGE_CURVE('',#56,#56,#65,.T.);
#65 = CIRCLE('',#66,6.65243902439);
#66 = AXIS2_PLACEMENT_3D('',#67,#68,#69);
#67 = CARTESIAN_POINT('',(5.,1.95,10.78));
#68 = DIRECTION('',(0.E+000,-1.,0.E+000));
#69 = DIRECTION('',(1.,0.E+000,0.E+000));
#70 = ORIENTED_EDGE('',*,*,#55,.F.);
#71 = FACE_BOUND('',#72,.F.);
#72 = EDGE_LOOP('',(#73,#100));
#73 = ORIENTED_EDGE('',*,*,#74,.T.);
#74 = EDGE_CURVE('',#75,#77,#79,.T.);
#75 = VERTEX_POINT('',#76);
#76 = CARTESIAN_POINT('',(0.45,0.E+000,1.715760878713));
#77 = VERTEX_POINT('',#78);
#78 = CARTESIAN_POINT('',(-0.141358877618,-0.427220865266,1.772685649639
));
#79 = B_SPLINE_CURVE_WITH_KNOTS('',7,(#80,#81,#82,#83,#84,#85,#86,#87,
#88,#89,#90,#91,#92,#93,#94,#95,#96,#97,#98,#99),.UNSPECIFIED.,.F.,
.F.,(8,6,6,8),(0.E+000,0.147231814193,0.405085504093,1.),
.UNSPECIFIED.);
#80 = CARTESIAN_POINT('',(0.45,1.665334536938E-016,1.715760878713));
#81 = CARTESIAN_POINT('',(0.45,-1.651551523795E-002,1.704388587915));
#82 = CARTESIAN_POINT('',(0.449292826424,-3.314995281743E-002,
1.693433411762));
#83 = CARTESIAN_POINT('',(0.447860191979,-4.987280790458E-002,
1.682925527478));
#84 = CARTESIAN_POINT('',(0.445684361451,-6.664967632247E-002,
1.672896280594));
#85 = CARTESIAN_POINT('',(0.442749190849,-8.34422287829E-002,
1.663377522501));
#86 = CARTESIAN_POINT('',(0.439041166545,-0.100208185118,1.654400948004)
);
#87 = CARTESIAN_POINT('',(0.426685641031,-0.146136670351,1.631279979364)
);
#88 = CARTESIAN_POINT('',(0.416418520005,-0.17515465897,1.618317177292)
);
#89 = CARTESIAN_POINT('',(0.403697522692,-0.203697336083,1.60728062343)
);
#90 = CARTESIAN_POINT('',(0.388509545448,-0.231474409359,1.598328635637)
);
#91 = CARTESIAN_POINT('',(0.370899422075,-0.258170008463,1.591590957701)
);
#92 = CARTESIAN_POINT('',(0.350985420591,-0.283461114526,1.587152421733)
);
#93 = CARTESIAN_POINT('',(0.278178988995,-0.36146590897,1.580151608843)
);
#94 = CARTESIAN_POINT('',(0.216086306432,-0.406938660834,1.587613852616)
);
#95 = CARTESIAN_POINT('',(0.145353768505,-0.439414136099,1.607837972262)
);
#96 = CARTESIAN_POINT('',(7.034675024172E-002,-0.456900442081,
1.638953419403));
#97 = CARTESIAN_POINT('',(-4.639800906261E-003,-0.459530479788,
1.678489817111));
#98 = CARTESIAN_POINT('',(-7.603396954946E-002,-0.448835576615,
1.723885360705));
#99 = CARTESIAN_POINT('',(-0.141358877618,-0.427220865266,1.772685649639
));
#100 = ORIENTED_EDGE('',*,*,#101,.T.);
#101 = EDGE_CURVE('',#77,#75,#102,.T.);
#102 = B_SPLINE_CURVE_WITH_KNOTS('',8,(#103,#104,#105,#106,#107,#108,
#109,#110,#111,#112,#113,#114,#115,#116,#117,#118,#119,#120,#121,
#122,#123,#124,#125,#126,#127,#128,#129,#130,#131,#132,#133,#134,
#135,#136,#137,#138,#139,#140,#141,#142,#143,#144,#145,#146,#147,
#148,#149,#150,#151,#152,#153),.UNSPECIFIED.,.F.,.F.,(9,7,7,7,7,7,7,
9),(0.E+000,0.161842372989,0.386204889563,0.439048685882,
0.522781007923,0.722417757955,0.821703830555,1.),.UNSPECIFIED.);
#103 = CARTESIAN_POINT('',(-0.141358877618,-0.427220865266,
1.772685649639));
#104 = CARTESIAN_POINT('',(-0.180243233824,-0.414354806052,1.80173380101
));
#105 = CARTESIAN_POINT('',(-0.217208651076,-0.39763612333,1.832104195288
));
#106 = CARTESIAN_POINT('',(-0.251913766275,-0.377412327391,
1.863471024743));
#107 = CARTESIAN_POINT('',(-0.284081422919,-0.35403266473,1.895551066196
));
#108 = CARTESIAN_POINT('',(-0.313487729056,-0.327838427748,
1.928095538751));
#109 = CARTESIAN_POINT('',(-0.33994981284,-0.299156220642,1.960881607385
));
#110 = CARTESIAN_POINT('',(-0.363312275682,-0.2682941815,1.993703532397)
);
#111 = CARTESIAN_POINT('',(-0.411324846417,-0.190135559692,
2.071640016627));
#112 = CARTESIAN_POINT('',(-0.432943645124,-0.141164405923,
2.116536593316));
#113 = CARTESIAN_POINT('',(-0.44796483658,-8.937851605292E-002,
2.160565832312));
#114 = CARTESIAN_POINT('',(-0.456022558333,-3.552696299136E-002,
2.203172994876));
#115 = CARTESIAN_POINT('',(-0.456739094687,1.956109928741E-002,
2.243682279966));
#116 = CARTESIAN_POINT('',(-0.44975404294,7.494043572498E-002,
2.281246635198));
#117 = CARTESIAN_POINT('',(-0.434760521476,0.129519092501,2.314798156166
));
#118 = CARTESIAN_POINT('',(-0.406091167502,0.194351686437,2.349637604037
));
#119 = CARTESIAN_POINT('',(-0.400172701223,0.206588871915,2.355979340534
));
#120 = CARTESIAN_POINT('',(-0.393799795297,0.218685645085,2.36200342171)
);
#121 = CARTESIAN_POINT('',(-0.386972261463,0.230622125324,2.367690868892
));
#122 = CARTESIAN_POINT('',(-0.379691220005,0.242377280699,2.373021977305
));
#123 = CARTESIAN_POINT('',(-0.371959388704,0.25392908678,2.377976615348)
);
#124 = CARTESIAN_POINT('',(-0.363781371781,0.265254685465,2.382534523873
));
#125 = CARTESIAN_POINT('',(-0.341509425855,0.29388051942,2.393237279065)
);
#126 = CARTESIAN_POINT('',(-0.326749968905,0.310805677424,2.3987532737)
);
#127 = CARTESIAN_POINT('',(-0.31091475463,0.327008950939,2.403142311386)
);
#128 = CARTESIAN_POINT('',(-0.294047694927,0.342390096265,2.406325700035
));
#129 = CARTESIAN_POINT('',(-0.276210213053,0.356849066568,2.408232541562
));
#130 = CARTESIAN_POINT('',(-0.257482985264,0.37029026369,2.408805620865)
);
#131 = CARTESIAN_POINT('',(-0.237966648013,0.382627668074,2.408007985649
));
#132 = CARTESIAN_POINT('',(-0.169655453183,0.420406383848,2.400637925539
));
#133 = CARTESIAN_POINT('',(-0.117607675852,0.440413411813,2.387587223249
));
#134 = CARTESIAN_POINT('',(-6.352567503763E-002,0.452634984672,
2.366511108049));
#135 = CARTESIAN_POINT('',(-9.398626777168E-003,0.45699736607,
2.338312669196));
#136 = CARTESIAN_POINT('',(4.326405951373E-002,0.454143507192,
2.304527475857));
#137 = CARTESIAN_POINT('',(9.343161663772E-002,0.444908362741,
2.266686503908));
#138 = CARTESIAN_POINT('',(0.140462759198,0.430170000745,2.226122700427)
);
#139 = CARTESIAN_POINT('',(0.205652493398,0.400961349184,2.162841560804)
);
#140 = CARTESIAN_POINT('',(0.226488028699,0.390059213683,2.141356942764)
);
#141 = CARTESIAN_POINT('',(0.246472387854,0.378030580632,2.119513330185)
);
#142 = CARTESIAN_POINT('',(0.265575118971,0.364942023621,2.097408096032)
);
#143 = CARTESIAN_POINT('',(0.283768107596,0.350853334107,2.075130133815)
);
#144 = CARTESIAN_POINT('',(0.301024175552,0.335818261697,2.052761040092)
);
#145 = CARTESIAN_POINT('',(0.317315679779,0.319885254429,2.030376296976)
);
#146 = CARTESIAN_POINT('',(0.360083967341,0.272952302569,1.96794691955)
);
#147 = CARTESIAN_POINT('',(0.38433339301,0.240069865512,1.928047882852)
);
#148 = CARTESIAN_POINT('',(0.405204855744,0.204699924713,1.88874497257)
);
#149 = CARTESIAN_POINT('',(0.422487523818,0.167075725535,1.850431736892)
);
#150 = CARTESIAN_POINT('',(0.435919599287,0.127449387869,1.813520126285)
);
#151 = CARTESIAN_POINT('',(0.445198801349,8.61233633126E-002,
1.778451695987));
#152 = CARTESIAN_POINT('',(0.45,4.347868355997E-002,1.745699528874));
#153 = CARTESIAN_POINT('',(0.45,1.665334536938E-016,1.715760878713));
#154 = TOROIDAL_SURFACE('',#155,6.65243902439,4.09756097561);
#155 = AXIS2_PLACEMENT_3D('',#156,#157,#158);
#156 = CARTESIAN_POINT('',(5.,-2.14756097561,10.78));
#157 = DIRECTION('',(0.E+000,1.,0.E+000));
#158 = DIRECTION('',(1.,0.E+000,0.E+000));
#159 = ADVANCED_FACE('',(#160,#180),#261,.T.);
#160 = FACE_BOUND('',#161,.T.);
#161 = EDGE_LOOP('',(#162,#163,#172,#179));
#162 = ORIENTED_EDGE('',*,*,#31,.T.);
#163 = ORIENTED_EDGE('',*,*,#164,.T.);
#164 = EDGE_CURVE('',#24,#165,#167,.T.);
#165 = VERTEX_POINT('',#166);
#166 = CARTESIAN_POINT('',(11.65243902439,-6.45,10.78));
#167 = CIRCLE('',#168,4.09756097561);
#168 = AXIS2_PLACEMENT_3D('',#169,#170,#171);
#169 = CARTESIAN_POINT('',(11.65243902439,-2.35243902439,10.78));
#170 = DIRECTION('',(0.E+000,0.E+000,-1.));
#171 = DIRECTION('',(1.,0.E+000,0.E+000));
#172 = ORIENTED_EDGE('',*,*,#173,.F.);
#173 = EDGE_CURVE('',#165,#165,#174,.T.);
#174 = CIRCLE('',#175,6.65243902439);
#175 = AXIS2_PLACEMENT_3D('',#176,#177,#178);
#176 = CARTESIAN_POINT('',(5.,-6.45,10.78));
#177 = DIRECTION('',(0.E+000,-1.,0.E+000));
#178 = DIRECTION('',(1.,0.E+000,0.E+000));
#179 = ORIENTED_EDGE('',*,*,#164,.F.);
#180 = FACE_BOUND('',#181,.T.);
#181 = EDGE_LOOP('',(#182,#221));
#182 = ORIENTED_EDGE('',*,*,#183,.T.);
#183 = EDGE_CURVE('',#184,#186,#188,.T.);
#184 = VERTEX_POINT('',#185);
#185 = CARTESIAN_POINT('',(10.45,-4.5,2.226612902021));
#186 = VERTEX_POINT('',#187);
#187 = CARTESIAN_POINT('',(9.550247168991,-4.485087220263,1.705666324878
));
#188 = B_SPLINE_CURVE_WITH_KNOTS('',7,(#189,#190,#191,#192,#193,#194,
#195,#196,#197,#198,#199,#200,#201,#202,#203,#204,#205,#206,#207,
#208,#209,#210,#211,#212,#213,#214,#215,#216,#217,#218,#219,#220),
.UNSPECIFIED.,.F.,.F.,(8,6,6,6,6,8),(0.E+000,0.190887092367,
0.527358449992,0.776534194449,0.920619877802,1.),.UNSPECIFIED.);
#189 = CARTESIAN_POINT('',(10.45,-4.5,2.226612902021));
#190 = CARTESIAN_POINT('',(10.45,-4.463808927459,2.200203989985));
#191 = CARTESIAN_POINT('',(10.446604292299,-4.427945510375,2.17261393988
));
#192 = CARTESIAN_POINT('',(10.439923301533,-4.392698846567,
2.144105302335));
#193 = CARTESIAN_POINT('',(10.430068036771,-4.358338316727,2.11490256415
));
#194 = CARTESIAN_POINT('',(10.417151399307,-4.325120363347,2.08520249189
));
#195 = CARTESIAN_POINT('',(10.401289490443,-4.293295269638,
2.055184475491));
#196 = CARTESIAN_POINT('',(10.349664621109,-4.209914147144,
1.971852328376));
#197 = CARTESIAN_POINT('',(10.308000716459,-4.161903406998,
1.918313017845));
#198 = CARTESIAN_POINT('',(10.258250236485,-4.120315938724,
1.865234352571));
#199 = CARTESIAN_POINT('',(10.201114815488,-4.086659358377,
1.813579285592));
#200 = CARTESIAN_POINT('',(10.137724226458,-4.062649870329,
1.764597253862));
#201 = CARTESIAN_POINT('',(10.069864337782,-4.050013710704,1.71992822274
));
#202 = CARTESIAN_POINT('',(9.948415382332,-4.049989861563,1.653172906825
));
#203 = CARTESIAN_POINT('',(9.895773385786,-4.056902413278,1.628279249057
));
#204 = CARTESIAN_POINT('',(9.843542856747,-4.071202647554,1.607872270002
));
#205 = CARTESIAN_POINT('',(9.793274573802,-4.092935485909,1.592839799964
));
#206 = CARTESIAN_POINT('',(9.746529911241,-4.121633511316,1.583893509859
));
#207 = CARTESIAN_POINT('',(9.704674683151,-4.156311391765,1.581421505017
));
#208 = CARTESIAN_POINT('',(9.647781721552,-4.218234966265,1.58751054685)
);
#209 = CARTESIAN_POINT('',(9.628868688274,-4.242457835697,1.591859236893
));
#210 = CARTESIAN_POINT('',(9.612060292944,-4.267952553431,1.598302714067
));
#211 = CARTESIAN_POINT('',(9.597458985039,-4.294438042754,1.606766696297
));
#212 = CARTESIAN_POINT('',(9.58510600595,-4.321638947955,1.617139397164)
);
#213 = CARTESIAN_POINT('',(9.574993721326,-4.349300485364,1.629284596545
));
#214 = CARTESIAN_POINT('',(9.562721832818,-4.392561809921,1.650639826139
));
#215 = CARTESIAN_POINT('',(9.559029788662,-4.408001231727,1.658719380194
));
#216 = CARTESIAN_POINT('',(9.555997897807,-4.423475767036,1.667268578369
));
#217 = CARTESIAN_POINT('',(9.553616281475,-4.43895136521,1.676262671825)
);
#218 = CARTESIAN_POINT('',(9.551872962722,-4.454396847707,1.685676687182
));
#219 = CARTESIAN_POINT('',(9.550754591377,-4.469783926126,1.695485902772
));
#220 = CARTESIAN_POINT('',(9.550247168991,-4.485087220263,1.705666324878
));
#221 = ORIENTED_EDGE('',*,*,#222,.T.);
#222 = EDGE_CURVE('',#186,#184,#223,.T.);
#223 = B_SPLINE_CURVE_WITH_KNOTS('',8,(#224,#225,#226,#227,#228,#229,
#230,#231,#232,#233,#234,#235,#236,#237,#238,#239,#240,#241,#242,
#243,#244,#245,#246,#247,#248,#249,#250,#251,#252,#253,#254,#255,
#256,#257,#258,#259,#260),.UNSPECIFIED.,.F.,.F.,(9,7,7,7,7,9),(
0.E+000,0.256315803114,0.483839064858,0.782512074462,0.845472482379,
1.),.UNSPECIFIED.);
#224 = CARTESIAN_POINT('',(9.550247168991,-4.485087220263,1.705666324878
));
#225 = CARTESIAN_POINT('',(9.548757724717,-4.530007201011,1.735549065218
));
#226 = CARTESIAN_POINT('',(9.55242606694,-4.574188544875,1.768543947643)
);
#227 = CARTESIAN_POINT('',(9.560906053068,-4.617074717467,1.804104034064
));
#228 = CARTESIAN_POINT('',(9.573840199131,-4.658231921724,1.841706820525
));
#229 = CARTESIAN_POINT('',(9.590892281589,-4.697320747282,1.88086572931)
);
#230 = CARTESIAN_POINT('',(9.611770508875,-4.734063736542,1.921130020051
));
#231 = CARTESIAN_POINT('',(9.636241262661,-4.768208867452,1.962073119805
));
#232 = CARTESIAN_POINT('',(9.688892366374,-4.827255274833,2.039837955034
));
#233 = CARTESIAN_POINT('',(9.716317753325,-4.852731033087,2.076562576745
));
#234 = CARTESIAN_POINT('',(9.746292764955,-4.875750994244,2.113161624157
));
#235 = CARTESIAN_POINT('',(9.778711680661,-4.896096660014,2.149306327127
));
#236 = CARTESIAN_POINT('',(9.813458488718,-4.913494744772,2.184599842564
));
#237 = CARTESIAN_POINT('',(9.85038235708,-4.92761837108,2.218565671062)
);
#238 = CARTESIAN_POINT('',(9.889269950265,-4.938090983285,2.250645406073
));
#239 = CARTESIAN_POINT('',(9.983038118432,-4.952896969924,2.319010184093
));
#240 = CARTESIAN_POINT('',(10.039778462641,-4.954391460901,
2.353956172609));
#241 = CARTESIAN_POINT('',(10.098301948528,-4.94753937769,2.3825771356)
);
#242 = CARTESIAN_POINT('',(10.156476277451,-4.931593000131,2.40279882419
));
#243 = CARTESIAN_POINT('',(10.212012047679,-4.906609266126,
2.413379669034));
#244 = CARTESIAN_POINT('',(10.262709960164,-4.873504000736,
2.414295111089));
#245 = CARTESIAN_POINT('',(10.306904990309,-4.834020287955,
2.406509465472));
#246 = CARTESIAN_POINT('',(10.351520427537,-4.781208575863,
2.388578160602));
#247 = CARTESIAN_POINT('',(10.358974015241,-4.771815548522,
2.385139157475));
#248 = CARTESIAN_POINT('',(10.366108163684,-4.762238968967,
2.381395241372));
#249 = CARTESIAN_POINT('',(10.372918703165,-4.752493513473,
2.377358932677));
#250 = CARTESIAN_POINT('',(10.379402628849,-4.742593482306,
2.373042849082));
#251 = CARTESIAN_POINT('',(10.385557959672,-4.732552699134,
2.368459531002));
#252 = CARTESIAN_POINT('',(10.391383597262,-4.722384410435,
2.363621266988));
#253 = CARTESIAN_POINT('',(10.410367336134,-4.686862445707,
2.346068461361));
#254 = CARTESIAN_POINT('',(10.421864299643,-4.660936958933,
2.332135464102));
#255 = CARTESIAN_POINT('',(10.431369853982,-4.634504938475,
2.316914814446));
#256 = CARTESIAN_POINT('',(10.438902158673,-4.607731909336,
2.300568576124));
#257 = CARTESIAN_POINT('',(10.444491963732,-4.580767737927,
2.283243639206));
#258 = CARTESIAN_POINT('',(10.448177492825,-4.553746669814,
2.265069988575));
#259 = CARTESIAN_POINT('',(10.45,-4.526788374893,2.246160591174));
#260 = CARTESIAN_POINT('',(10.45,-4.5,2.226612902021));
#261 = TOROIDAL_SURFACE('',#262,6.65243902439,4.09756097561);
#262 = AXIS2_PLACEMENT_3D('',#263,#264,#265);
#263 = CARTESIAN_POINT('',(5.,-2.35243902439,10.78));
#264 = DIRECTION('',(0.E+000,-1.,0.E+000));
#265 = DIRECTION('',(1.,0.E+000,0.E+000));
#266 = ADVANCED_FACE('',(#267),#270,.F.);
#267 = FACE_BOUND('',#268,.F.);
#268 = EDGE_LOOP('',(#269));
#269 = ORIENTED_EDGE('',*,*,#64,.T.);
#270 = PLANE('',#271);
#271 = AXIS2_PLACEMENT_3D('',#272,#273,#274);
#272 = CARTESIAN_POINT('',(5.,1.95,10.78));
#273 = DIRECTION('',(-0.E+000,-1.,-0.E+000));
#274 = DIRECTION('',(0.E+000,0.E+000,-1.));
#275 = ADVANCED_FACE('',(#276),#296,.T.);
#276 = FACE_BOUND('',#277,.T.);
#277 = EDGE_LOOP('',(#278,#279,#287,#294,#295));
#278 = ORIENTED_EDGE('',*,*,#101,.T.);
#279 = ORIENTED_EDGE('',*,*,#280,.T.);
#280 = EDGE_CURVE('',#75,#281,#283,.T.);
#281 = VERTEX_POINT('',#282);
#282 = CARTESIAN_POINT('',(0.45,0.E+000,-2.82));
#283 = LINE('',#284,#285);
#284 = CARTESIAN_POINT('',(0.45,0.E+000,10.78));
#285 = VECTOR('',#286,1.);
#286 = DIRECTION('',(-0.E+000,-0.E+000,-1.));
#287 = ORIENTED_EDGE('',*,*,#288,.T.);
#288 = EDGE_CURVE('',#281,#281,#289,.T.);
#289 = CIRCLE('',#290,0.45);
#290 = AXIS2_PLACEMENT_3D('',#291,#292,#293);
#291 = CARTESIAN_POINT('',(0.E+000,0.E+000,-2.82));
#292 = DIRECTION('',(0.E+000,0.E+000,1.));
#293 = DIRECTION('',(1.,0.E+000,0.E+000));
#294 = ORIENTED_EDGE('',*,*,#280,.F.);
#295 = ORIENTED_EDGE('',*,*,#74,.T.);
#296 = CYLINDRICAL_SURFACE('',#297,0.45);
#297 = AXIS2_PLACEMENT_3D('',#298,#299,#300);
#298 = CARTESIAN_POINT('',(0.E+000,0.E+000,10.78));
#299 = DIRECTION('',(0.E+000,0.E+000,1.));
#300 = DIRECTION('',(1.,0.E+000,0.E+000));
#301 = ADVANCED_FACE('',(#302),#305,.T.);
#302 = FACE_BOUND('',#303,.T.);
#303 = EDGE_LOOP('',(#304));
#304 = ORIENTED_EDGE('',*,*,#173,.T.);
#305 = PLANE('',#306);
#306 = AXIS2_PLACEMENT_3D('',#307,#308,#309);
#307 = CARTESIAN_POINT('',(5.,-6.45,10.78));
#308 = DIRECTION('',(-0.E+000,-1.,-0.E+000));
#309 = DIRECTION('',(0.E+000,0.E+000,-1.));
#310 = ADVANCED_FACE('',(#311),#331,.T.);
#311 = FACE_BOUND('',#312,.T.);
#312 = EDGE_LOOP('',(#313,#314,#322,#329,#330));
#313 = ORIENTED_EDGE('',*,*,#183,.F.);
#314 = ORIENTED_EDGE('',*,*,#315,.T.);
#315 = EDGE_CURVE('',#184,#316,#318,.T.);
#316 = VERTEX_POINT('',#317);
#317 = CARTESIAN_POINT('',(10.45,-4.5,-2.82));
#318 = LINE('',#319,#320);
#319 = CARTESIAN_POINT('',(10.45,-4.5,10.78));
#320 = VECTOR('',#321,1.);
#321 = DIRECTION('',(-0.E+000,-0.E+000,-1.));
#322 = ORIENTED_EDGE('',*,*,#323,.T.);
#323 = EDGE_CURVE('',#316,#316,#324,.T.);
#324 = CIRCLE('',#325,0.45);
#325 = AXIS2_PLACEMENT_3D('',#326,#327,#328);
#326 = CARTESIAN_POINT('',(10.,-4.5,-2.82));
#327 = DIRECTION('',(0.E+000,0.E+000,1.));
#328 = DIRECTION('',(1.,0.E+000,0.E+000));
#329 = ORIENTED_EDGE('',*,*,#315,.F.);
#330 = ORIENTED_EDGE('',*,*,#222,.F.);
#331 = CYLINDRICAL_SURFACE('',#332,0.45);
#332 = AXIS2_PLACEMENT_3D('',#333,#334,#335);
#333 = CARTESIAN_POINT('',(10.,-4.5,10.78));
#334 = DIRECTION('',(0.E+000,0.E+000,1.));
#335 = DIRECTION('',(1.,0.E+000,0.E+000));
#336 = ADVANCED_FACE('',(#337),#357,.T.);
#337 = FACE_BOUND('',#338,.F.);
#338 = EDGE_LOOP('',(#339,#348,#349,#350));
#339 = ORIENTED_EDGE('',*,*,#340,.F.);
#340 = EDGE_CURVE('',#281,#341,#343,.T.);
#341 = VERTEX_POINT('',#342);
#342 = CARTESIAN_POINT('',(0.27,0.E+000,-3.));
#343 = CIRCLE('',#344,0.18);
#344 = AXIS2_PLACEMENT_3D('',#345,#346,#347);
#345 = CARTESIAN_POINT('',(0.27,0.E+000,-2.82));
#346 = DIRECTION('',(-0.E+000,1.,0.E+000));
#347 = DIRECTION('',(1.,0.E+000,0.E+000));
#348 = ORIENTED_EDGE('',*,*,#288,.T.);
#349 = ORIENTED_EDGE('',*,*,#340,.T.);
#350 = ORIENTED_EDGE('',*,*,#351,.F.);
#351 = EDGE_CURVE('',#341,#341,#352,.T.);
#352 = CIRCLE('',#353,0.27);
#353 = AXIS2_PLACEMENT_3D('',#354,#355,#356);
#354 = CARTESIAN_POINT('',(0.E+000,0.E+000,-3.));
#355 = DIRECTION('',(0.E+000,0.E+000,1.));
#356 = DIRECTION('',(1.,0.E+000,0.E+000));
#357 = TOROIDAL_SURFACE('',#358,0.27,0.18);
#358 = AXIS2_PLACEMENT_3D('',#359,#360,#361);
#359 = CARTESIAN_POINT('',(0.E+000,0.E+000,-2.82));
#360 = DIRECTION('',(-0.E+000,-0.E+000,-1.));
#361 = DIRECTION('',(1.,0.E+000,0.E+000));
#362 = ADVANCED_FACE('',(#363),#383,.T.);
#363 = FACE_BOUND('',#364,.F.);
#364 = EDGE_LOOP('',(#365,#374,#375,#376));
#365 = ORIENTED_EDGE('',*,*,#366,.F.);
#366 = EDGE_CURVE('',#316,#367,#369,.T.);
#367 = VERTEX_POINT('',#368);
#368 = CARTESIAN_POINT('',(10.27,-4.5,-3.));
#369 = CIRCLE('',#370,0.18);
#370 = AXIS2_PLACEMENT_3D('',#371,#372,#373);
#371 = CARTESIAN_POINT('',(10.27,-4.5,-2.82));
#372 = DIRECTION('',(-0.E+000,1.,0.E+000));
#373 = DIRECTION('',(1.,0.E+000,0.E+000));
#374 = ORIENTED_EDGE('',*,*,#323,.T.);
#375 = ORIENTED_EDGE('',*,*,#366,.T.);
#376 = ORIENTED_EDGE('',*,*,#377,.F.);
#377 = EDGE_CURVE('',#367,#367,#378,.T.);
#378 = CIRCLE('',#379,0.27);
#379 = AXIS2_PLACEMENT_3D('',#380,#381,#382);
#380 = CARTESIAN_POINT('',(10.,-4.5,-3.));
#381 = DIRECTION('',(0.E+000,0.E+000,1.));
#382 = DIRECTION('',(1.,0.E+000,0.E+000));
#383 = TOROIDAL_SURFACE('',#384,0.27,0.18);
#384 = AXIS2_PLACEMENT_3D('',#385,#386,#387);
#385 = CARTESIAN_POINT('',(10.,-4.5,-2.82));
#386 = DIRECTION('',(-0.E+000,-0.E+000,-1.));
#387 = DIRECTION('',(1.,0.E+000,0.E+000));
#388 = ADVANCED_FACE('',(#389),#392,.F.);
#389 = FACE_BOUND('',#390,.F.);
#390 = EDGE_LOOP('',(#391));
#391 = ORIENTED_EDGE('',*,*,#351,.T.);
#392 = PLANE('',#393);
#393 = AXIS2_PLACEMENT_3D('',#394,#395,#396);
#394 = CARTESIAN_POINT('',(-1.18701400394E-017,2.911085817041E-017,-3.)
);
#395 = DIRECTION('',(0.E+000,0.E+000,1.));
#396 = DIRECTION('',(1.,0.E+000,0.E+000));
#397 = ADVANCED_FACE('',(#398),#401,.F.);
#398 = FACE_BOUND('',#399,.F.);
#399 = EDGE_LOOP('',(#400));
#400 = ORIENTED_EDGE('',*,*,#377,.T.);
#401 = PLANE('',#402);
#402 = AXIS2_PLACEMENT_3D('',#403,#404,#405);
#403 = CARTESIAN_POINT('',(10.,-4.5,-3.));
#404 = DIRECTION('',(0.E+000,0.E+000,1.));
#405 = DIRECTION('',(1.,0.E+000,0.E+000));
#406 = ( GEOMETRIC_REPRESENTATION_CONTEXT(3)
GLOBAL_UNCERTAINTY_ASSIGNED_CONTEXT((#410)) GLOBAL_UNIT_ASSIGNED_CONTEXT
((#407,#408,#409)) REPRESENTATION_CONTEXT('Context #1',
'3D Context with UNIT and UNCERTAINTY') );
#407 = ( LENGTH_UNIT() NAMED_UNIT(*) SI_UNIT(.MILLI.,.METRE.) );
#408 = ( NAMED_UNIT(*) PLANE_ANGLE_UNIT() SI_UNIT($,.RADIAN.) );
#409 = ( NAMED_UNIT(*) SI_UNIT($,.STERADIAN.) SOLID_ANGLE_UNIT() );
#410 = UNCERTAINTY_MEASURE_WITH_UNIT(LENGTH_MEASURE(1.E-007),#407,
'distance_accuracy_value','confusion accuracy');
#411 = PRODUCT_RELATED_PRODUCT_CATEGORY('part',$,(#7));
#412 = MECHANICAL_DESIGN_GEOMETRIC_PRESENTATION_REPRESENTATION('',(#413,
#421,#428,#435,#442,#450,#457,#464,#471,#478,#485),#406);
#413 = STYLED_ITEM('color',(#414),#17);
#414 = PRESENTATION_STYLE_ASSIGNMENT((#415));
#415 = SURFACE_STYLE_USAGE(.BOTH.,#416);
#416 = SURFACE_SIDE_STYLE('',(#417));
#417 = SURFACE_STYLE_FILL_AREA(#418);
#418 = FILL_AREA_STYLE('',(#419));
#419 = FILL_AREA_STYLE_COLOUR('',#420);
#420 = COLOUR_RGB('',0.136999994516,0.402000010014,0.726999998093);
#421 = STYLED_ITEM('color',(#422),#50);
#422 = PRESENTATION_STYLE_ASSIGNMENT((#423));
#423 = SURFACE_STYLE_USAGE(.BOTH.,#424);
#424 = SURFACE_SIDE_STYLE('',(#425));
#425 = SURFACE_STYLE_FILL_AREA(#426);
#426 = FILL_AREA_STYLE('',(#427));
#427 = FILL_AREA_STYLE_COLOUR('',#420);
#428 = STYLED_ITEM('color',(#429),#159);
#429 = PRESENTATION_STYLE_ASSIGNMENT((#430));
#430 = SURFACE_STYLE_USAGE(.BOTH.,#431);
#431 = SURFACE_SIDE_STYLE('',(#432));
#432 = SURFACE_STYLE_FILL_AREA(#433);
#433 = FILL_AREA_STYLE('',(#434));
#434 = FILL_AREA_STYLE_COLOUR('',#420);
#435 = STYLED_ITEM('color',(#436),#266);
#436 = PRESENTATION_STYLE_ASSIGNMENT((#437));
#437 = SURFACE_STYLE_USAGE(.BOTH.,#438);
#438 = SURFACE_SIDE_STYLE('',(#439));
#439 = SURFACE_STYLE_FILL_AREA(#440);
#440 = FILL_AREA_STYLE('',(#441));
#441 = FILL_AREA_STYLE_COLOUR('',#420);
#442 = STYLED_ITEM('color',(#443),#275);
#443 = PRESENTATION_STYLE_ASSIGNMENT((#444));
#444 = SURFACE_STYLE_USAGE(.BOTH.,#445);
#445 = SURFACE_SIDE_STYLE('',(#446));
#446 = SURFACE_STYLE_FILL_AREA(#447);
#447 = FILL_AREA_STYLE('',(#448));
#448 = FILL_AREA_STYLE_COLOUR('',#449);
#449 = COLOUR_RGB('',0.824000000954,0.819999992847,0.78100001812);
#450 = STYLED_ITEM('color',(#451),#301);
#451 = PRESENTATION_STYLE_ASSIGNMENT((#452));
#452 = SURFACE_STYLE_USAGE(.BOTH.,#453);
#453 = SURFACE_SIDE_STYLE('',(#454));
#454 = SURFACE_STYLE_FILL_AREA(#455);
#455 = FILL_AREA_STYLE('',(#456));
#456 = FILL_AREA_STYLE_COLOUR('',#420);
#457 = STYLED_ITEM('color',(#458),#310);
#458 = PRESENTATION_STYLE_ASSIGNMENT((#459));
#459 = SURFACE_STYLE_USAGE(.BOTH.,#460);
#460 = SURFACE_SIDE_STYLE('',(#461));
#461 = SURFACE_STYLE_FILL_AREA(#462);
#462 = FILL_AREA_STYLE('',(#463));
#463 = FILL_AREA_STYLE_COLOUR('',#449);
#464 = STYLED_ITEM('color',(#465),#336);
#465 = PRESENTATION_STYLE_ASSIGNMENT((#466));
#466 = SURFACE_STYLE_USAGE(.BOTH.,#467);
#467 = SURFACE_SIDE_STYLE('',(#468));
#468 = SURFACE_STYLE_FILL_AREA(#469);
#469 = FILL_AREA_STYLE('',(#470));
#470 = FILL_AREA_STYLE_COLOUR('',#449);
#471 = STYLED_ITEM('color',(#472),#362);
#472 = PRESENTATION_STYLE_ASSIGNMENT((#473));
#473 = SURFACE_STYLE_USAGE(.BOTH.,#474);
#474 = SURFACE_SIDE_STYLE('',(#475));
#475 = SURFACE_STYLE_FILL_AREA(#476);
#476 = FILL_AREA_STYLE('',(#477));
#477 = FILL_AREA_STYLE_COLOUR('',#449);
#478 = STYLED_ITEM('color',(#479),#388);
#479 = PRESENTATION_STYLE_ASSIGNMENT((#480));
#480 = SURFACE_STYLE_USAGE(.BOTH.,#481);
#481 = SURFACE_SIDE_STYLE('',(#482));
#482 = SURFACE_STYLE_FILL_AREA(#483);
#483 = FILL_AREA_STYLE('',(#484));
#484 = FILL_AREA_STYLE_COLOUR('',#449);
#485 = STYLED_ITEM('color',(#486),#397);
#486 = PRESENTATION_STYLE_ASSIGNMENT((#487));
#487 = SURFACE_STYLE_USAGE(.BOTH.,#488);
#488 = SURFACE_SIDE_STYLE('',(#489));
#489 = SURFACE_STYLE_FILL_AREA(#490);
#490 = FILL_AREA_STYLE('',(#491));
#491 = FILL_AREA_STYLE_COLOUR('',#449);
ENDSEC;
END-ISO-10303-21;
