ISO-10303-21;
HEADER;
/* RV_Disc_D15.5mm_W4.7mm_P7.5mm.step 3D STEP model for use in ECAD systems
 * Copyright (C) 2018, kicad StepUp
 * 
 * This work is licensed under the [Creative Commons CC-BY-SA 4.0 License](https://creativecommons.org/licenses/by-sa/4.0/legalcode), 
 * with the following exception:
 * To the extent that the creation of electronic designs that use 'Licensed Material' can be considered to be 'Adapted Material', 
 * then the copyright holder waives article 3 of the license with respect to these designs and any generated files which use data provided 
 * as part of the 'Licensed Material'.
 * You are free to use the library data in your own projects without the obligation to share your project files under this or any other license agreement.
 * However, if you wish to redistribute these libraries, or parts thereof (including in modified form) as a collection then the exception above does not apply. 
 * Please refer to https://github.com/KiCad/kicad-packages3D/blob/master/LICENSE.md for further clarification of the exception.
 * Disclaimer of Warranties and Limitation of Liability.
 * These libraries are provided in the hope that they will be useful, but are provided without warranty of any kind, express or implied.
 * *USE 3D CAD DATA AT YOUR OWN RISK*
 * *DO NOT RELY UPON ANY INFORMATION FOUND HERE WITHOUT INDEPENDENT VERIFICATION.*
 * 
 */

FILE_DESCRIPTION(
/* description */ ('model of RV_Disc_D15.5mm_W4.7mm_P7.5mm'),
/* implementation_level */ '2;1');

FILE_NAME(
/* name */ 'RV_Disc_D15.5mm_W4.7mm_P7.5mm.step',
/* time_stamp */ '2018-11-11T20:58:37',
/* author */ ('kicad StepUp','ksu'),
/* organization */ ('FreeCAD'),
/* preprocessor_version */ 'OCC',
/* originating_system */ 'kicad StepUp',
/* authorisation */ '');

FILE_SCHEMA(('AUTOMOTIVE_DESIGN { 1 0 10303 214 1 1 1 1 }'));
ENDSEC;

DATA;
#1 = APPLICATION_PROTOCOL_DEFINITION('international standard',
'automotive_design',2000,#2);
#2 = APPLICATION_CONTEXT(
'core data for automotive mechanical design processes');
#3 = SHAPE_DEFINITION_REPRESENTATION(#4,#10);
#4 = PRODUCT_DEFINITION_SHAPE('','',#5);
#5 = PRODUCT_DEFINITION('design','',#6,#9);
#6 = PRODUCT_DEFINITION_FORMATION('','',#7);
#7 = PRODUCT('RV_Disc_D155mm_W47mm_P75mm','RV_Disc_D155mm_W47mm_P75mm',
'',(#8));
#8 = PRODUCT_CONTEXT('',#2,'mechanical');
#9 = PRODUCT_DEFINITION_CONTEXT('part definition',#2,'design');
#10 = ADVANCED_BREP_SHAPE_REPRESENTATION('',(#11,#15),#382);
#11 = AXIS2_PLACEMENT_3D('',#12,#13,#14);
#12 = CARTESIAN_POINT('',(0.E+000,0.E+000,0.E+000));
#13 = DIRECTION('',(0.E+000,0.E+000,1.));
#14 = DIRECTION('',(1.,0.E+000,-0.E+000));
#15 = MANIFOLD_SOLID_BREP('',#16);
#16 = CLOSED_SHELL('',(#17,#50,#142,#242,#251,#277,#286,#312,#338,#364,
#373));
#17 = ADVANCED_FACE('',(#18),#45,.T.);
#18 = FACE_BOUND('',#19,.F.);
#19 = EDGE_LOOP('',(#20,#30,#37,#38));
#20 = ORIENTED_EDGE('',*,*,#21,.T.);
#21 = EDGE_CURVE('',#22,#24,#26,.T.);
#22 = VERTEX_POINT('',#23);
#23 = CARTESIAN_POINT('',(11.5,-0.942682926829,7.78));
#24 = VERTEX_POINT('',#25);
#25 = CARTESIAN_POINT('',(11.5,-1.057317073171,7.78));
#26 = LINE('',#27,#28);
#27 = CARTESIAN_POINT('',(11.5,1.35,7.78));
#28 = VECTOR('',#29,1.);
#29 = DIRECTION('',(0.E+000,-1.,0.E+000));
#30 = ORIENTED_EDGE('',*,*,#31,.T.);
#31 = EDGE_CURVE('',#24,#24,#32,.T.);
#32 = CIRCLE('',#33,7.75);
#33 = AXIS2_PLACEMENT_3D('',#34,#35,#36);
#34 = CARTESIAN_POINT('',(3.75,-1.057317073171,7.78));
#35 = DIRECTION('',(1.09450004193E-033,-1.,7.66150029351E-033));
#36 = DIRECTION('',(1.,1.09450004193E-033,-2.266502053784E-033));
#37 = ORIENTED_EDGE('',*,*,#21,.F.);
#38 = ORIENTED_EDGE('',*,*,#39,.F.);
#39 = EDGE_CURVE('',#22,#22,#40,.T.);
#40 = CIRCLE('',#41,7.75);
#41 = AXIS2_PLACEMENT_3D('',#42,#43,#44);
#42 = CARTESIAN_POINT('',(3.75,-0.942682926829,7.78));
#43 = DIRECTION('',(1.09450004193E-033,-1.,7.66150029351E-033));
#44 = DIRECTION('',(1.,1.09450004193E-033,2.266502053784E-033));
#45 = CYLINDRICAL_SURFACE('',#46,7.75);
#46 = AXIS2_PLACEMENT_3D('',#47,#48,#49);
#47 = CARTESIAN_POINT('',(3.75,1.35,7.78));
#48 = DIRECTION('',(0.E+000,1.,0.E+000));
#49 = DIRECTION('',(1.,0.E+000,0.E+000));
#50 = ADVANCED_FACE('',(#51,#71),#137,.T.);
#51 = FACE_BOUND('',#52,.F.);
#52 = EDGE_LOOP('',(#53,#54,#63,#70));
#53 = ORIENTED_EDGE('',*,*,#39,.T.);
#54 = ORIENTED_EDGE('',*,*,#55,.T.);
#55 = EDGE_CURVE('',#22,#56,#58,.T.);
#56 = VERTEX_POINT('',#57);
#57 = CARTESIAN_POINT('',(9.207317073171,1.35,7.78));
#58 = CIRCLE('',#59,2.292682926829);
#59 = AXIS2_PLACEMENT_3D('',#60,#61,#62);
#60 = CARTESIAN_POINT('',(9.207317073171,-0.942682926829,7.78));
#61 = DIRECTION('',(-2.266502053784E-033,7.66150029351E-033,1.));
#62 = DIRECTION('',(1.,1.09450004193E-033,2.266502053784E-033));
#63 = ORIENTED_EDGE('',*,*,#64,.F.);
#64 = EDGE_CURVE('',#56,#56,#65,.T.);
#65 = CIRCLE('',#66,5.457317073171);
#66 = AXIS2_PLACEMENT_3D('',#67,#68,#69);
#67 = CARTESIAN_POINT('',(3.75,1.35,7.78));
#68 = DIRECTION('',(1.09450004193E-033,-1.,7.66150029351E-033));
#69 = DIRECTION('',(1.,1.09450004193E-033,2.266502053784E-033));
#70 = ORIENTED_EDGE('',*,*,#55,.F.);
#71 = FACE_BOUND('',#72,.F.);
#72 = EDGE_LOOP('',(#73,#96));
#73 = ORIENTED_EDGE('',*,*,#74,.T.);
#74 = EDGE_CURVE('',#75,#77,#79,.T.);
#75 = VERTEX_POINT('',#76);
#76 = CARTESIAN_POINT('',(0.36,0.E+000,1.036958471135));
#77 = VERTEX_POINT('',#78);
#78 = CARTESIAN_POINT('',(-5.402654615204E-002,-0.355922930297,
1.115601790516));
#79 = B_SPLINE_CURVE_WITH_KNOTS('',8,(#80,#81,#82,#83,#84,#85,#86,#87,
#88,#89,#90,#91,#92,#93,#94,#95),.UNSPECIFIED.,.F.,.F.,(9,7,9),(
0.E+000,0.322407880625,1.),.UNSPECIFIED.);
#80 = CARTESIAN_POINT('',(0.36,-1.665334536938E-016,1.036958471135));
#81 = CARTESIAN_POINT('',(0.36,-2.356277532969E-002,1.025062624409));
#82 = CARTESIAN_POINT('',(0.358237413346,-4.733295658731E-002,
1.014362004785));
#83 = CARTESIAN_POINT('',(0.354658092593,-7.116212265674E-002,
1.004956246405));
#84 = CARTESIAN_POINT('',(0.349220646986,-9.488518500777E-002,
0.996936287157));
#85 = CARTESIAN_POINT('',(0.341903169927,-0.118320622513,0.990379301545)
);
#86 = CARTESIAN_POINT('',(0.332709595841,-0.141273516702,0.985343861959)
);
#87 = CARTESIAN_POINT('',(0.321675686463,-0.16354138745,0.981865328356)
);
#88 = CARTESIAN_POINT('',(0.281971198163,-0.229859374519,0.975929176885)
);
#89 = CARTESIAN_POINT('',(0.247285888895,-0.270841159991,0.978821660255)
);
#90 = CARTESIAN_POINT('',(0.205478235077,-0.306081427423,0.988674583964)
);
#91 = CARTESIAN_POINT('',(0.157759673489,-0.333960709507,1.005046572159)
);
#92 = CARTESIAN_POINT('',(0.105823518251,-0.353229642976,1.02708579894)
);
#93 = CARTESIAN_POINT('',(5.174713078994E-002,-0.363161569896,
1.053693764611));
#94 = CARTESIAN_POINT('',(-2.218345653559E-003,-0.363787043274,
1.083632492073));
#95 = CARTESIAN_POINT('',(-5.402654615204E-002,-0.355922930297,
1.115601790516));
#96 = ORIENTED_EDGE('',*,*,#97,.T.);
#97 = EDGE_CURVE('',#77,#75,#98,.T.);
#98 = B_SPLINE_CURVE_WITH_KNOTS('',7,(#99,#100,#101,#102,#103,#104,#105,
#106,#107,#108,#109,#110,#111,#112,#113,#114,#115,#116,#117,#118,
#119,#120,#121,#122,#123,#124,#125,#126,#127,#128,#129,#130,#131,
#132,#133,#134,#135,#136),.UNSPECIFIED.,.F.,.F.,(8,6,6,6,6,6,8),(
0.E+000,0.171542012613,0.4043898207,0.547447167915,0.676562294372,
0.812812355776,1.),.UNSPECIFIED.);
#99 = CARTESIAN_POINT('',(-5.402654615204E-002,-0.355922930297,
1.115601790516));
#100 = CARTESIAN_POINT('',(-9.559183553709E-002,-0.349613617706,
1.141250493394));
#101 = CARTESIAN_POINT('',(-0.135683288529,-0.3377345047,1.168198876312)
);
#102 = CARTESIAN_POINT('',(-0.173454958272,-0.320722077229,
1.195893264268));
#103 = CARTESIAN_POINT('',(-0.208237359475,-0.299144097646,
1.223891689917));
#104 = CARTESIAN_POINT('',(-0.239531086812,-0.273606487002,
1.251851293108));
#105 = CARTESIAN_POINT('',(-0.266970075838,-0.244696307481,
1.279499998168));
#106 = CARTESIAN_POINT('',(-0.321860341897,-0.169883742364,
1.343367264414));
#107 = CARTESIAN_POINT('',(-0.345762554303,-0.121667864432,
1.379060148522));
#108 = CARTESIAN_POINT('',(-0.361239088958,-6.97348487843E-002,
1.41304639754));
#109 = CARTESIAN_POINT('',(-0.367710739352,-1.553263118155E-002,
1.444661776476));
#110 = CARTESIAN_POINT('',(-0.364746807533,3.935735086456E-002,
1.473074324297));
#111 = CARTESIAN_POINT('',(-0.352119105084,9.318159670437E-002,
1.497116377723));
#112 = CARTESIAN_POINT('',(-0.316342796215,0.175175071079,1.52648532325)
);
#113 = CARTESIAN_POINT('',(-0.299135206678,0.205218977099,1.535448756657
));
#114 = CARTESIAN_POINT('',(-0.278385676614,0.233619855657,1.541850673116
));
#115 = CARTESIAN_POINT('',(-0.254227301079,0.259836493036,1.545298946562
));
#116 = CARTESIAN_POINT('',(-0.226939954851,0.283297927039,1.545403434688
));
#117 = CARTESIAN_POINT('',(-0.196980416293,0.303471729756,1.541872662518
));
#118 = CARTESIAN_POINT('',(-0.136095624253,0.334864125816,1.528152481286
));
#119 = CARTESIAN_POINT('',(-0.10552667592,0.346775362124,1.518640298824)
);
#120 = CARTESIAN_POINT('',(-7.376851586089E-002,0.355392277309,
1.506089831812));
#121 = CARTESIAN_POINT('',(-4.140248683975E-002,0.360545745251,
1.490638636613));
#122 = CARTESIAN_POINT('',(-9.036894295976E-003,0.362232756135,
1.472624797415));
#123 = CARTESIAN_POINT('',(2.274401366058E-002,0.360617799947,
1.452557900214));
#124 = CARTESIAN_POINT('',(8.580035527883E-002,0.351155379596,
1.408318195068));
#125 = CARTESIAN_POINT('',(0.117015817424,0.342958613811,1.383934150114)
);
#126 = CARTESIAN_POINT('',(0.146738148034,0.331726179471,1.358371665377)
);
#127 = CARTESIAN_POINT('',(0.174736862551,0.317762079017,1.332091894111)
);
#128 = CARTESIAN_POINT('',(0.20085145823,0.301337995472,1.305490102656)
);
#129 = CARTESIAN_POINT('',(0.224959192693,0.282676724522,1.278889873112)
);
#130 = CARTESIAN_POINT('',(0.27714527834,0.23348088197,1.216404501359));
#131 = CARTESIAN_POINT('',(0.303300376487,0.201151554866,1.180811719325)
);
#132 = CARTESIAN_POINT('',(0.32508709907,0.165465787747,1.146542546508)
);
#133 = CARTESIAN_POINT('',(0.342114904125,0.126880359018,1.114307425838)
);
#134 = CARTESIAN_POINT('',(0.353914620338,8.593367904232E-002,
1.084830535382));
#135 = CARTESIAN_POINT('',(0.36,4.333258634252E-002,1.05883525764));
#136 = CARTESIAN_POINT('',(0.36,-1.665334536938E-016,1.036958471135));
#137 = TOROIDAL_SURFACE('',#138,5.457317073171,2.292682926829);
#138 = AXIS2_PLACEMENT_3D('',#139,#140,#141);
#139 = CARTESIAN_POINT('',(3.75,-0.942682926829,7.78));
#140 = DIRECTION('',(-1.09450004193E-033,1.,-7.66150029351E-033));
#141 = DIRECTION('',(1.,1.09450004193E-033,2.266502053784E-033));
#142 = ADVANCED_FACE('',(#143,#163),#237,.T.);
#143 = FACE_BOUND('',#144,.T.);
#144 = EDGE_LOOP('',(#145,#146,#155,#162));
#145 = ORIENTED_EDGE('',*,*,#31,.T.);
#146 = ORIENTED_EDGE('',*,*,#147,.T.);
#147 = EDGE_CURVE('',#24,#148,#150,.T.);
#148 = VERTEX_POINT('',#149);
#149 = CARTESIAN_POINT('',(9.207317073171,-3.35,7.78));
#150 = CIRCLE('',#151,2.292682926829);
#151 = AXIS2_PLACEMENT_3D('',#152,#153,#154);
#152 = CARTESIAN_POINT('',(9.207317073171,-1.057317073171,7.78));
#153 = DIRECTION('',(-2.266502053784E-033,-7.66150029351E-033,-1.));
#154 = DIRECTION('',(1.,1.09450004193E-033,-2.266502053784E-033));
#155 = ORIENTED_EDGE('',*,*,#156,.F.);
#156 = EDGE_CURVE('',#148,#148,#157,.T.);
#157 = CIRCLE('',#158,5.457317073171);
#158 = AXIS2_PLACEMENT_3D('',#159,#160,#161);
#159 = CARTESIAN_POINT('',(3.75,-3.35,7.78));
#160 = DIRECTION('',(1.09450004193E-033,-1.,7.66150029351E-033));
#161 = DIRECTION('',(1.,1.09450004193E-033,-2.266502053784E-033));
#162 = ORIENTED_EDGE('',*,*,#147,.F.);
#163 = FACE_BOUND('',#164,.T.);
#164 = EDGE_LOOP('',(#165,#202));
#165 = ORIENTED_EDGE('',*,*,#166,.T.);
#166 = EDGE_CURVE('',#167,#169,#171,.T.);
#167 = VERTEX_POINT('',#168);
#168 = CARTESIAN_POINT('',(7.86,-2.,1.450022981084));
#169 = VERTEX_POINT('',#170);
#170 = CARTESIAN_POINT('',(7.147258451007,-1.928073651463,1.005941371938
));
#171 = B_SPLINE_CURVE_WITH_KNOTS('',8,(#172,#173,#174,#175,#176,#177,
#178,#179,#180,#181,#182,#183,#184,#185,#186,#187,#188,#189,#190,
#191,#192,#193,#194,#195,#196,#197,#198,#199,#200,#201),
.UNSPECIFIED.,.F.,.F.,(9,7,7,7,9),(0.E+000,0.223180611733,
0.620773664507,0.889159903399,1.),.UNSPECIFIED.);
#172 = CARTESIAN_POINT('',(7.86,-2.,1.450022981084));
#173 = CARTESIAN_POINT('',(7.86,-1.97164879454,1.434775638865));
#174 = CARTESIAN_POINT('',(7.85744815342,-1.943436021974,1.418589012139)
);
#175 = CARTESIAN_POINT('',(7.852388468804,-1.915587326478,1.401600616623
));
#176 = CARTESIAN_POINT('',(7.844876447653,-1.888320098315,1.383930236593
));
#177 = CARTESIAN_POINT('',(7.834979397961,-1.861844995566,1.365684136269
));
#178 = CARTESIAN_POINT('',(7.822776747767,-1.83636746587,1.346959271209)
);
#179 = CARTESIAN_POINT('',(7.808360358691,-1.812089268158,1.32784749969)
);
#180 = CARTESIAN_POINT('',(7.762394864474,-1.748450896938,1.273865245483
));
#181 = CARTESIAN_POINT('',(7.726351952058,-1.71225656909,1.23845779454)
);
#182 = CARTESIAN_POINT('',(7.684242568263,-1.681527403423,1.202590669077
));
#183 = CARTESIAN_POINT('',(7.63669020352,-1.657404438883,1.16674996367)
);
#184 = CARTESIAN_POINT('',(7.58472003972,-1.641187836493,1.131676982156)
);
#185 = CARTESIAN_POINT('',(7.529929334732,-1.634073650945,1.098403767444
));
#186 = CARTESIAN_POINT('',(7.474524714275,-1.636719206996,1.068331402144
));
#187 = CARTESIAN_POINT('',(7.38469546158,-1.656952131595,1.025538925595)
);
#188 = CARTESIAN_POINT('',(7.349390975505,-1.669384919589,1.010397382833
));
#189 = CARTESIAN_POINT('',(7.315638546977,-1.685976773039,0.997713857305
));
#190 = CARTESIAN_POINT('',(7.28406303375,-1.706469240631,0.987815228705)
);
#191 = CARTESIAN_POINT('',(7.255225372262,-1.73047810771,0.980976568947)
);
#192 = CARTESIAN_POINT('',(7.229593792356,-1.757512003991,0.977395832389
));
#193 = CARTESIAN_POINT('',(7.207519210277,-1.786996888728,0.977167512328
));
#194 = CARTESIAN_POINT('',(7.181655311748,-1.831236848024,0.981530465773
));
#195 = CARTESIAN_POINT('',(7.17473830189,-1.844479453339,0.983371373045)
);
#196 = CARTESIAN_POINT('',(7.168478665972,-1.857990661232,0.985775730049
));
#197 = CARTESIAN_POINT('',(7.16288664527,-1.871726859459,0.988737768495)
);
#198 = CARTESIAN_POINT('',(7.157968216242,-1.885644853859,0.99224850997)
);
#199 = CARTESIAN_POINT('',(7.153725480029,-1.899702330626,0.996296068575
));
#200 = CARTESIAN_POINT('',(7.150157051952,-1.913858318585,1.000865953556
));
#201 = CARTESIAN_POINT('',(7.147258451007,-1.928073651463,1.005941371938
));
#202 = ORIENTED_EDGE('',*,*,#203,.T.);
#203 = EDGE_CURVE('',#169,#167,#204,.T.);
#204 = B_SPLINE_CURVE_WITH_KNOTS('',7,(#205,#206,#207,#208,#209,#210,
#211,#212,#213,#214,#215,#216,#217,#218,#219,#220,#221,#222,#223,
#224,#225,#226,#227,#228,#229,#230,#231,#232,#233,#234,#235,#236),
.UNSPECIFIED.,.F.,.F.,(8,6,6,6,6,8),(0.E+000,0.315327816822,
0.504394490397,0.679297374599,0.849958813424,1.),.UNSPECIFIED.);
#205 = CARTESIAN_POINT('',(7.147258451007,-1.928073651463,1.005941371938
));
#206 = CARTESIAN_POINT('',(7.136353938085,-1.98155161687,1.025035054158)
);
#207 = CARTESIAN_POINT('',(7.135142191041,-2.035811847907,1.051405716836
));
#208 = CARTESIAN_POINT('',(7.143294549608,-2.088732203748,1.084103959518
));
#209 = CARTESIAN_POINT('',(7.159896637148,-2.138680464095,1.121781588424
));
#210 = CARTESIAN_POINT('',(7.183999059004,-2.18456979926,1.163047758996)
);
#211 = CARTESIAN_POINT('',(7.214825909424,-2.225568213264,1.206599667922
));
#212 = CARTESIAN_POINT('',(7.273964702919,-2.281859285703,1.277711079267
));
#213 = CARTESIAN_POINT('',(7.298317985762,-2.300849509565,1.304663742303
));
#214 = CARTESIAN_POINT('',(7.324735284161,-2.317549840055,1.33162777738)
);
#215 = CARTESIAN_POINT('',(7.353089720777,-2.331729315083,1.358267958135
));
#216 = CARTESIAN_POINT('',(7.383214917665,-2.343105264781,1.384173287188
));
#217 = CARTESIAN_POINT('',(7.414870632318,-2.351360998733,1.40886317401)
);
#218 = CARTESIAN_POINT('',(7.47808615128,-2.360641762456,1.453069167043)
);
#219 = CARTESIAN_POINT('',(7.509542345164,-2.362172045513,1.472881112605
));
#220 = CARTESIAN_POINT('',(7.541564527109,-2.360465605277,1.490675795731
));
#221 = CARTESIAN_POINT('',(7.573578220333,-2.35536599039,1.505957514085)
);
#222 = CARTESIAN_POINT('',(7.604993438408,-2.346880374261,1.51840137253)
);
#223 = CARTESIAN_POINT('',(7.635252926043,-2.33517239177,1.527876519916)
);
#224 = CARTESIAN_POINT('',(7.691817064256,-2.306252451411,1.540789896725
));
#225 = CARTESIAN_POINT('',(7.718216612863,-2.289172290745,1.544372968874
));
#226 = CARTESIAN_POINT('',(7.742660059786,-2.26954742705,1.545187367201)
);
#227 = CARTESIAN_POINT('',(7.764825188072,-2.247717641493,1.543401936574
));
#228 = CARTESIAN_POINT('',(7.784493706076,-2.224054441529,1.539256118114
));
#229 = CARTESIAN_POINT('',(7.801538588557,-2.198922810207,1.533007078643
));
#230 = CARTESIAN_POINT('',(7.828513654653,-2.149570013966,1.517765932853
));
#231 = CARTESIAN_POINT('',(7.839055276027,-2.125604726272,1.509196236255
));
#232 = CARTESIAN_POINT('',(7.847476772185,-2.100986173959,1.499349982943
));
#233 = CARTESIAN_POINT('',(7.853766156772,-2.07592612507,1.488380844812)
);
#234 = CARTESIAN_POINT('',(7.857932714551,-2.050622130896,1.476426481448
));
#235 = CARTESIAN_POINT('',(7.86,-2.025256787855,1.463606138538));
#236 = CARTESIAN_POINT('',(7.86,-2.,1.450022981084));
#237 = TOROIDAL_SURFACE('',#238,5.457317073171,2.292682926829);
#238 = AXIS2_PLACEMENT_3D('',#239,#240,#241);
#239 = CARTESIAN_POINT('',(3.75,-1.057317073171,7.78));
#240 = DIRECTION('',(1.09450004193E-033,-1.,7.66150029351E-033));
#241 = DIRECTION('',(1.,1.09450004193E-033,-2.266502053784E-033));
#242 = ADVANCED_FACE('',(#243),#246,.F.);
#243 = FACE_BOUND('',#244,.F.);
#244 = EDGE_LOOP('',(#245));
#245 = ORIENTED_EDGE('',*,*,#64,.T.);
#246 = PLANE('',#247);
#247 = AXIS2_PLACEMENT_3D('',#248,#249,#250);
#248 = CARTESIAN_POINT('',(3.75,1.35,7.78));
#249 = DIRECTION('',(1.09450004193E-033,-1.,7.66150029351E-033));
#250 = DIRECTION('',(0.E+000,-7.66150029351E-033,-1.));
#251 = ADVANCED_FACE('',(#252),#272,.T.);
#252 = FACE_BOUND('',#253,.T.);
#253 = EDGE_LOOP('',(#254,#255,#263,#270,#271));
#254 = ORIENTED_EDGE('',*,*,#97,.T.);
#255 = ORIENTED_EDGE('',*,*,#256,.T.);
#256 = EDGE_CURVE('',#75,#257,#259,.T.);
#257 = VERTEX_POINT('',#258);
#258 = CARTESIAN_POINT('',(0.36,0.E+000,-2.856));
#259 = LINE('',#260,#261);
#260 = CARTESIAN_POINT('',(0.36,0.E+000,7.78));
#261 = VECTOR('',#262,1.);
#262 = DIRECTION('',(-0.E+000,-0.E+000,-1.));
#263 = ORIENTED_EDGE('',*,*,#264,.T.);
#264 = EDGE_CURVE('',#257,#257,#265,.T.);
#265 = CIRCLE('',#266,0.36);
#266 = AXIS2_PLACEMENT_3D('',#267,#268,#269);
#267 = CARTESIAN_POINT('',(0.E+000,0.E+000,-2.856));
#268 = DIRECTION('',(0.E+000,0.E+000,1.));
#269 = DIRECTION('',(1.,0.E+000,0.E+000));
#270 = ORIENTED_EDGE('',*,*,#256,.F.);
#271 = ORIENTED_EDGE('',*,*,#74,.T.);
#272 = CYLINDRICAL_SURFACE('',#273,0.36);
#273 = AXIS2_PLACEMENT_3D('',#274,#275,#276);
#274 = CARTESIAN_POINT('',(0.E+000,0.E+000,7.78));
#275 = DIRECTION('',(0.E+000,0.E+000,1.));
#276 = DIRECTION('',(1.,0.E+000,0.E+000));
#277 = ADVANCED_FACE('',(#278),#281,.T.);
#278 = FACE_BOUND('',#279,.T.);
#279 = EDGE_LOOP('',(#280));
#280 = ORIENTED_EDGE('',*,*,#156,.T.);
#281 = PLANE('',#282);
#282 = AXIS2_PLACEMENT_3D('',#283,#284,#285);
#283 = CARTESIAN_POINT('',(3.75,-3.35,7.78));
#284 = DIRECTION('',(1.09450004193E-033,-1.,7.66150029351E-033));
#285 = DIRECTION('',(0.E+000,-7.66150029351E-033,-1.));
#286 = ADVANCED_FACE('',(#287),#307,.T.);
#287 = FACE_BOUND('',#288,.T.);
#288 = EDGE_LOOP('',(#289,#290,#298,#305,#306));
#289 = ORIENTED_EDGE('',*,*,#166,.F.);
#290 = ORIENTED_EDGE('',*,*,#291,.T.);
#291 = EDGE_CURVE('',#167,#292,#294,.T.);
#292 = VERTEX_POINT('',#293);
#293 = CARTESIAN_POINT('',(7.86,-2.,-2.856));
#294 = LINE('',#295,#296);
#295 = CARTESIAN_POINT('',(7.86,-2.,7.78));
#296 = VECTOR('',#297,1.);
#297 = DIRECTION('',(-0.E+000,-0.E+000,-1.));
#298 = ORIENTED_EDGE('',*,*,#299,.T.);
#299 = EDGE_CURVE('',#292,#292,#300,.T.);
#300 = CIRCLE('',#301,0.36);
#301 = AXIS2_PLACEMENT_3D('',#302,#303,#304);
#302 = CARTESIAN_POINT('',(7.5,-2.,-2.856));
#303 = DIRECTION('',(0.E+000,0.E+000,1.));
#304 = DIRECTION('',(1.,0.E+000,0.E+000));
#305 = ORIENTED_EDGE('',*,*,#291,.F.);
#306 = ORIENTED_EDGE('',*,*,#203,.F.);
#307 = CYLINDRICAL_SURFACE('',#308,0.36);
#308 = AXIS2_PLACEMENT_3D('',#309,#310,#311);
#309 = CARTESIAN_POINT('',(7.5,-2.,7.78));
#310 = DIRECTION('',(0.E+000,0.E+000,1.));
#311 = DIRECTION('',(1.,0.E+000,0.E+000));
#312 = ADVANCED_FACE('',(#313),#333,.T.);
#313 = FACE_BOUND('',#314,.F.);
#314 = EDGE_LOOP('',(#315,#324,#325,#326));
#315 = ORIENTED_EDGE('',*,*,#316,.F.);
#316 = EDGE_CURVE('',#257,#317,#319,.T.);
#317 = VERTEX_POINT('',#318);
#318 = CARTESIAN_POINT('',(0.216,0.E+000,-3.));
#319 = CIRCLE('',#320,0.144);
#320 = AXIS2_PLACEMENT_3D('',#321,#322,#323);
#321 = CARTESIAN_POINT('',(0.216,0.E+000,-2.856));
#322 = DIRECTION('',(-0.E+000,1.,0.E+000));
#323 = DIRECTION('',(1.,0.E+000,0.E+000));
#324 = ORIENTED_EDGE('',*,*,#264,.T.);
#325 = ORIENTED_EDGE('',*,*,#316,.T.);
#326 = ORIENTED_EDGE('',*,*,#327,.F.);
#327 = EDGE_CURVE('',#317,#317,#328,.T.);
#328 = CIRCLE('',#329,0.216);
#329 = AXIS2_PLACEMENT_3D('',#330,#331,#332);
#330 = CARTESIAN_POINT('',(0.E+000,0.E+000,-3.));
#331 = DIRECTION('',(0.E+000,0.E+000,1.));
#332 = DIRECTION('',(1.,0.E+000,0.E+000));
#333 = TOROIDAL_SURFACE('',#334,0.216,0.144);
#334 = AXIS2_PLACEMENT_3D('',#335,#336,#337);
#335 = CARTESIAN_POINT('',(0.E+000,0.E+000,-2.856));
#336 = DIRECTION('',(-0.E+000,-0.E+000,-1.));
#337 = DIRECTION('',(1.,0.E+000,0.E+000));
#338 = ADVANCED_FACE('',(#339),#359,.T.);
#339 = FACE_BOUND('',#340,.F.);
#340 = EDGE_LOOP('',(#341,#350,#351,#352));
#341 = ORIENTED_EDGE('',*,*,#342,.F.);
#342 = EDGE_CURVE('',#292,#343,#345,.T.);
#343 = VERTEX_POINT('',#344);
#344 = CARTESIAN_POINT('',(7.716,-2.,-3.));
#345 = CIRCLE('',#346,0.144);
#346 = AXIS2_PLACEMENT_3D('',#347,#348,#349);
#347 = CARTESIAN_POINT('',(7.716,-2.,-2.856));
#348 = DIRECTION('',(-0.E+000,1.,0.E+000));
#349 = DIRECTION('',(1.,0.E+000,0.E+000));
#350 = ORIENTED_EDGE('',*,*,#299,.T.);
#351 = ORIENTED_EDGE('',*,*,#342,.T.);
#352 = ORIENTED_EDGE('',*,*,#353,.F.);
#353 = EDGE_CURVE('',#343,#343,#354,.T.);
#354 = CIRCLE('',#355,0.216);
#355 = AXIS2_PLACEMENT_3D('',#356,#357,#358);
#356 = CARTESIAN_POINT('',(7.5,-2.,-3.));
#357 = DIRECTION('',(0.E+000,0.E+000,1.));
#358 = DIRECTION('',(1.,0.E+000,0.E+000));
#359 = TOROIDAL_SURFACE('',#360,0.216,0.144);
#360 = AXIS2_PLACEMENT_3D('',#361,#362,#363);
#361 = CARTESIAN_POINT('',(7.5,-2.,-2.856));
#362 = DIRECTION('',(-0.E+000,-0.E+000,-1.));
#363 = DIRECTION('',(1.,0.E+000,0.E+000));
#364 = ADVANCED_FACE('',(#365),#368,.F.);
#365 = FACE_BOUND('',#366,.F.);
#366 = EDGE_LOOP('',(#367));
#367 = ORIENTED_EDGE('',*,*,#327,.T.);
#368 = PLANE('',#369);
#369 = AXIS2_PLACEMENT_3D('',#370,#371,#372);
#370 = CARTESIAN_POINT('',(-1.483767504926E-017,1.497958850874E-017,-3.)
);
#371 = DIRECTION('',(0.E+000,0.E+000,1.));
#372 = DIRECTION('',(1.,0.E+000,0.E+000));
#373 = ADVANCED_FACE('',(#374),#377,.F.);
#374 = FACE_BOUND('',#375,.F.);
#375 = EDGE_LOOP('',(#376));
#376 = ORIENTED_EDGE('',*,*,#353,.T.);
#377 = PLANE('',#378);
#378 = AXIS2_PLACEMENT_3D('',#379,#380,#381);
#379 = CARTESIAN_POINT('',(7.5,-2.,-3.));
#380 = DIRECTION('',(0.E+000,0.E+000,1.));
#381 = DIRECTION('',(1.,0.E+000,0.E+000));
#382 = ( GEOMETRIC_REPRESENTATION_CONTEXT(3)
GLOBAL_UNCERTAINTY_ASSIGNED_CONTEXT((#386)) GLOBAL_UNIT_ASSIGNED_CONTEXT
((#383,#384,#385)) REPRESENTATION_CONTEXT('Context #1',
'3D Context with UNIT and UNCERTAINTY') );
#383 = ( LENGTH_UNIT() NAMED_UNIT(*) SI_UNIT(.MILLI.,.METRE.) );
#384 = ( NAMED_UNIT(*) PLANE_ANGLE_UNIT() SI_UNIT($,.RADIAN.) );
#385 = ( NAMED_UNIT(*) SI_UNIT($,.STERADIAN.) SOLID_ANGLE_UNIT() );
#386 = UNCERTAINTY_MEASURE_WITH_UNIT(LENGTH_MEASURE(1.E-007),#383,
'distance_accuracy_value','confusion accuracy');
#387 = PRODUCT_RELATED_PRODUCT_CATEGORY('part',$,(#7));
#388 = MECHANICAL_DESIGN_GEOMETRIC_PRESENTATION_REPRESENTATION('',(#389,
#397,#404,#411,#418,#426,#433,#440,#447,#454,#461),#382);
#389 = STYLED_ITEM('color',(#390),#17);
#390 = PRESENTATION_STYLE_ASSIGNMENT((#391));
#391 = SURFACE_STYLE_USAGE(.BOTH.,#392);
#392 = SURFACE_SIDE_STYLE('',(#393));
#393 = SURFACE_STYLE_FILL_AREA(#394);
#394 = FILL_AREA_STYLE('',(#395));
#395 = FILL_AREA_STYLE_COLOUR('',#396);
#396 = COLOUR_RGB('',0.136999994516,0.402000010014,0.726999998093);
#397 = STYLED_ITEM('color',(#398),#50);
#398 = PRESENTATION_STYLE_ASSIGNMENT((#399));
#399 = SURFACE_STYLE_USAGE(.BOTH.,#400);
#400 = SURFACE_SIDE_STYLE('',(#401));
#401 = SURFACE_STYLE_FILL_AREA(#402);
#402 = FILL_AREA_STYLE('',(#403));
#403 = FILL_AREA_STYLE_COLOUR('',#396);
#404 = STYLED_ITEM('color',(#405),#142);
#405 = PRESENTATION_STYLE_ASSIGNMENT((#406));
#406 = SURFACE_STYLE_USAGE(.BOTH.,#407);
#407 = SURFACE_SIDE_STYLE('',(#408));
#408 = SURFACE_STYLE_FILL_AREA(#409);
#409 = FILL_AREA_STYLE('',(#410));
#410 = FILL_AREA_STYLE_COLOUR('',#396);
#411 = STYLED_ITEM('color',(#412),#242);
#412 = PRESENTATION_STYLE_ASSIGNMENT((#413));
#413 = SURFACE_STYLE_USAGE(.BOTH.,#414);
#414 = SURFACE_SIDE_STYLE('',(#415));
#415 = SURFACE_STYLE_FILL_AREA(#416);
#416 = FILL_AREA_STYLE('',(#417));
#417 = FILL_AREA_STYLE_COLOUR('',#396);
#418 = STYLED_ITEM('color',(#419),#251);
#419 = PRESENTATION_STYLE_ASSIGNMENT((#420));
#420 = SURFACE_STYLE_USAGE(.BOTH.,#421);
#421 = SURFACE_SIDE_STYLE('',(#422));
#422 = SURFACE_STYLE_FILL_AREA(#423);
#423 = FILL_AREA_STYLE('',(#424));
#424 = FILL_AREA_STYLE_COLOUR('',#425);
#425 = COLOUR_RGB('',0.824000000954,0.819999992847,0.78100001812);
#426 = STYLED_ITEM('color',(#427),#277);
#427 = PRESENTATION_STYLE_ASSIGNMENT((#428));
#428 = SURFACE_STYLE_USAGE(.BOTH.,#429);
#429 = SURFACE_SIDE_STYLE('',(#430));
#430 = SURFACE_STYLE_FILL_AREA(#431);
#431 = FILL_AREA_STYLE('',(#432));
#432 = FILL_AREA_STYLE_COLOUR('',#396);
#433 = STYLED_ITEM('color',(#434),#286);
#434 = PRESENTATION_STYLE_ASSIGNMENT((#435));
#435 = SURFACE_STYLE_USAGE(.BOTH.,#436);
#436 = SURFACE_SIDE_STYLE('',(#437));
#437 = SURFACE_STYLE_FILL_AREA(#438);
#438 = FILL_AREA_STYLE('',(#439));
#439 = FILL_AREA_STYLE_COLOUR('',#425);
#440 = STYLED_ITEM('color',(#441),#312);
#441 = PRESENTATION_STYLE_ASSIGNMENT((#442));
#442 = SURFACE_STYLE_USAGE(.BOTH.,#443);
#443 = SURFACE_SIDE_STYLE('',(#444));
#444 = SURFACE_STYLE_FILL_AREA(#445);
#445 = FILL_AREA_STYLE('',(#446));
#446 = FILL_AREA_STYLE_COLOUR('',#425);
#447 = STYLED_ITEM('color',(#448),#338);
#448 = PRESENTATION_STYLE_ASSIGNMENT((#449));
#449 = SURFACE_STYLE_USAGE(.BOTH.,#450);
#450 = SURFACE_SIDE_STYLE('',(#451));
#451 = SURFACE_STYLE_FILL_AREA(#452);
#452 = FILL_AREA_STYLE('',(#453));
#453 = FILL_AREA_STYLE_COLOUR('',#425);
#454 = STYLED_ITEM('color',(#455),#364);
#455 = PRESENTATION_STYLE_ASSIGNMENT((#456));
#456 = SURFACE_STYLE_USAGE(.BOTH.,#457);
#457 = SURFACE_SIDE_STYLE('',(#458));
#458 = SURFACE_STYLE_FILL_AREA(#459);
#459 = FILL_AREA_STYLE('',(#460));
#460 = FILL_AREA_STYLE_COLOUR('',#425);
#461 = STYLED_ITEM('color',(#462),#373);
#462 = PRESENTATION_STYLE_ASSIGNMENT((#463));
#463 = SURFACE_STYLE_USAGE(.BOTH.,#464);
#464 = SURFACE_SIDE_STYLE('',(#465));
#465 = SURFACE_STYLE_FILL_AREA(#466);
#466 = FILL_AREA_STYLE('',(#467));
#467 = FILL_AREA_STYLE_COLOUR('',#425);
ENDSEC;
END-ISO-10303-21;
