ISO-10303-21;
HEADER;
FILE_DESCRIPTION(('FreeCAD Model'),'2;1');
FILE_NAME(
'D:/KiCAD/packages3D-source/Package_TO_SOT_THT.3dshapes\\
TO-92L_Inline_Narrow.step','2017-11-28T22:19:46',('kicad StepUp'),(
    'ksu MCAD'),'Open CASCADE STEP processor 6.8','FreeCAD','Unknown');
FILE_SCHEMA(('AUTOMOTIVE_DESIGN_CC2 { 1 2 10303 214 -1 1 5 4 }'));
ENDSEC;
DATA;
#1 = APPLICATION_PROTOCOL_DEFINITION('committee draft',
  'automotive_design',1997,#2);
#2 = APPLICATION_CONTEXT(
  'core data for automotive mechanical design processes');
#3 = SHAPE_DEFINITION_REPRESENTATION(#4,#10);
#4 = PRODUCT_DEFINITION_SHAPE('','',#5);
#5 = PRODUCT_DEFINITION('design','',#6,#9);
#6 = PRODUCT_DEFINITION_FORMATION('','',#7);
#7 = PRODUCT('TO-92L_Inline_Narrow','TO-92L_Inline_Narrow','',(#8));
#8 = MECHANICAL_CONTEXT('',#2,'mechanical');
#9 = PRODUCT_DEFINITION_CONTEXT('part definition',#2,'design');
#10 = ADVANCED_BREP_SHAPE_REPRESENTATION('',(#11,#15),#527);
#11 = AXIS2_PLACEMENT_3D('',#12,#13,#14);
#12 = CARTESIAN_POINT('',(0.E+000,0.E+000,0.E+000));
#13 = DIRECTION('',(0.E+000,0.E+000,1.));
#14 = DIRECTION('',(1.,0.E+000,-0.E+000));
#15 = MANIFOLD_SOLID_BREP('',#16);
#16 = CLOSED_SHELL('',(#17,#57,#81,#193,#203,#234,#258,#282,#299,#330,
    #354,#378,#395,#426,#450,#474,#491,#503,#515));
#17 = ADVANCED_FACE('',(#18),#52,.F.);
#18 = FACE_BOUND('',#19,.F.);
#19 = EDGE_LOOP('',(#20,#30,#38,#46));
#20 = ORIENTED_EDGE('',*,*,#21,.T.);
#21 = EDGE_CURVE('',#22,#24,#26,.T.);
#22 = VERTEX_POINT('',#23);
#23 = CARTESIAN_POINT('',(-0.704841765813,-1.450000000001,2.5));
#24 = VERTEX_POINT('',#25);
#25 = CARTESIAN_POINT('',(-0.704841765813,-1.450000000001,10.5));
#26 = LINE('',#27,#28);
#27 = CARTESIAN_POINT('',(-0.704841765813,-1.450000000001,2.5));
#28 = VECTOR('',#29,1.);
#29 = DIRECTION('',(0.E+000,0.E+000,1.));
#30 = ORIENTED_EDGE('',*,*,#31,.T.);
#31 = EDGE_CURVE('',#24,#32,#34,.T.);
#32 = VERTEX_POINT('',#33);
#33 = CARTESIAN_POINT('',(3.244841765813,-1.450000000001,10.5));
#34 = LINE('',#35,#36);
#35 = CARTESIAN_POINT('',(-0.704841765813,-1.450000000001,10.5));
#36 = VECTOR('',#37,1.);
#37 = DIRECTION('',(1.,0.E+000,0.E+000));
#38 = ORIENTED_EDGE('',*,*,#39,.F.);
#39 = EDGE_CURVE('',#40,#32,#42,.T.);
#40 = VERTEX_POINT('',#41);
#41 = CARTESIAN_POINT('',(3.244841765813,-1.450000000001,2.5));
#42 = LINE('',#43,#44);
#43 = CARTESIAN_POINT('',(3.244841765813,-1.450000000001,2.5));
#44 = VECTOR('',#45,1.);
#45 = DIRECTION('',(0.E+000,0.E+000,1.));
#46 = ORIENTED_EDGE('',*,*,#47,.F.);
#47 = EDGE_CURVE('',#22,#40,#48,.T.);
#48 = LINE('',#49,#50);
#49 = CARTESIAN_POINT('',(-0.704841765813,-1.450000000001,2.5));
#50 = VECTOR('',#51,1.);
#51 = DIRECTION('',(1.,0.E+000,0.E+000));
#52 = PLANE('',#53);
#53 = AXIS2_PLACEMENT_3D('',#54,#55,#56);
#54 = CARTESIAN_POINT('',(-0.704841765813,-1.450000000001,2.5));
#55 = DIRECTION('',(0.E+000,1.,0.E+000));
#56 = DIRECTION('',(1.,0.E+000,0.E+000));
#57 = ADVANCED_FACE('',(#58),#76,.T.);
#58 = FACE_BOUND('',#59,.F.);
#59 = EDGE_LOOP('',(#60,#61,#68,#69));
#60 = ORIENTED_EDGE('',*,*,#39,.T.);
#61 = ORIENTED_EDGE('',*,*,#62,.T.);
#62 = EDGE_CURVE('',#32,#24,#63,.T.);
#63 = CIRCLE('',#64,2.45);
#64 = AXIS2_PLACEMENT_3D('',#65,#66,#67);
#65 = CARTESIAN_POINT('',(1.27,0.E+000,10.5));
#66 = DIRECTION('',(0.E+000,0.E+000,1.));
#67 = DIRECTION('',(1.,0.E+000,0.E+000));
#68 = ORIENTED_EDGE('',*,*,#21,.F.);
#69 = ORIENTED_EDGE('',*,*,#70,.F.);
#70 = EDGE_CURVE('',#40,#22,#71,.T.);
#71 = CIRCLE('',#72,2.45);
#72 = AXIS2_PLACEMENT_3D('',#73,#74,#75);
#73 = CARTESIAN_POINT('',(1.27,0.E+000,2.5));
#74 = DIRECTION('',(0.E+000,0.E+000,1.));
#75 = DIRECTION('',(1.,0.E+000,0.E+000));
#76 = CYLINDRICAL_SURFACE('',#77,2.45);
#77 = AXIS2_PLACEMENT_3D('',#78,#79,#80);
#78 = CARTESIAN_POINT('',(1.27,0.E+000,2.5));
#79 = DIRECTION('',(-0.E+000,-0.E+000,-1.));
#80 = DIRECTION('',(1.,0.E+000,0.E+000));
#81 = ADVANCED_FACE('',(#82,#86,#120,#154),#188,.T.);
#82 = FACE_BOUND('',#83,.T.);
#83 = EDGE_LOOP('',(#84,#85));
#84 = ORIENTED_EDGE('',*,*,#47,.F.);
#85 = ORIENTED_EDGE('',*,*,#70,.F.);
#86 = FACE_BOUND('',#87,.T.);
#87 = EDGE_LOOP('',(#88,#98,#106,#114));
#88 = ORIENTED_EDGE('',*,*,#89,.T.);
#89 = EDGE_CURVE('',#90,#92,#94,.T.);
#90 = VERTEX_POINT('',#91);
#91 = CARTESIAN_POINT('',(1.03,0.19,2.5));
#92 = VERTEX_POINT('',#93);
#93 = CARTESIAN_POINT('',(1.03,-0.19,2.5));
#94 = LINE('',#95,#96);
#95 = CARTESIAN_POINT('',(1.03,-0.82,2.5));
#96 = VECTOR('',#97,1.);
#97 = DIRECTION('',(0.E+000,-1.,0.E+000));
#98 = ORIENTED_EDGE('',*,*,#99,.T.);
#99 = EDGE_CURVE('',#92,#100,#102,.T.);
#100 = VERTEX_POINT('',#101);
#101 = CARTESIAN_POINT('',(1.51,-0.19,2.5));
#102 = LINE('',#103,#104);
#103 = CARTESIAN_POINT('',(0.402579117094,-0.19,2.5));
#104 = VECTOR('',#105,1.);
#105 = DIRECTION('',(1.,0.E+000,0.E+000));
#106 = ORIENTED_EDGE('',*,*,#107,.T.);
#107 = EDGE_CURVE('',#100,#108,#110,.T.);
#108 = VERTEX_POINT('',#109);
#109 = CARTESIAN_POINT('',(1.51,0.19,2.5));
#110 = LINE('',#111,#112);
#111 = CARTESIAN_POINT('',(1.51,-0.63,2.5));
#112 = VECTOR('',#113,1.);
#113 = DIRECTION('',(0.E+000,1.,0.E+000));
#114 = ORIENTED_EDGE('',*,*,#115,.T.);
#115 = EDGE_CURVE('',#108,#90,#116,.T.);
#116 = LINE('',#117,#118);
#117 = CARTESIAN_POINT('',(0.162579117094,0.19,2.5));
#118 = VECTOR('',#119,1.);
#119 = DIRECTION('',(-1.,-0.E+000,-0.E+000));
#120 = FACE_BOUND('',#121,.T.);
#121 = EDGE_LOOP('',(#122,#132,#140,#148));
#122 = ORIENTED_EDGE('',*,*,#123,.T.);
#123 = EDGE_CURVE('',#124,#126,#128,.T.);
#124 = VERTEX_POINT('',#125);
#125 = CARTESIAN_POINT('',(-0.24,0.19,2.5));
#126 = VERTEX_POINT('',#127);
#127 = CARTESIAN_POINT('',(-0.24,-0.19,2.5));
#128 = LINE('',#129,#130);
#129 = CARTESIAN_POINT('',(-0.24,-0.82,2.5));
#130 = VECTOR('',#131,1.);
#131 = DIRECTION('',(0.E+000,-1.,0.E+000));
#132 = ORIENTED_EDGE('',*,*,#133,.T.);
#133 = EDGE_CURVE('',#126,#134,#136,.T.);
#134 = VERTEX_POINT('',#135);
#135 = CARTESIAN_POINT('',(0.24,-0.19,2.5));
#136 = LINE('',#137,#138);
#137 = CARTESIAN_POINT('',(-0.232420882906,-0.19,2.5));
#138 = VECTOR('',#139,1.);
#139 = DIRECTION('',(1.,0.E+000,0.E+000));
#140 = ORIENTED_EDGE('',*,*,#141,.T.);
#141 = EDGE_CURVE('',#134,#142,#144,.T.);
#142 = VERTEX_POINT('',#143);
#143 = CARTESIAN_POINT('',(0.24,0.19,2.5));
#144 = LINE('',#145,#146);
#145 = CARTESIAN_POINT('',(0.24,-0.63,2.5));
#146 = VECTOR('',#147,1.);
#147 = DIRECTION('',(0.E+000,1.,0.E+000));
#148 = ORIENTED_EDGE('',*,*,#149,.T.);
#149 = EDGE_CURVE('',#142,#124,#150,.T.);
#150 = LINE('',#151,#152);
#151 = CARTESIAN_POINT('',(-0.472420882906,0.19,2.5));
#152 = VECTOR('',#153,1.);
#153 = DIRECTION('',(-1.,-0.E+000,-0.E+000));
#154 = FACE_BOUND('',#155,.T.);
#155 = EDGE_LOOP('',(#156,#166,#174,#182));
#156 = ORIENTED_EDGE('',*,*,#157,.T.);
#157 = EDGE_CURVE('',#158,#160,#162,.T.);
#158 = VERTEX_POINT('',#159);
#159 = CARTESIAN_POINT('',(2.78,0.19,2.5));
#160 = VERTEX_POINT('',#161);
#161 = CARTESIAN_POINT('',(2.3,0.19,2.5));
#162 = LINE('',#163,#164);
#163 = CARTESIAN_POINT('',(0.797579117094,0.19,2.5));
#164 = VECTOR('',#165,1.);
#165 = DIRECTION('',(-1.,-0.E+000,-0.E+000));
#166 = ORIENTED_EDGE('',*,*,#167,.T.);
#167 = EDGE_CURVE('',#160,#168,#170,.T.);
#168 = VERTEX_POINT('',#169);
#169 = CARTESIAN_POINT('',(2.3,-0.19,2.5));
#170 = LINE('',#171,#172);
#171 = CARTESIAN_POINT('',(2.3,-0.82,2.5));
#172 = VECTOR('',#173,1.);
#173 = DIRECTION('',(0.E+000,-1.,0.E+000));
#174 = ORIENTED_EDGE('',*,*,#175,.T.);
#175 = EDGE_CURVE('',#168,#176,#178,.T.);
#176 = VERTEX_POINT('',#177);
#177 = CARTESIAN_POINT('',(2.78,-0.19,2.5));
#178 = LINE('',#179,#180);
#179 = CARTESIAN_POINT('',(1.037579117094,-0.19,2.5));
#180 = VECTOR('',#181,1.);
#181 = DIRECTION('',(1.,0.E+000,0.E+000));
#182 = ORIENTED_EDGE('',*,*,#183,.T.);
#183 = EDGE_CURVE('',#176,#158,#184,.T.);
#184 = LINE('',#185,#186);
#185 = CARTESIAN_POINT('',(2.78,-0.63,2.5));
#186 = VECTOR('',#187,1.);
#187 = DIRECTION('',(0.E+000,1.,0.E+000));
#188 = PLANE('',#189);
#189 = AXIS2_PLACEMENT_3D('',#190,#191,#192);
#190 = CARTESIAN_POINT('',(-0.704841765813,-1.450000000001,2.5));
#191 = DIRECTION('',(0.E+000,0.E+000,-1.));
#192 = DIRECTION('',(-1.,0.E+000,0.E+000));
#193 = ADVANCED_FACE('',(#194),#198,.F.);
#194 = FACE_BOUND('',#195,.T.);
#195 = EDGE_LOOP('',(#196,#197));
#196 = ORIENTED_EDGE('',*,*,#31,.T.);
#197 = ORIENTED_EDGE('',*,*,#62,.T.);
#198 = PLANE('',#199);
#199 = AXIS2_PLACEMENT_3D('',#200,#201,#202);
#200 = CARTESIAN_POINT('',(-0.704841765813,-1.450000000001,10.5));
#201 = DIRECTION('',(0.E+000,0.E+000,-1.));
#202 = DIRECTION('',(-1.,0.E+000,0.E+000));
#203 = ADVANCED_FACE('',(#204),#229,.F.);
#204 = FACE_BOUND('',#205,.F.);
#205 = EDGE_LOOP('',(#206,#207,#215,#223));
#206 = ORIENTED_EDGE('',*,*,#89,.T.);
#207 = ORIENTED_EDGE('',*,*,#208,.T.);
#208 = EDGE_CURVE('',#92,#209,#211,.T.);
#209 = VERTEX_POINT('',#210);
#210 = CARTESIAN_POINT('',(1.03,-0.19,-2.45));
#211 = LINE('',#212,#213);
#212 = CARTESIAN_POINT('',(1.03,-0.19,2.55));
#213 = VECTOR('',#214,1.);
#214 = DIRECTION('',(-0.E+000,-0.E+000,-1.));
#215 = ORIENTED_EDGE('',*,*,#216,.T.);
#216 = EDGE_CURVE('',#209,#217,#219,.T.);
#217 = VERTEX_POINT('',#218);
#218 = CARTESIAN_POINT('',(1.03,0.19,-2.45));
#219 = LINE('',#220,#221);
#220 = CARTESIAN_POINT('',(1.03,-0.19,-2.45));
#221 = VECTOR('',#222,1.);
#222 = DIRECTION('',(0.E+000,1.,0.E+000));
#223 = ORIENTED_EDGE('',*,*,#224,.F.);
#224 = EDGE_CURVE('',#90,#217,#225,.T.);
#225 = LINE('',#226,#227);
#226 = CARTESIAN_POINT('',(1.03,0.19,2.55));
#227 = VECTOR('',#228,1.);
#228 = DIRECTION('',(-0.E+000,-0.E+000,-1.));
#229 = PLANE('',#230);
#230 = AXIS2_PLACEMENT_3D('',#231,#232,#233);
#231 = CARTESIAN_POINT('',(1.03,-0.19,2.55));
#232 = DIRECTION('',(1.,0.E+000,0.E+000));
#233 = DIRECTION('',(0.E+000,1.,0.E+000));
#234 = ADVANCED_FACE('',(#235),#253,.F.);
#235 = FACE_BOUND('',#236,.F.);
#236 = EDGE_LOOP('',(#237,#238,#239,#247));
#237 = ORIENTED_EDGE('',*,*,#115,.T.);
#238 = ORIENTED_EDGE('',*,*,#224,.T.);
#239 = ORIENTED_EDGE('',*,*,#240,.T.);
#240 = EDGE_CURVE('',#217,#241,#243,.T.);
#241 = VERTEX_POINT('',#242);
#242 = CARTESIAN_POINT('',(1.51,0.19,-2.45));
#243 = LINE('',#244,#245);
#244 = CARTESIAN_POINT('',(1.03,0.19,-2.45));
#245 = VECTOR('',#246,1.);
#246 = DIRECTION('',(1.,0.E+000,0.E+000));
#247 = ORIENTED_EDGE('',*,*,#248,.F.);
#248 = EDGE_CURVE('',#108,#241,#249,.T.);
#249 = LINE('',#250,#251);
#250 = CARTESIAN_POINT('',(1.51,0.19,2.55));
#251 = VECTOR('',#252,1.);
#252 = DIRECTION('',(-0.E+000,-0.E+000,-1.));
#253 = PLANE('',#254);
#254 = AXIS2_PLACEMENT_3D('',#255,#256,#257);
#255 = CARTESIAN_POINT('',(1.03,0.19,2.55));
#256 = DIRECTION('',(0.E+000,-1.,0.E+000));
#257 = DIRECTION('',(1.,0.E+000,0.E+000));
#258 = ADVANCED_FACE('',(#259),#277,.F.);
#259 = FACE_BOUND('',#260,.F.);
#260 = EDGE_LOOP('',(#261,#262,#263,#271));
#261 = ORIENTED_EDGE('',*,*,#107,.T.);
#262 = ORIENTED_EDGE('',*,*,#248,.T.);
#263 = ORIENTED_EDGE('',*,*,#264,.T.);
#264 = EDGE_CURVE('',#241,#265,#267,.T.);
#265 = VERTEX_POINT('',#266);
#266 = CARTESIAN_POINT('',(1.51,-0.19,-2.45));
#267 = LINE('',#268,#269);
#268 = CARTESIAN_POINT('',(1.51,0.19,-2.45));
#269 = VECTOR('',#270,1.);
#270 = DIRECTION('',(0.E+000,-1.,0.E+000));
#271 = ORIENTED_EDGE('',*,*,#272,.F.);
#272 = EDGE_CURVE('',#100,#265,#273,.T.);
#273 = LINE('',#274,#275);
#274 = CARTESIAN_POINT('',(1.51,-0.19,2.55));
#275 = VECTOR('',#276,1.);
#276 = DIRECTION('',(-0.E+000,-0.E+000,-1.));
#277 = PLANE('',#278);
#278 = AXIS2_PLACEMENT_3D('',#279,#280,#281);
#279 = CARTESIAN_POINT('',(1.51,0.19,2.55));
#280 = DIRECTION('',(-1.,0.E+000,0.E+000));
#281 = DIRECTION('',(0.E+000,-1.,0.E+000));
#282 = ADVANCED_FACE('',(#283),#294,.F.);
#283 = FACE_BOUND('',#284,.F.);
#284 = EDGE_LOOP('',(#285,#286,#287,#293));
#285 = ORIENTED_EDGE('',*,*,#99,.T.);
#286 = ORIENTED_EDGE('',*,*,#272,.T.);
#287 = ORIENTED_EDGE('',*,*,#288,.T.);
#288 = EDGE_CURVE('',#265,#209,#289,.T.);
#289 = LINE('',#290,#291);
#290 = CARTESIAN_POINT('',(1.51,-0.19,-2.45));
#291 = VECTOR('',#292,1.);
#292 = DIRECTION('',(-1.,0.E+000,0.E+000));
#293 = ORIENTED_EDGE('',*,*,#208,.F.);
#294 = PLANE('',#295);
#295 = AXIS2_PLACEMENT_3D('',#296,#297,#298);
#296 = CARTESIAN_POINT('',(1.51,-0.19,2.55));
#297 = DIRECTION('',(0.E+000,1.,0.E+000));
#298 = DIRECTION('',(-1.,0.E+000,0.E+000));
#299 = ADVANCED_FACE('',(#300),#325,.F.);
#300 = FACE_BOUND('',#301,.F.);
#301 = EDGE_LOOP('',(#302,#303,#311,#319));
#302 = ORIENTED_EDGE('',*,*,#123,.T.);
#303 = ORIENTED_EDGE('',*,*,#304,.T.);
#304 = EDGE_CURVE('',#126,#305,#307,.T.);
#305 = VERTEX_POINT('',#306);
#306 = CARTESIAN_POINT('',(-0.24,-0.19,-2.45));
#307 = LINE('',#308,#309);
#308 = CARTESIAN_POINT('',(-0.24,-0.19,2.55));
#309 = VECTOR('',#310,1.);
#310 = DIRECTION('',(-0.E+000,-0.E+000,-1.));
#311 = ORIENTED_EDGE('',*,*,#312,.T.);
#312 = EDGE_CURVE('',#305,#313,#315,.T.);
#313 = VERTEX_POINT('',#314);
#314 = CARTESIAN_POINT('',(-0.24,0.19,-2.45));
#315 = LINE('',#316,#317);
#316 = CARTESIAN_POINT('',(-0.24,-0.19,-2.45));
#317 = VECTOR('',#318,1.);
#318 = DIRECTION('',(0.E+000,1.,0.E+000));
#319 = ORIENTED_EDGE('',*,*,#320,.F.);
#320 = EDGE_CURVE('',#124,#313,#321,.T.);
#321 = LINE('',#322,#323);
#322 = CARTESIAN_POINT('',(-0.24,0.19,2.55));
#323 = VECTOR('',#324,1.);
#324 = DIRECTION('',(-0.E+000,-0.E+000,-1.));
#325 = PLANE('',#326);
#326 = AXIS2_PLACEMENT_3D('',#327,#328,#329);
#327 = CARTESIAN_POINT('',(-0.24,-0.19,2.55));
#328 = DIRECTION('',(1.,0.E+000,0.E+000));
#329 = DIRECTION('',(0.E+000,1.,0.E+000));
#330 = ADVANCED_FACE('',(#331),#349,.F.);
#331 = FACE_BOUND('',#332,.F.);
#332 = EDGE_LOOP('',(#333,#334,#335,#343));
#333 = ORIENTED_EDGE('',*,*,#149,.T.);
#334 = ORIENTED_EDGE('',*,*,#320,.T.);
#335 = ORIENTED_EDGE('',*,*,#336,.T.);
#336 = EDGE_CURVE('',#313,#337,#339,.T.);
#337 = VERTEX_POINT('',#338);
#338 = CARTESIAN_POINT('',(0.24,0.19,-2.45));
#339 = LINE('',#340,#341);
#340 = CARTESIAN_POINT('',(-0.24,0.19,-2.45));
#341 = VECTOR('',#342,1.);
#342 = DIRECTION('',(1.,0.E+000,0.E+000));
#343 = ORIENTED_EDGE('',*,*,#344,.F.);
#344 = EDGE_CURVE('',#142,#337,#345,.T.);
#345 = LINE('',#346,#347);
#346 = CARTESIAN_POINT('',(0.24,0.19,2.55));
#347 = VECTOR('',#348,1.);
#348 = DIRECTION('',(-0.E+000,-0.E+000,-1.));
#349 = PLANE('',#350);
#350 = AXIS2_PLACEMENT_3D('',#351,#352,#353);
#351 = CARTESIAN_POINT('',(-0.24,0.19,2.55));
#352 = DIRECTION('',(0.E+000,-1.,0.E+000));
#353 = DIRECTION('',(1.,0.E+000,0.E+000));
#354 = ADVANCED_FACE('',(#355),#373,.F.);
#355 = FACE_BOUND('',#356,.F.);
#356 = EDGE_LOOP('',(#357,#358,#359,#367));
#357 = ORIENTED_EDGE('',*,*,#141,.T.);
#358 = ORIENTED_EDGE('',*,*,#344,.T.);
#359 = ORIENTED_EDGE('',*,*,#360,.T.);
#360 = EDGE_CURVE('',#337,#361,#363,.T.);
#361 = VERTEX_POINT('',#362);
#362 = CARTESIAN_POINT('',(0.24,-0.19,-2.45));
#363 = LINE('',#364,#365);
#364 = CARTESIAN_POINT('',(0.24,0.19,-2.45));
#365 = VECTOR('',#366,1.);
#366 = DIRECTION('',(0.E+000,-1.,0.E+000));
#367 = ORIENTED_EDGE('',*,*,#368,.F.);
#368 = EDGE_CURVE('',#134,#361,#369,.T.);
#369 = LINE('',#370,#371);
#370 = CARTESIAN_POINT('',(0.24,-0.19,2.55));
#371 = VECTOR('',#372,1.);
#372 = DIRECTION('',(-0.E+000,-0.E+000,-1.));
#373 = PLANE('',#374);
#374 = AXIS2_PLACEMENT_3D('',#375,#376,#377);
#375 = CARTESIAN_POINT('',(0.24,0.19,2.55));
#376 = DIRECTION('',(-1.,0.E+000,0.E+000));
#377 = DIRECTION('',(0.E+000,-1.,0.E+000));
#378 = ADVANCED_FACE('',(#379),#390,.F.);
#379 = FACE_BOUND('',#380,.F.);
#380 = EDGE_LOOP('',(#381,#382,#383,#389));
#381 = ORIENTED_EDGE('',*,*,#133,.T.);
#382 = ORIENTED_EDGE('',*,*,#368,.T.);
#383 = ORIENTED_EDGE('',*,*,#384,.T.);
#384 = EDGE_CURVE('',#361,#305,#385,.T.);
#385 = LINE('',#386,#387);
#386 = CARTESIAN_POINT('',(0.24,-0.19,-2.45));
#387 = VECTOR('',#388,1.);
#388 = DIRECTION('',(-1.,0.E+000,0.E+000));
#389 = ORIENTED_EDGE('',*,*,#304,.F.);
#390 = PLANE('',#391);
#391 = AXIS2_PLACEMENT_3D('',#392,#393,#394);
#392 = CARTESIAN_POINT('',(0.24,-0.19,2.55));
#393 = DIRECTION('',(0.E+000,1.,0.E+000));
#394 = DIRECTION('',(-1.,0.E+000,0.E+000));
#395 = ADVANCED_FACE('',(#396),#421,.F.);
#396 = FACE_BOUND('',#397,.F.);
#397 = EDGE_LOOP('',(#398,#399,#407,#415));
#398 = ORIENTED_EDGE('',*,*,#157,.T.);
#399 = ORIENTED_EDGE('',*,*,#400,.T.);
#400 = EDGE_CURVE('',#160,#401,#403,.T.);
#401 = VERTEX_POINT('',#402);
#402 = CARTESIAN_POINT('',(2.3,0.19,-2.45));
#403 = LINE('',#404,#405);
#404 = CARTESIAN_POINT('',(2.3,0.19,2.55));
#405 = VECTOR('',#406,1.);
#406 = DIRECTION('',(-0.E+000,-0.E+000,-1.));
#407 = ORIENTED_EDGE('',*,*,#408,.T.);
#408 = EDGE_CURVE('',#401,#409,#411,.T.);
#409 = VERTEX_POINT('',#410);
#410 = CARTESIAN_POINT('',(2.78,0.19,-2.45));
#411 = LINE('',#412,#413);
#412 = CARTESIAN_POINT('',(2.3,0.19,-2.45));
#413 = VECTOR('',#414,1.);
#414 = DIRECTION('',(1.,0.E+000,0.E+000));
#415 = ORIENTED_EDGE('',*,*,#416,.F.);
#416 = EDGE_CURVE('',#158,#409,#417,.T.);
#417 = LINE('',#418,#419);
#418 = CARTESIAN_POINT('',(2.78,0.19,2.55));
#419 = VECTOR('',#420,1.);
#420 = DIRECTION('',(-0.E+000,-0.E+000,-1.));
#421 = PLANE('',#422);
#422 = AXIS2_PLACEMENT_3D('',#423,#424,#425);
#423 = CARTESIAN_POINT('',(2.3,0.19,2.55));
#424 = DIRECTION('',(0.E+000,-1.,0.E+000));
#425 = DIRECTION('',(1.,0.E+000,0.E+000));
#426 = ADVANCED_FACE('',(#427),#445,.F.);
#427 = FACE_BOUND('',#428,.F.);
#428 = EDGE_LOOP('',(#429,#430,#431,#439));
#429 = ORIENTED_EDGE('',*,*,#183,.T.);
#430 = ORIENTED_EDGE('',*,*,#416,.T.);
#431 = ORIENTED_EDGE('',*,*,#432,.T.);
#432 = EDGE_CURVE('',#409,#433,#435,.T.);
#433 = VERTEX_POINT('',#434);
#434 = CARTESIAN_POINT('',(2.78,-0.19,-2.45));
#435 = LINE('',#436,#437);
#436 = CARTESIAN_POINT('',(2.78,0.19,-2.45));
#437 = VECTOR('',#438,1.);
#438 = DIRECTION('',(0.E+000,-1.,0.E+000));
#439 = ORIENTED_EDGE('',*,*,#440,.F.);
#440 = EDGE_CURVE('',#176,#433,#441,.T.);
#441 = LINE('',#442,#443);
#442 = CARTESIAN_POINT('',(2.78,-0.19,2.55));
#443 = VECTOR('',#444,1.);
#444 = DIRECTION('',(-0.E+000,-0.E+000,-1.));
#445 = PLANE('',#446);
#446 = AXIS2_PLACEMENT_3D('',#447,#448,#449);
#447 = CARTESIAN_POINT('',(2.78,0.19,2.55));
#448 = DIRECTION('',(-1.,0.E+000,0.E+000));
#449 = DIRECTION('',(0.E+000,-1.,0.E+000));
#450 = ADVANCED_FACE('',(#451),#469,.F.);
#451 = FACE_BOUND('',#452,.F.);
#452 = EDGE_LOOP('',(#453,#454,#455,#463));
#453 = ORIENTED_EDGE('',*,*,#175,.T.);
#454 = ORIENTED_EDGE('',*,*,#440,.T.);
#455 = ORIENTED_EDGE('',*,*,#456,.T.);
#456 = EDGE_CURVE('',#433,#457,#459,.T.);
#457 = VERTEX_POINT('',#458);
#458 = CARTESIAN_POINT('',(2.3,-0.19,-2.45));
#459 = LINE('',#460,#461);
#460 = CARTESIAN_POINT('',(2.78,-0.19,-2.45));
#461 = VECTOR('',#462,1.);
#462 = DIRECTION('',(-1.,0.E+000,0.E+000));
#463 = ORIENTED_EDGE('',*,*,#464,.F.);
#464 = EDGE_CURVE('',#168,#457,#465,.T.);
#465 = LINE('',#466,#467);
#466 = CARTESIAN_POINT('',(2.3,-0.19,2.55));
#467 = VECTOR('',#468,1.);
#468 = DIRECTION('',(-0.E+000,-0.E+000,-1.));
#469 = PLANE('',#470);
#470 = AXIS2_PLACEMENT_3D('',#471,#472,#473);
#471 = CARTESIAN_POINT('',(2.78,-0.19,2.55));
#472 = DIRECTION('',(0.E+000,1.,0.E+000));
#473 = DIRECTION('',(-1.,0.E+000,0.E+000));
#474 = ADVANCED_FACE('',(#475),#486,.F.);
#475 = FACE_BOUND('',#476,.F.);
#476 = EDGE_LOOP('',(#477,#478,#479,#485));
#477 = ORIENTED_EDGE('',*,*,#167,.T.);
#478 = ORIENTED_EDGE('',*,*,#464,.T.);
#479 = ORIENTED_EDGE('',*,*,#480,.T.);
#480 = EDGE_CURVE('',#457,#401,#481,.T.);
#481 = LINE('',#482,#483);
#482 = CARTESIAN_POINT('',(2.3,-0.19,-2.45));
#483 = VECTOR('',#484,1.);
#484 = DIRECTION('',(0.E+000,1.,0.E+000));
#485 = ORIENTED_EDGE('',*,*,#400,.F.);
#486 = PLANE('',#487);
#487 = AXIS2_PLACEMENT_3D('',#488,#489,#490);
#488 = CARTESIAN_POINT('',(2.3,-0.19,2.55));
#489 = DIRECTION('',(1.,0.E+000,0.E+000));
#490 = DIRECTION('',(0.E+000,1.,0.E+000));
#491 = ADVANCED_FACE('',(#492),#498,.F.);
#492 = FACE_BOUND('',#493,.T.);
#493 = EDGE_LOOP('',(#494,#495,#496,#497));
#494 = ORIENTED_EDGE('',*,*,#240,.T.);
#495 = ORIENTED_EDGE('',*,*,#264,.T.);
#496 = ORIENTED_EDGE('',*,*,#288,.T.);
#497 = ORIENTED_EDGE('',*,*,#216,.T.);
#498 = PLANE('',#499);
#499 = AXIS2_PLACEMENT_3D('',#500,#501,#502);
#500 = CARTESIAN_POINT('',(1.03,0.19,-2.45));
#501 = DIRECTION('',(0.E+000,0.E+000,1.));
#502 = DIRECTION('',(1.,0.E+000,0.E+000));
#503 = ADVANCED_FACE('',(#504),#510,.F.);
#504 = FACE_BOUND('',#505,.T.);
#505 = EDGE_LOOP('',(#506,#507,#508,#509));
#506 = ORIENTED_EDGE('',*,*,#336,.T.);
#507 = ORIENTED_EDGE('',*,*,#360,.T.);
#508 = ORIENTED_EDGE('',*,*,#384,.T.);
#509 = ORIENTED_EDGE('',*,*,#312,.T.);
#510 = PLANE('',#511);
#511 = AXIS2_PLACEMENT_3D('',#512,#513,#514);
#512 = CARTESIAN_POINT('',(-0.24,0.19,-2.45));
#513 = DIRECTION('',(0.E+000,0.E+000,1.));
#514 = DIRECTION('',(1.,0.E+000,0.E+000));
#515 = ADVANCED_FACE('',(#516),#522,.F.);
#516 = FACE_BOUND('',#517,.T.);
#517 = EDGE_LOOP('',(#518,#519,#520,#521));
#518 = ORIENTED_EDGE('',*,*,#408,.T.);
#519 = ORIENTED_EDGE('',*,*,#432,.T.);
#520 = ORIENTED_EDGE('',*,*,#456,.T.);
#521 = ORIENTED_EDGE('',*,*,#480,.T.);
#522 = PLANE('',#523);
#523 = AXIS2_PLACEMENT_3D('',#524,#525,#526);
#524 = CARTESIAN_POINT('',(2.3,0.19,-2.45));
#525 = DIRECTION('',(0.E+000,0.E+000,1.));
#526 = DIRECTION('',(1.,0.E+000,0.E+000));
#527 = ( GEOMETRIC_REPRESENTATION_CONTEXT(3) 
GLOBAL_UNCERTAINTY_ASSIGNED_CONTEXT((#531)) GLOBAL_UNIT_ASSIGNED_CONTEXT
((#528,#529,#530)) REPRESENTATION_CONTEXT('Context #1',
  '3D Context with UNIT and UNCERTAINTY') );
#528 = ( LENGTH_UNIT() NAMED_UNIT(*) SI_UNIT(.MILLI.,.METRE.) );
#529 = ( NAMED_UNIT(*) PLANE_ANGLE_UNIT() SI_UNIT($,.RADIAN.) );
#530 = ( NAMED_UNIT(*) SI_UNIT($,.STERADIAN.) SOLID_ANGLE_UNIT() );
#531 = UNCERTAINTY_MEASURE_WITH_UNIT(LENGTH_MEASURE(1.E-007),#528,
  'distance_accuracy_value','confusion accuracy');
#532 = PRODUCT_TYPE('part',$,(#7));
#533 = MECHANICAL_DESIGN_GEOMETRIC_PRESENTATION_REPRESENTATION('',(#534,
    #542,#549,#556,#563,#571,#578,#585,#592,#599,#606,#613,#620,#627,
    #634,#641,#648,#655,#662),#527);
#534 = STYLED_ITEM('color',(#535),#17);
#535 = PRESENTATION_STYLE_ASSIGNMENT((#536));
#536 = SURFACE_STYLE_USAGE(.BOTH.,#537);
#537 = SURFACE_SIDE_STYLE('',(#538));
#538 = SURFACE_STYLE_FILL_AREA(#539);
#539 = FILL_AREA_STYLE('',(#540));
#540 = FILL_AREA_STYLE_COLOUR('',#541);
#541 = COLOUR_RGB('',0.148000001907,0.144999995828,0.144999995828);
#542 = STYLED_ITEM('color',(#543),#57);
#543 = PRESENTATION_STYLE_ASSIGNMENT((#544));
#544 = SURFACE_STYLE_USAGE(.BOTH.,#545);
#545 = SURFACE_SIDE_STYLE('',(#546));
#546 = SURFACE_STYLE_FILL_AREA(#547);
#547 = FILL_AREA_STYLE('',(#548));
#548 = FILL_AREA_STYLE_COLOUR('',#541);
#549 = STYLED_ITEM('color',(#550),#81);
#550 = PRESENTATION_STYLE_ASSIGNMENT((#551));
#551 = SURFACE_STYLE_USAGE(.BOTH.,#552);
#552 = SURFACE_SIDE_STYLE('',(#553));
#553 = SURFACE_STYLE_FILL_AREA(#554);
#554 = FILL_AREA_STYLE('',(#555));
#555 = FILL_AREA_STYLE_COLOUR('',#541);
#556 = STYLED_ITEM('color',(#557),#193);
#557 = PRESENTATION_STYLE_ASSIGNMENT((#558));
#558 = SURFACE_STYLE_USAGE(.BOTH.,#559);
#559 = SURFACE_SIDE_STYLE('',(#560));
#560 = SURFACE_STYLE_FILL_AREA(#561);
#561 = FILL_AREA_STYLE('',(#562));
#562 = FILL_AREA_STYLE_COLOUR('',#541);
#563 = STYLED_ITEM('color',(#564),#203);
#564 = PRESENTATION_STYLE_ASSIGNMENT((#565));
#565 = SURFACE_STYLE_USAGE(.BOTH.,#566);
#566 = SURFACE_SIDE_STYLE('',(#567));
#567 = SURFACE_STYLE_FILL_AREA(#568);
#568 = FILL_AREA_STYLE('',(#569));
#569 = FILL_AREA_STYLE_COLOUR('',#570);
#570 = COLOUR_RGB('',0.824000000954,0.819999992847,0.78100001812);
#571 = STYLED_ITEM('color',(#572),#234);
#572 = PRESENTATION_STYLE_ASSIGNMENT((#573));
#573 = SURFACE_STYLE_USAGE(.BOTH.,#574);
#574 = SURFACE_SIDE_STYLE('',(#575));
#575 = SURFACE_STYLE_FILL_AREA(#576);
#576 = FILL_AREA_STYLE('',(#577));
#577 = FILL_AREA_STYLE_COLOUR('',#570);
#578 = STYLED_ITEM('color',(#579),#258);
#579 = PRESENTATION_STYLE_ASSIGNMENT((#580));
#580 = SURFACE_STYLE_USAGE(.BOTH.,#581);
#581 = SURFACE_SIDE_STYLE('',(#582));
#582 = SURFACE_STYLE_FILL_AREA(#583);
#583 = FILL_AREA_STYLE('',(#584));
#584 = FILL_AREA_STYLE_COLOUR('',#570);
#585 = STYLED_ITEM('color',(#586),#282);
#586 = PRESENTATION_STYLE_ASSIGNMENT((#587));
#587 = SURFACE_STYLE_USAGE(.BOTH.,#588);
#588 = SURFACE_SIDE_STYLE('',(#589));
#589 = SURFACE_STYLE_FILL_AREA(#590);
#590 = FILL_AREA_STYLE('',(#591));
#591 = FILL_AREA_STYLE_COLOUR('',#570);
#592 = STYLED_ITEM('color',(#593),#299);
#593 = PRESENTATION_STYLE_ASSIGNMENT((#594));
#594 = SURFACE_STYLE_USAGE(.BOTH.,#595);
#595 = SURFACE_SIDE_STYLE('',(#596));
#596 = SURFACE_STYLE_FILL_AREA(#597);
#597 = FILL_AREA_STYLE('',(#598));
#598 = FILL_AREA_STYLE_COLOUR('',#570);
#599 = STYLED_ITEM('color',(#600),#330);
#600 = PRESENTATION_STYLE_ASSIGNMENT((#601));
#601 = SURFACE_STYLE_USAGE(.BOTH.,#602);
#602 = SURFACE_SIDE_STYLE('',(#603));
#603 = SURFACE_STYLE_FILL_AREA(#604);
#604 = FILL_AREA_STYLE('',(#605));
#605 = FILL_AREA_STYLE_COLOUR('',#570);
#606 = STYLED_ITEM('color',(#607),#354);
#607 = PRESENTATION_STYLE_ASSIGNMENT((#608));
#608 = SURFACE_STYLE_USAGE(.BOTH.,#609);
#609 = SURFACE_SIDE_STYLE('',(#610));
#610 = SURFACE_STYLE_FILL_AREA(#611);
#611 = FILL_AREA_STYLE('',(#612));
#612 = FILL_AREA_STYLE_COLOUR('',#570);
#613 = STYLED_ITEM('color',(#614),#378);
#614 = PRESENTATION_STYLE_ASSIGNMENT((#615));
#615 = SURFACE_STYLE_USAGE(.BOTH.,#616);
#616 = SURFACE_SIDE_STYLE('',(#617));
#617 = SURFACE_STYLE_FILL_AREA(#618);
#618 = FILL_AREA_STYLE('',(#619));
#619 = FILL_AREA_STYLE_COLOUR('',#570);
#620 = STYLED_ITEM('color',(#621),#395);
#621 = PRESENTATION_STYLE_ASSIGNMENT((#622));
#622 = SURFACE_STYLE_USAGE(.BOTH.,#623);
#623 = SURFACE_SIDE_STYLE('',(#624));
#624 = SURFACE_STYLE_FILL_AREA(#625);
#625 = FILL_AREA_STYLE('',(#626));
#626 = FILL_AREA_STYLE_COLOUR('',#570);
#627 = STYLED_ITEM('color',(#628),#426);
#628 = PRESENTATION_STYLE_ASSIGNMENT((#629));
#629 = SURFACE_STYLE_USAGE(.BOTH.,#630);
#630 = SURFACE_SIDE_STYLE('',(#631));
#631 = SURFACE_STYLE_FILL_AREA(#632);
#632 = FILL_AREA_STYLE('',(#633));
#633 = FILL_AREA_STYLE_COLOUR('',#570);
#634 = STYLED_ITEM('color',(#635),#450);
#635 = PRESENTATION_STYLE_ASSIGNMENT((#636));
#636 = SURFACE_STYLE_USAGE(.BOTH.,#637);
#637 = SURFACE_SIDE_STYLE('',(#638));
#638 = SURFACE_STYLE_FILL_AREA(#639);
#639 = FILL_AREA_STYLE('',(#640));
#640 = FILL_AREA_STYLE_COLOUR('',#570);
#641 = STYLED_ITEM('color',(#642),#474);
#642 = PRESENTATION_STYLE_ASSIGNMENT((#643));
#643 = SURFACE_STYLE_USAGE(.BOTH.,#644);
#644 = SURFACE_SIDE_STYLE('',(#645));
#645 = SURFACE_STYLE_FILL_AREA(#646);
#646 = FILL_AREA_STYLE('',(#647));
#647 = FILL_AREA_STYLE_COLOUR('',#570);
#648 = STYLED_ITEM('color',(#649),#491);
#649 = PRESENTATION_STYLE_ASSIGNMENT((#650));
#650 = SURFACE_STYLE_USAGE(.BOTH.,#651);
#651 = SURFACE_SIDE_STYLE('',(#652));
#652 = SURFACE_STYLE_FILL_AREA(#653);
#653 = FILL_AREA_STYLE('',(#654));
#654 = FILL_AREA_STYLE_COLOUR('',#570);
#655 = STYLED_ITEM('color',(#656),#503);
#656 = PRESENTATION_STYLE_ASSIGNMENT((#657));
#657 = SURFACE_STYLE_USAGE(.BOTH.,#658);
#658 = SURFACE_SIDE_STYLE('',(#659));
#659 = SURFACE_STYLE_FILL_AREA(#660);
#660 = FILL_AREA_STYLE('',(#661));
#661 = FILL_AREA_STYLE_COLOUR('',#570);
#662 = STYLED_ITEM('color',(#663),#515);
#663 = PRESENTATION_STYLE_ASSIGNMENT((#664));
#664 = SURFACE_STYLE_USAGE(.BOTH.,#665);
#665 = SURFACE_SIDE_STYLE('',(#666));
#666 = SURFACE_STYLE_FILL_AREA(#667);
#667 = FILL_AREA_STYLE('',(#668));
#668 = FILL_AREA_STYLE_COLOUR('',#570);
ENDSEC;
END-ISO-10303-21;
