ISO-10303-21;
HEADER;
/* RV_Disc_D21.5mm_W6.3mm_P10mm.step 3D STEP model for use in ECAD systems
 * Copyright (C) 2018, kicad StepUp
 * 
 * This work is licensed under the [Creative Commons CC-BY-SA 4.0 License](https://creativecommons.org/licenses/by-sa/4.0/legalcode), 
 * with the following exception:
 * To the extent that the creation of electronic designs that use 'Licensed Material' can be considered to be 'Adapted Material', 
 * then the copyright holder waives article 3 of the license with respect to these designs and any generated files which use data provided 
 * as part of the 'Licensed Material'.
 * You are free to use the library data in your own projects without the obligation to share your project files under this or any other license agreement.
 * However, if you wish to redistribute these libraries, or parts thereof (including in modified form) as a collection then the exception above does not apply. 
 * Please refer to https://github.com/KiCad/kicad-packages3D/blob/master/LICENSE.md for further clarification of the exception.
 * Disclaimer of Warranties and Limitation of Liability.
 * These libraries are provided in the hope that they will be useful, but are provided without warranty of any kind, express or implied.
 * *USE 3D CAD DATA AT YOUR OWN RISK*
 * *DO NOT RELY UPON ANY INFORMATION FOUND HERE WITHOUT INDEPENDENT VERIFICATION.*
 * 
 */

FILE_DESCRIPTION(
/* description */ ('model of RV_Disc_D21.5mm_W6.3mm_P10mm'),
/* implementation_level */ '2;1');

FILE_NAME(
/* name */ 'RV_Disc_D21.5mm_W6.3mm_P10mm.step',
/* time_stamp */ '2018-11-11T21:04:48',
/* author */ ('kicad StepUp','ksu'),
/* organization */ ('FreeCAD'),
/* preprocessor_version */ 'OCC',
/* originating_system */ 'kicad StepUp',
/* authorisation */ '');

FILE_SCHEMA(('AUTOMOTIVE_DESIGN { 1 0 10303 214 1 1 1 1 }'));
ENDSEC;

DATA;
#1 = APPLICATION_PROTOCOL_DEFINITION('international standard',
'automotive_design',2000,#2);
#2 = APPLICATION_CONTEXT(
'core data for automotive mechanical design processes');
#3 = SHAPE_DEFINITION_REPRESENTATION(#4,#10);
#4 = PRODUCT_DEFINITION_SHAPE('','',#5);
#5 = PRODUCT_DEFINITION('design','',#6,#9);
#6 = PRODUCT_DEFINITION_FORMATION('','',#7);
#7 = PRODUCT('RV_Disc_D215mm_W63mm_P10mm','RV_Disc_D215mm_W63mm_P10mm',
'',(#8));
#8 = PRODUCT_CONTEXT('',#2,'mechanical');
#9 = PRODUCT_DEFINITION_CONTEXT('part definition',#2,'design');
#10 = ADVANCED_BREP_SHAPE_REPRESENTATION('',(#11,#15),#394);
#11 = AXIS2_PLACEMENT_3D('',#12,#13,#14);
#12 = CARTESIAN_POINT('',(0.E+000,0.E+000,0.E+000));
#13 = DIRECTION('',(0.E+000,0.E+000,1.));
#14 = DIRECTION('',(1.,0.E+000,-0.E+000));
#15 = MANIFOLD_SOLID_BREP('',#16);
#16 = CLOSED_SHELL('',(#17,#50,#158,#254,#263,#289,#298,#324,#350,#376,
#385));
#17 = ADVANCED_FACE('',(#18),#45,.T.);
#18 = FACE_BOUND('',#19,.F.);
#19 = EDGE_LOOP('',(#20,#30,#37,#38));
#20 = ORIENTED_EDGE('',*,*,#21,.T.);
#21 = EDGE_CURVE('',#22,#24,#26,.T.);
#22 = VERTEX_POINT('',#23);
#23 = CARTESIAN_POINT('',(15.75,-1.323170731707,10.78));
#24 = VERTEX_POINT('',#25);
#25 = CARTESIAN_POINT('',(15.75,-1.476829268293,10.78));
#26 = LINE('',#27,#28);
#27 = CARTESIAN_POINT('',(15.75,1.75,10.78));
#28 = VECTOR('',#29,1.);
#29 = DIRECTION('',(0.E+000,-1.,0.E+000));
#30 = ORIENTED_EDGE('',*,*,#31,.T.);
#31 = EDGE_CURVE('',#24,#24,#32,.T.);
#32 = CIRCLE('',#33,10.75);
#33 = AXIS2_PLACEMENT_3D('',#34,#35,#36);
#34 = CARTESIAN_POINT('',(5.,-1.476829268293,10.78));
#35 = DIRECTION('',(0.E+000,-1.,0.E+000));
#36 = DIRECTION('',(1.,0.E+000,0.E+000));
#37 = ORIENTED_EDGE('',*,*,#21,.F.);
#38 = ORIENTED_EDGE('',*,*,#39,.F.);
#39 = EDGE_CURVE('',#22,#22,#40,.T.);
#40 = CIRCLE('',#41,10.75);
#41 = AXIS2_PLACEMENT_3D('',#42,#43,#44);
#42 = CARTESIAN_POINT('',(5.,-1.323170731707,10.78));
#43 = DIRECTION('',(0.E+000,-1.,0.E+000));
#44 = DIRECTION('',(1.,0.E+000,0.E+000));
#45 = CYLINDRICAL_SURFACE('',#46,10.75);
#46 = AXIS2_PLACEMENT_3D('',#47,#48,#49);
#47 = CARTESIAN_POINT('',(5.,1.75,10.78));
#48 = DIRECTION('',(0.E+000,1.,0.E+000));
#49 = DIRECTION('',(1.,0.E+000,0.E+000));
#50 = ADVANCED_FACE('',(#51,#71),#153,.T.);
#51 = FACE_BOUND('',#52,.F.);
#52 = EDGE_LOOP('',(#53,#54,#63,#70));
#53 = ORIENTED_EDGE('',*,*,#39,.T.);
#54 = ORIENTED_EDGE('',*,*,#55,.T.);
#55 = EDGE_CURVE('',#22,#56,#58,.T.);
#56 = VERTEX_POINT('',#57);
#57 = CARTESIAN_POINT('',(12.676829268293,1.75,10.78));
#58 = CIRCLE('',#59,3.073170731707);
#59 = AXIS2_PLACEMENT_3D('',#60,#61,#62);
#60 = CARTESIAN_POINT('',(12.676829268293,-1.323170731707,10.78));
#61 = DIRECTION('',(0.E+000,0.E+000,1.));
#62 = DIRECTION('',(1.,0.E+000,0.E+000));
#63 = ORIENTED_EDGE('',*,*,#64,.F.);
#64 = EDGE_CURVE('',#56,#56,#65,.T.);
#65 = CIRCLE('',#66,7.676829268293);
#66 = AXIS2_PLACEMENT_3D('',#67,#68,#69);
#67 = CARTESIAN_POINT('',(5.,1.75,10.78));
#68 = DIRECTION('',(0.E+000,-1.,0.E+000));
#69 = DIRECTION('',(1.,0.E+000,0.E+000));
#70 = ORIENTED_EDGE('',*,*,#55,.F.);
#71 = FACE_BOUND('',#72,.F.);
#72 = EDGE_LOOP('',(#73,#106));
#73 = ORIENTED_EDGE('',*,*,#74,.T.);
#74 = EDGE_CURVE('',#75,#77,#79,.T.);
#75 = VERTEX_POINT('',#76);
#76 = CARTESIAN_POINT('',(0.45,0.E+000,1.371931000762));
#77 = VERTEX_POINT('',#78);
#78 = CARTESIAN_POINT('',(-0.254147139116,-0.371361322272,1.57508822345)
);
#79 = B_SPLINE_CURVE_WITH_KNOTS('',7,(#80,#81,#82,#83,#84,#85,#86,#87,
#88,#89,#90,#91,#92,#93,#94,#95,#96,#97,#98,#99,#100,#101,#102,#103,
#104,#105),.UNSPECIFIED.,.F.,.F.,(8,6,6,6,8),(0.E+000,
9.218701106695E-002,0.271953334499,0.486945273475,1.),
.UNSPECIFIED.);
#80 = CARTESIAN_POINT('',(0.45,-1.665334536938E-016,1.371931000762));
#81 = CARTESIAN_POINT('',(0.45,-1.21311555869E-002,1.365502754436));
#82 = CARTESIAN_POINT('',(0.449618554552,-2.431589812531E-002,
1.359315950132));
#83 = CARTESIAN_POINT('',(0.448849374978,-3.65408935564E-002,
1.353380775348));
#84 = CARTESIAN_POINT('',(0.447686881313,-4.879186940322E-002,
1.347707083829));
#85 = CARTESIAN_POINT('',(0.446126202305,-6.105361477076E-002,
1.342304395572));
#86 = CARTESIAN_POINT('',(0.444163175412,-7.330998034595E-002,
1.337181896823));
#87 = CARTESIAN_POINT('',(0.437175088575,-0.109400198811,1.32292311282)
);
#88 = CARTESIAN_POINT('',(0.431012780583,-0.13317283023,1.314595876478)
);
#89 = CARTESIAN_POINT('',(0.423283533455,-0.156732981854,1.307432688146)
);
#90 = CARTESIAN_POINT('',(0.413978807118,-0.179940245287,1.301489750371)
);
#91 = CARTESIAN_POINT('',(0.403109313672,-0.202646703632,1.296810370207)
);
#92 = CARTESIAN_POINT('',(0.390708920246,-0.224701040591,1.293421818278)
);
#93 = CARTESIAN_POINT('',(0.360250253598,-0.271368559123,1.288833089612)
);
#94 = CARTESIAN_POINT('',(0.341555948219,-0.295642008123,1.288191338789)
);
#95 = CARTESIAN_POINT('',(0.320859307628,-0.318512705188,1.289422718532)
);
#96 = CARTESIAN_POINT('',(0.298308862681,-0.339743307537,1.292501282433)
);
#97 = CARTESIAN_POINT('',(0.274090579501,-0.359125375229,1.297366270379)
);
#98 = CARTESIAN_POINT('',(0.248420435776,-0.376485325412,1.303929024417)
);
#99 = CARTESIAN_POINT('',(0.157382613606,-0.427975600473,1.331531087914)
);
#100 = CARTESIAN_POINT('',(8.583588640091E-002,-0.452261397169,
1.360172800956));
#101 = CARTESIAN_POINT('',(1.066280640065E-002,-0.461999981444,
1.396542097649));
#102 = CARTESIAN_POINT('',(-6.378745209714E-002,-0.457092934692,
1.438037117642));
#103 = CARTESIAN_POINT('',(-0.134138536541,-0.438989346522,
1.482623435551));
#104 = CARTESIAN_POINT('',(-0.19807709075,-0.409733768532,1.528691544401
));
#105 = CARTESIAN_POINT('',(-0.254147139116,-0.371361322272,1.57508822345
));
#106 = ORIENTED_EDGE('',*,*,#107,.T.);
#107 = EDGE_CURVE('',#77,#75,#108,.T.);
#108 = B_SPLINE_CURVE_WITH_KNOTS('',7,(#109,#110,#111,#112,#113,#114,
#115,#116,#117,#118,#119,#120,#121,#122,#123,#124,#125,#126,#127,
#128,#129,#130,#131,#132,#133,#134,#135,#136,#137,#138,#139,#140,
#141,#142,#143,#144,#145,#146,#147,#148,#149,#150,#151,#152),
.UNSPECIFIED.,.F.,.F.,(8,6,6,6,6,6,6,8),(0.E+000,8.013484898781E-002,
0.340967207428,0.399060013733,0.494862194355,0.639352960947,
0.795064777503,1.),.UNSPECIFIED.);
#109 = CARTESIAN_POINT('',(-0.254147139116,-0.371361322272,1.57508822345
));
#110 = CARTESIAN_POINT('',(-0.271587960711,-0.35942541337,1.589520103313
));
#111 = CARTESIAN_POINT('',(-0.288291279847,-0.346591035415,
1.604003473873));
#112 = CARTESIAN_POINT('',(-0.30421496377,-0.332911223536,1.618508287221
));
#113 = CARTESIAN_POINT('',(-0.319320787056,-0.318439166003,
1.633006602421));
#114 = CARTESIAN_POINT('',(-0.333573999009,-0.303228043526,
1.647472034687));
#115 = CARTESIAN_POINT('',(-0.346942891059,-0.287330868574,
1.661879204573));
#116 = CARTESIAN_POINT('',(-0.39993990712,-0.216994760593,1.722826575182
));
#117 = CARTESIAN_POINT('',(-0.430757044247,-0.156541299284,
1.768514343508));
#118 = CARTESIAN_POINT('',(-0.450954959296,-9.119658043609E-002,
1.812490089638));
#119 = CARTESIAN_POINT('',(-0.459733993708,-2.273530299932E-002,
1.853901011758));
#120 = CARTESIAN_POINT('',(-0.456446684183,4.684486341637E-002,
1.891649077068));
#121 = CARTESIAN_POINT('',(-0.440675237907,0.115307262677,1.924186824089
));
#122 = CARTESIAN_POINT('',(-0.406115129012,0.19446863546,1.955074376261)
);
#123 = CARTESIAN_POINT('',(-0.399202609552,0.208697999672,1.960337528911
));
#124 = CARTESIAN_POINT('',(-0.391674471576,0.222706712003,1.965214527272
));
#125 = CARTESIAN_POINT('',(-0.38353446569,0.236462408781,1.969680928348)
);
#126 = CARTESIAN_POINT('',(-0.374788909935,0.249931343891,1.973711487778
));
#127 = CARTESIAN_POINT('',(-0.365447220043,0.263078743802,1.977280719078
));
#128 = CARTESIAN_POINT('',(-0.339155256583,0.296962135864,1.985447259926
));
#129 = CARTESIAN_POINT('',(-0.321200606199,0.317086447943,1.989208527657
));
#130 = CARTESIAN_POINT('',(-0.301719404151,0.33607921445,1.991533412096)
);
#131 = CARTESIAN_POINT('',(-0.280800758294,0.353774302185,1.992312467538
));
#132 = CARTESIAN_POINT('',(-0.258567800866,0.370010565569,1.991452151784
));
#133 = CARTESIAN_POINT('',(-0.235179755261,0.384642854846,1.988888919566
));
#134 = CARTESIAN_POINT('',(-0.174105807225,0.417031352494,1.978146174552
));
#135 = CARTESIAN_POINT('',(-0.135160384589,0.432614000212,1.967768526661
));
#136 = CARTESIAN_POINT('',(-9.469502911081E-002,0.443870064835,
1.953408372151));
#137 = CARTESIAN_POINT('',(-5.35136141757E-002,0.450599247674,
1.935252738125));
#138 = CARTESIAN_POINT('',(-1.243124461922E-002,0.45283768226,
1.913755031832));
#139 = CARTESIAN_POINT('',(2.779300817408E-002,0.450842714596,
1.889585876537));
#140 = CARTESIAN_POINT('',(0.108210983192,0.438826972078,1.835429904653)
);
#141 = CARTESIAN_POINT('',(0.148263445575,0.428179499387,1.805067422861)
);
#142 = CARTESIAN_POINT('',(0.186247939604,0.41357306744,1.773095038056)
);
#143 = CARTESIAN_POINT('',(0.221896711272,0.395435591972,1.740114649242)
);
#144 = CARTESIAN_POINT('',(0.255030314691,0.374134008594,1.706631590316)
);
#145 = CARTESIAN_POINT('',(0.285510460754,0.349958046226,1.673053262671)
);
#146 = CARTESIAN_POINT('',(0.349638441959,0.287799317121,1.595855029964)
);
#147 = CARTESIAN_POINT('',(0.381188242545,0.247919914991,1.552480815837)
);
#148 = CARTESIAN_POINT('',(0.407516130191,0.204023658747,1.510420065371)
);
#149 = CARTESIAN_POINT('',(0.428161648712,0.156593835694,1.470472659504)
);
#150 = CARTESIAN_POINT('',(0.442536919122,0.106207453038,1.433488904471)
);
#151 = CARTESIAN_POINT('',(0.45,5.365096204926E-002,1.400360411071));
#152 = CARTESIAN_POINT('',(0.45,-1.665334536938E-016,1.371931000762));
#153 = TOROIDAL_SURFACE('',#154,7.676829268293,3.073170731707);
#154 = AXIS2_PLACEMENT_3D('',#155,#156,#157);
#155 = CARTESIAN_POINT('',(5.,-1.323170731707,10.78));
#156 = DIRECTION('',(0.E+000,1.,0.E+000));
#157 = DIRECTION('',(1.,0.E+000,0.E+000));
#158 = ADVANCED_FACE('',(#159,#179),#249,.T.);
#159 = FACE_BOUND('',#160,.T.);
#160 = EDGE_LOOP('',(#161,#162,#171,#178));
#161 = ORIENTED_EDGE('',*,*,#31,.T.);
#162 = ORIENTED_EDGE('',*,*,#163,.T.);
#163 = EDGE_CURVE('',#24,#164,#166,.T.);
#164 = VERTEX_POINT('',#165);
#165 = CARTESIAN_POINT('',(12.676829268293,-4.55,10.78));
#166 = CIRCLE('',#167,3.073170731707);
#167 = AXIS2_PLACEMENT_3D('',#168,#169,#170);
#168 = CARTESIAN_POINT('',(12.676829268293,-1.476829268293,10.78));
#169 = DIRECTION('',(0.E+000,0.E+000,-1.));
#170 = DIRECTION('',(1.,0.E+000,0.E+000));
#171 = ORIENTED_EDGE('',*,*,#172,.F.);
#172 = EDGE_CURVE('',#164,#164,#173,.T.);
#173 = CIRCLE('',#174,7.676829268293);
#174 = AXIS2_PLACEMENT_3D('',#175,#176,#177);
#175 = CARTESIAN_POINT('',(5.,-4.55,10.78));
#176 = DIRECTION('',(0.E+000,-1.,0.E+000));
#177 = DIRECTION('',(1.,0.E+000,0.E+000));
#178 = ORIENTED_EDGE('',*,*,#163,.F.);
#179 = FACE_BOUND('',#180,.T.);
#180 = EDGE_LOOP('',(#181,#204));
#181 = ORIENTED_EDGE('',*,*,#182,.T.);
#182 = EDGE_CURVE('',#183,#185,#187,.T.);
#183 = VERTEX_POINT('',#184);
#184 = CARTESIAN_POINT('',(10.45,-2.8,1.863063177614));
#185 = VERTEX_POINT('',#186);
#186 = CARTESIAN_POINT('',(9.773572740571,-2.411116089061,1.310614661101
));
#187 = B_SPLINE_CURVE_WITH_KNOTS('',8,(#188,#189,#190,#191,#192,#193,
#194,#195,#196,#197,#198,#199,#200,#201,#202,#203),.UNSPECIFIED.,.F.
,.F.,(9,7,9),(0.E+000,0.316628347555,1.),.UNSPECIFIED.);
#188 = CARTESIAN_POINT('',(10.45,-2.8,1.863063177614));
#189 = CARTESIAN_POINT('',(10.45,-2.763765855264,1.842805336686));
#190 = CARTESIAN_POINT('',(10.446665578304,-2.727757726011,
1.821428494642));
#191 = CARTESIAN_POINT('',(10.440069622669,-2.692268631389,
1.799120640468));
#192 = CARTESIAN_POINT('',(10.430296990815,-2.657578988332,
1.776043993005));
#193 = CARTESIAN_POINT('',(10.417444988126,-2.623959127028,
1.752341001722));
#194 = CARTESIAN_POINT('',(10.40162384535,-2.591671806382,1.728140347495
));
#195 = CARTESIAN_POINT('',(10.382957196309,-2.56097472948,1.703562943378
));
#196 = CARTESIAN_POINT('',(10.315450162018,-2.469853164879,
1.625127111009));
#197 = CARTESIAN_POINT('',(10.256799879053,-2.416310136052,
1.570438429418));
#198 = CARTESIAN_POINT('',(10.186838226505,-2.373623036105,
1.515549155999));
#199 = CARTESIAN_POINT('',(10.107069653595,-2.344730901151,
1.461770626914));
#200 = CARTESIAN_POINT('',(10.020522872436,-2.332882514627,
1.411232943072));
#201 = CARTESIAN_POINT('',(9.931911055886,-2.340562772997,1.366816608827
));
#202 = CARTESIAN_POINT('',(9.847728978242,-2.367938695517,1.332566805849
));
#203 = CARTESIAN_POINT('',(9.773572740571,-2.411116089061,1.310614661101
));
#204 = ORIENTED_EDGE('',*,*,#205,.T.);
#205 = EDGE_CURVE('',#185,#183,#206,.T.);
#206 = B_SPLINE_CURVE_WITH_KNOTS('',6,(#207,#208,#209,#210,#211,#212,
#213,#214,#215,#216,#217,#218,#219,#220,#221,#222,#223,#224,#225,
#226,#227,#228,#229,#230,#231,#232,#233,#234,#235,#236,#237,#238,
#239,#240,#241,#242,#243,#244,#245,#246,#247,#248),.UNSPECIFIED.,.F.
,.F.,(7,5,5,5,5,5,5,5,7),(0.E+000,0.104363423085,0.215298585639,
0.2724585281,0.447418703451,0.60930397183,0.747691539429,
0.879128906814,1.),.UNSPECIFIED.);
#207 = CARTESIAN_POINT('',(9.773572740571,-2.41111608906,1.310614661101)
);
#208 = CARTESIAN_POINT('',(9.743476382781,-2.428639662604,1.30170536873)
);
#209 = CARTESIAN_POINT('',(9.715006719944,-2.448958525569,1.294891335899
));
#210 = CARTESIAN_POINT('',(9.688537410608,-2.471856247276,1.290342515868
));
#211 = CARTESIAN_POINT('',(9.664394593435,-2.497034006558,1.288184821443
));
#212 = CARTESIAN_POINT('',(9.642835117342,-2.524128466073,1.288479854358
));
#213 = CARTESIAN_POINT('',(9.604029943007,-2.583131836611,1.294100993701
));
#214 = CARTESIAN_POINT('',(9.587135573742,-2.6152455045,1.299743587223)
);
#215 = CARTESIAN_POINT('',(9.573544305889,-2.648581522601,1.308108230158
));
#216 = CARTESIAN_POINT('',(9.563312027738,-2.682641106542,1.319067892486
));
#217 = CARTESIAN_POINT('',(9.556386385752,-2.716978127036,1.332424375586
));
#218 = CARTESIAN_POINT('',(9.550729234956,-2.768846171493,1.355939825774
));
#219 = CARTESIAN_POINT('',(9.549652852839,-2.786457052144,1.36451104922)
);
#220 = CARTESIAN_POINT('',(9.549408170656,-2.803990402841,1.373626031471
));
#221 = CARTESIAN_POINT('',(9.549975675988,-2.821400513671,1.383251786586
));
#222 = CARTESIAN_POINT('',(9.551333610327,-2.838646663628,1.393354565574
));
#223 = CARTESIAN_POINT('',(9.559967138587,-2.907869482286,1.436182176495
));
#224 = CARTESIAN_POINT('',(9.573667549245,-2.958145349475,1.472602334319
));
#225 = CARTESIAN_POINT('',(9.59391014777,-3.005544860809,1.51222599481)
);
#226 = CARTESIAN_POINT('',(9.620029184445,-3.049390802704,1.554108223889
));
#227 = CARTESIAN_POINT('',(9.651505586766,-3.089157804849,1.597377114822
));
#228 = CARTESIAN_POINT('',(9.721703387403,-3.156711616972,1.681598807829
));
#229 = CARTESIAN_POINT('',(9.759659388034,-3.185125533073,1.722425573619
));
#230 = CARTESIAN_POINT('',(9.801569610979,-3.209078419624,1.762937522358
));
#231 = CARTESIAN_POINT('',(9.847167837945,-3.227934734164,1.802282565044
));
#232 = CARTESIAN_POINT('',(9.895991263765,-3.240835785796,1.839267190054
));
#233 = CARTESIAN_POINT('',(9.990886404633,-3.252057967325,1.901016052365
));
#234 = CARTESIAN_POINT('',(10.036389881699,-3.252231003624,
1.926814699541));
#235 = CARTESIAN_POINT('',(10.082589296956,-3.246760756057,
1.948767442826));
#236 = CARTESIAN_POINT('',(10.128235357652,-3.235405198029,
1.965944898982));
#237 = CARTESIAN_POINT('',(10.172056522661,-3.218397696019,
1.977980016489));
#238 = CARTESIAN_POINT('',(10.251881702149,-3.175505213636,
1.991631914153));
#239 = CARTESIAN_POINT('',(10.288192406692,-3.15009571344,1.993745940131
));
#240 = CARTESIAN_POINT('',(10.321059642025,-3.120702159939,
1.991411575251));
#241 = CARTESIAN_POINT('',(10.349912802924,-3.088093918096,
1.985104170627));
#242 = CARTESIAN_POINT('',(10.374478608094,-3.053038587599,
1.975377083959));
#243 = CARTESIAN_POINT('',(10.41320322094,-2.982356322977,1.951112915714
));
#244 = CARTESIAN_POINT('',(10.42804222372,-2.94699782203,1.937024021506)
);
#245 = CARTESIAN_POINT('',(10.439099095624,-2.910647533475,
1.920856129044));
#246 = CARTESIAN_POINT('',(10.446395267035,-2.873768725904,
1.902959597653));
#247 = CARTESIAN_POINT('',(10.45,-2.836766551029,1.883618677065));
#248 = CARTESIAN_POINT('',(10.45,-2.8,1.863063177614));
#249 = TOROIDAL_SURFACE('',#250,7.676829268293,3.073170731707);
#250 = AXIS2_PLACEMENT_3D('',#251,#252,#253);
#251 = CARTESIAN_POINT('',(5.,-1.476829268293,10.78));
#252 = DIRECTION('',(0.E+000,-1.,0.E+000));
#253 = DIRECTION('',(1.,0.E+000,0.E+000));
#254 = ADVANCED_FACE('',(#255),#258,.F.);
#255 = FACE_BOUND('',#256,.F.);
#256 = EDGE_LOOP('',(#257));
#257 = ORIENTED_EDGE('',*,*,#64,.T.);
#258 = PLANE('',#259);
#259 = AXIS2_PLACEMENT_3D('',#260,#261,#262);
#260 = CARTESIAN_POINT('',(5.,1.75,10.78));
#261 = DIRECTION('',(-0.E+000,-1.,-0.E+000));
#262 = DIRECTION('',(0.E+000,0.E+000,-1.));
#263 = ADVANCED_FACE('',(#264),#284,.T.);
#264 = FACE_BOUND('',#265,.T.);
#265 = EDGE_LOOP('',(#266,#267,#275,#282,#283));
#266 = ORIENTED_EDGE('',*,*,#107,.T.);
#267 = ORIENTED_EDGE('',*,*,#268,.T.);
#268 = EDGE_CURVE('',#75,#269,#271,.T.);
#269 = VERTEX_POINT('',#270);
#270 = CARTESIAN_POINT('',(0.45,0.E+000,-2.82));
#271 = LINE('',#272,#273);
#272 = CARTESIAN_POINT('',(0.45,0.E+000,10.78));
#273 = VECTOR('',#274,1.);
#274 = DIRECTION('',(-0.E+000,-0.E+000,-1.));
#275 = ORIENTED_EDGE('',*,*,#276,.T.);
#276 = EDGE_CURVE('',#269,#269,#277,.T.);
#277 = CIRCLE('',#278,0.45);
#278 = AXIS2_PLACEMENT_3D('',#279,#280,#281);
#279 = CARTESIAN_POINT('',(0.E+000,0.E+000,-2.82));
#280 = DIRECTION('',(0.E+000,0.E+000,1.));
#281 = DIRECTION('',(1.,0.E+000,0.E+000));
#282 = ORIENTED_EDGE('',*,*,#268,.F.);
#283 = ORIENTED_EDGE('',*,*,#74,.T.);
#284 = CYLINDRICAL_SURFACE('',#285,0.45);
#285 = AXIS2_PLACEMENT_3D('',#286,#287,#288);
#286 = CARTESIAN_POINT('',(0.E+000,0.E+000,10.78));
#287 = DIRECTION('',(0.E+000,0.E+000,1.));
#288 = DIRECTION('',(1.,0.E+000,0.E+000));
#289 = ADVANCED_FACE('',(#290),#293,.T.);
#290 = FACE_BOUND('',#291,.T.);
#291 = EDGE_LOOP('',(#292));
#292 = ORIENTED_EDGE('',*,*,#172,.T.);
#293 = PLANE('',#294);
#294 = AXIS2_PLACEMENT_3D('',#295,#296,#297);
#295 = CARTESIAN_POINT('',(5.,-4.55,10.78));
#296 = DIRECTION('',(-0.E+000,-1.,-0.E+000));
#297 = DIRECTION('',(0.E+000,0.E+000,-1.));
#298 = ADVANCED_FACE('',(#299),#319,.T.);
#299 = FACE_BOUND('',#300,.T.);
#300 = EDGE_LOOP('',(#301,#302,#310,#317,#318));
#301 = ORIENTED_EDGE('',*,*,#182,.F.);
#302 = ORIENTED_EDGE('',*,*,#303,.T.);
#303 = EDGE_CURVE('',#183,#304,#306,.T.);
#304 = VERTEX_POINT('',#305);
#305 = CARTESIAN_POINT('',(10.45,-2.8,-2.82));
#306 = LINE('',#307,#308);
#307 = CARTESIAN_POINT('',(10.45,-2.8,10.78));
#308 = VECTOR('',#309,1.);
#309 = DIRECTION('',(-0.E+000,-0.E+000,-1.));
#310 = ORIENTED_EDGE('',*,*,#311,.T.);
#311 = EDGE_CURVE('',#304,#304,#312,.T.);
#312 = CIRCLE('',#313,0.45);
#313 = AXIS2_PLACEMENT_3D('',#314,#315,#316);
#314 = CARTESIAN_POINT('',(10.,-2.8,-2.82));
#315 = DIRECTION('',(0.E+000,0.E+000,1.));
#316 = DIRECTION('',(1.,0.E+000,0.E+000));
#317 = ORIENTED_EDGE('',*,*,#303,.F.);
#318 = ORIENTED_EDGE('',*,*,#205,.F.);
#319 = CYLINDRICAL_SURFACE('',#320,0.45);
#320 = AXIS2_PLACEMENT_3D('',#321,#322,#323);
#321 = CARTESIAN_POINT('',(10.,-2.8,10.78));
#322 = DIRECTION('',(0.E+000,0.E+000,1.));
#323 = DIRECTION('',(1.,0.E+000,0.E+000));
#324 = ADVANCED_FACE('',(#325),#345,.T.);
#325 = FACE_BOUND('',#326,.F.);
#326 = EDGE_LOOP('',(#327,#336,#337,#338));
#327 = ORIENTED_EDGE('',*,*,#328,.F.);
#328 = EDGE_CURVE('',#269,#329,#331,.T.);
#329 = VERTEX_POINT('',#330);
#330 = CARTESIAN_POINT('',(0.27,0.E+000,-3.));
#331 = CIRCLE('',#332,0.18);
#332 = AXIS2_PLACEMENT_3D('',#333,#334,#335);
#333 = CARTESIAN_POINT('',(0.27,0.E+000,-2.82));
#334 = DIRECTION('',(-0.E+000,1.,0.E+000));
#335 = DIRECTION('',(1.,0.E+000,0.E+000));
#336 = ORIENTED_EDGE('',*,*,#276,.T.);
#337 = ORIENTED_EDGE('',*,*,#328,.T.);
#338 = ORIENTED_EDGE('',*,*,#339,.F.);
#339 = EDGE_CURVE('',#329,#329,#340,.T.);
#340 = CIRCLE('',#341,0.27);
#341 = AXIS2_PLACEMENT_3D('',#342,#343,#344);
#342 = CARTESIAN_POINT('',(0.E+000,0.E+000,-3.));
#343 = DIRECTION('',(0.E+000,0.E+000,1.));
#344 = DIRECTION('',(1.,0.E+000,0.E+000));
#345 = TOROIDAL_SURFACE('',#346,0.27,0.18);
#346 = AXIS2_PLACEMENT_3D('',#347,#348,#349);
#347 = CARTESIAN_POINT('',(0.E+000,0.E+000,-2.82));
#348 = DIRECTION('',(-0.E+000,-0.E+000,-1.));
#349 = DIRECTION('',(1.,0.E+000,0.E+000));
#350 = ADVANCED_FACE('',(#351),#371,.T.);
#351 = FACE_BOUND('',#352,.F.);
#352 = EDGE_LOOP('',(#353,#362,#363,#364));
#353 = ORIENTED_EDGE('',*,*,#354,.F.);
#354 = EDGE_CURVE('',#304,#355,#357,.T.);
#355 = VERTEX_POINT('',#356);
#356 = CARTESIAN_POINT('',(10.27,-2.8,-3.));
#357 = CIRCLE('',#358,0.18);
#358 = AXIS2_PLACEMENT_3D('',#359,#360,#361);
#359 = CARTESIAN_POINT('',(10.27,-2.8,-2.82));
#360 = DIRECTION('',(-0.E+000,1.,0.E+000));
#361 = DIRECTION('',(1.,0.E+000,0.E+000));
#362 = ORIENTED_EDGE('',*,*,#311,.T.);
#363 = ORIENTED_EDGE('',*,*,#354,.T.);
#364 = ORIENTED_EDGE('',*,*,#365,.F.);
#365 = EDGE_CURVE('',#355,#355,#366,.T.);
#366 = CIRCLE('',#367,0.27);
#367 = AXIS2_PLACEMENT_3D('',#368,#369,#370);
#368 = CARTESIAN_POINT('',(10.,-2.8,-3.));
#369 = DIRECTION('',(0.E+000,0.E+000,1.));
#370 = DIRECTION('',(1.,0.E+000,0.E+000));
#371 = TOROIDAL_SURFACE('',#372,0.27,0.18);
#372 = AXIS2_PLACEMENT_3D('',#373,#374,#375);
#373 = CARTESIAN_POINT('',(10.,-2.8,-2.82));
#374 = DIRECTION('',(-0.E+000,-0.E+000,-1.));
#375 = DIRECTION('',(1.,0.E+000,0.E+000));
#376 = ADVANCED_FACE('',(#377),#380,.F.);
#377 = FACE_BOUND('',#378,.F.);
#378 = EDGE_LOOP('',(#379));
#379 = ORIENTED_EDGE('',*,*,#339,.T.);
#380 = PLANE('',#381);
#381 = AXIS2_PLACEMENT_3D('',#382,#383,#384);
#382 = CARTESIAN_POINT('',(-1.18701400394E-017,2.911085817041E-017,-3.)
);
#383 = DIRECTION('',(0.E+000,0.E+000,1.));
#384 = DIRECTION('',(1.,0.E+000,0.E+000));
#385 = ADVANCED_FACE('',(#386),#389,.F.);
#386 = FACE_BOUND('',#387,.F.);
#387 = EDGE_LOOP('',(#388));
#388 = ORIENTED_EDGE('',*,*,#365,.T.);
#389 = PLANE('',#390);
#390 = AXIS2_PLACEMENT_3D('',#391,#392,#393);
#391 = CARTESIAN_POINT('',(10.,-2.8,-3.));
#392 = DIRECTION('',(0.E+000,0.E+000,1.));
#393 = DIRECTION('',(1.,0.E+000,0.E+000));
#394 = ( GEOMETRIC_REPRESENTATION_CONTEXT(3)
GLOBAL_UNCERTAINTY_ASSIGNED_CONTEXT((#398)) GLOBAL_UNIT_ASSIGNED_CONTEXT
((#395,#396,#397)) REPRESENTATION_CONTEXT('Context #1',
'3D Context with UNIT and UNCERTAINTY') );
#395 = ( LENGTH_UNIT() NAMED_UNIT(*) SI_UNIT(.MILLI.,.METRE.) );
#396 = ( NAMED_UNIT(*) PLANE_ANGLE_UNIT() SI_UNIT($,.RADIAN.) );
#397 = ( NAMED_UNIT(*) SI_UNIT($,.STERADIAN.) SOLID_ANGLE_UNIT() );
#398 = UNCERTAINTY_MEASURE_WITH_UNIT(LENGTH_MEASURE(1.E-007),#395,
'distance_accuracy_value','confusion accuracy');
#399 = PRODUCT_RELATED_PRODUCT_CATEGORY('part',$,(#7));
#400 = MECHANICAL_DESIGN_GEOMETRIC_PRESENTATION_REPRESENTATION('',(#401,
#409,#416,#423,#430,#438,#445,#452,#459,#466,#473),#394);
#401 = STYLED_ITEM('color',(#402),#17);
#402 = PRESENTATION_STYLE_ASSIGNMENT((#403));
#403 = SURFACE_STYLE_USAGE(.BOTH.,#404);
#404 = SURFACE_SIDE_STYLE('',(#405));
#405 = SURFACE_STYLE_FILL_AREA(#406);
#406 = FILL_AREA_STYLE('',(#407));
#407 = FILL_AREA_STYLE_COLOUR('',#408);
#408 = COLOUR_RGB('',0.136999994516,0.402000010014,0.726999998093);
#409 = STYLED_ITEM('color',(#410),#50);
#410 = PRESENTATION_STYLE_ASSIGNMENT((#411));
#411 = SURFACE_STYLE_USAGE(.BOTH.,#412);
#412 = SURFACE_SIDE_STYLE('',(#413));
#413 = SURFACE_STYLE_FILL_AREA(#414);
#414 = FILL_AREA_STYLE('',(#415));
#415 = FILL_AREA_STYLE_COLOUR('',#408);
#416 = STYLED_ITEM('color',(#417),#158);
#417 = PRESENTATION_STYLE_ASSIGNMENT((#418));
#418 = SURFACE_STYLE_USAGE(.BOTH.,#419);
#419 = SURFACE_SIDE_STYLE('',(#420));
#420 = SURFACE_STYLE_FILL_AREA(#421);
#421 = FILL_AREA_STYLE('',(#422));
#422 = FILL_AREA_STYLE_COLOUR('',#408);
#423 = STYLED_ITEM('color',(#424),#254);
#424 = PRESENTATION_STYLE_ASSIGNMENT((#425));
#425 = SURFACE_STYLE_USAGE(.BOTH.,#426);
#426 = SURFACE_SIDE_STYLE('',(#427));
#427 = SURFACE_STYLE_FILL_AREA(#428);
#428 = FILL_AREA_STYLE('',(#429));
#429 = FILL_AREA_STYLE_COLOUR('',#408);
#430 = STYLED_ITEM('color',(#431),#263);
#431 = PRESENTATION_STYLE_ASSIGNMENT((#432));
#432 = SURFACE_STYLE_USAGE(.BOTH.,#433);
#433 = SURFACE_SIDE_STYLE('',(#434));
#434 = SURFACE_STYLE_FILL_AREA(#435);
#435 = FILL_AREA_STYLE('',(#436));
#436 = FILL_AREA_STYLE_COLOUR('',#437);
#437 = COLOUR_RGB('',0.824000000954,0.819999992847,0.78100001812);
#438 = STYLED_ITEM('color',(#439),#289);
#439 = PRESENTATION_STYLE_ASSIGNMENT((#440));
#440 = SURFACE_STYLE_USAGE(.BOTH.,#441);
#441 = SURFACE_SIDE_STYLE('',(#442));
#442 = SURFACE_STYLE_FILL_AREA(#443);
#443 = FILL_AREA_STYLE('',(#444));
#444 = FILL_AREA_STYLE_COLOUR('',#408);
#445 = STYLED_ITEM('color',(#446),#298);
#446 = PRESENTATION_STYLE_ASSIGNMENT((#447));
#447 = SURFACE_STYLE_USAGE(.BOTH.,#448);
#448 = SURFACE_SIDE_STYLE('',(#449));
#449 = SURFACE_STYLE_FILL_AREA(#450);
#450 = FILL_AREA_STYLE('',(#451));
#451 = FILL_AREA_STYLE_COLOUR('',#437);
#452 = STYLED_ITEM('color',(#453),#324);
#453 = PRESENTATION_STYLE_ASSIGNMENT((#454));
#454 = SURFACE_STYLE_USAGE(.BOTH.,#455);
#455 = SURFACE_SIDE_STYLE('',(#456));
#456 = SURFACE_STYLE_FILL_AREA(#457);
#457 = FILL_AREA_STYLE('',(#458));
#458 = FILL_AREA_STYLE_COLOUR('',#437);
#459 = STYLED_ITEM('color',(#460),#350);
#460 = PRESENTATION_STYLE_ASSIGNMENT((#461));
#461 = SURFACE_STYLE_USAGE(.BOTH.,#462);
#462 = SURFACE_SIDE_STYLE('',(#463));
#463 = SURFACE_STYLE_FILL_AREA(#464);
#464 = FILL_AREA_STYLE('',(#465));
#465 = FILL_AREA_STYLE_COLOUR('',#437);
#466 = STYLED_ITEM('color',(#467),#376);
#467 = PRESENTATION_STYLE_ASSIGNMENT((#468));
#468 = SURFACE_STYLE_USAGE(.BOTH.,#469);
#469 = SURFACE_SIDE_STYLE('',(#470));
#470 = SURFACE_STYLE_FILL_AREA(#471);
#471 = FILL_AREA_STYLE('',(#472));
#472 = FILL_AREA_STYLE_COLOUR('',#437);
#473 = STYLED_ITEM('color',(#474),#385);
#474 = PRESENTATION_STYLE_ASSIGNMENT((#475));
#475 = SURFACE_STYLE_USAGE(.BOTH.,#476);
#476 = SURFACE_SIDE_STYLE('',(#477));
#477 = SURFACE_STYLE_FILL_AREA(#478);
#478 = FILL_AREA_STYLE('',(#479));
#479 = FILL_AREA_STYLE_COLOUR('',#437);
ENDSEC;
END-ISO-10303-21;
