ISO-10303-21;
HEADER;
/* RV_Disc_D21.5mm_W4.8mm_P10mm.step 3D STEP model for use in ECAD systems
 * Copyright (C) 2018, kicad StepUp
 * 
 * This work is licensed under the [Creative Commons CC-BY-SA 4.0 License](https://creativecommons.org/licenses/by-sa/4.0/legalcode), 
 * with the following exception:
 * To the extent that the creation of electronic designs that use 'Licensed Material' can be considered to be 'Adapted Material', 
 * then the copyright holder waives article 3 of the license with respect to these designs and any generated files which use data provided 
 * as part of the 'Licensed Material'.
 * You are free to use the library data in your own projects without the obligation to share your project files under this or any other license agreement.
 * However, if you wish to redistribute these libraries, or parts thereof (including in modified form) as a collection then the exception above does not apply. 
 * Please refer to https://github.com/KiCad/kicad-packages3D/blob/master/LICENSE.md for further clarification of the exception.
 * Disclaimer of Warranties and Limitation of Liability.
 * These libraries are provided in the hope that they will be useful, but are provided without warranty of any kind, express or implied.
 * *USE 3D CAD DATA AT YOUR OWN RISK*
 * *DO NOT RELY UPON ANY INFORMATION FOUND HERE WITHOUT INDEPENDENT VERIFICATION.*
 * 
 */

FILE_DESCRIPTION(
/* description */ ('model of RV_Disc_D21.5mm_W4.8mm_P10mm'),
/* implementation_level */ '2;1');

FILE_NAME(
/* name */ 'RV_Disc_D21.5mm_W4.8mm_P10mm.step',
/* time_stamp */ '2018-11-11T21:03:15',
/* author */ ('kicad StepUp','ksu'),
/* organization */ ('FreeCAD'),
/* preprocessor_version */ 'OCC',
/* originating_system */ 'kicad StepUp',
/* authorisation */ '');

FILE_SCHEMA(('AUTOMOTIVE_DESIGN { 1 0 10303 214 1 1 1 1 }'));
ENDSEC;

DATA;
#1 = APPLICATION_PROTOCOL_DEFINITION('international standard',
'automotive_design',2000,#2);
#2 = APPLICATION_CONTEXT(
'core data for automotive mechanical design processes');
#3 = SHAPE_DEFINITION_REPRESENTATION(#4,#10);
#4 = PRODUCT_DEFINITION_SHAPE('','',#5);
#5 = PRODUCT_DEFINITION('design','',#6,#9);
#6 = PRODUCT_DEFINITION_FORMATION('','',#7);
#7 = PRODUCT('RV_Disc_D215mm_W48mm_P10mm','RV_Disc_D215mm_W48mm_P10mm',
'',(#8));
#8 = PRODUCT_CONTEXT('',#2,'mechanical');
#9 = PRODUCT_DEFINITION_CONTEXT('part definition',#2,'design');
#10 = ADVANCED_BREP_SHAPE_REPRESENTATION('',(#11,#15),#393);
#11 = AXIS2_PLACEMENT_3D('',#12,#13,#14);
#12 = CARTESIAN_POINT('',(0.E+000,0.E+000,0.E+000));
#13 = DIRECTION('',(0.E+000,0.E+000,1.));
#14 = DIRECTION('',(1.,0.E+000,-0.E+000));
#15 = MANIFOLD_SOLID_BREP('',#16);
#16 = CLOSED_SHELL('',(#17,#50,#152,#253,#262,#288,#297,#323,#349,#375,
#384));
#17 = ADVANCED_FACE('',(#18),#45,.T.);
#18 = FACE_BOUND('',#19,.F.);
#19 = EDGE_LOOP('',(#20,#30,#37,#38));
#20 = ORIENTED_EDGE('',*,*,#21,.T.);
#21 = EDGE_CURVE('',#22,#24,#26,.T.);
#22 = VERTEX_POINT('',#23);
#23 = CARTESIAN_POINT('',(15.75,-0.916463414634,10.78));
#24 = VERTEX_POINT('',#25);
#25 = CARTESIAN_POINT('',(15.75,-1.033536585366,10.78));
#26 = LINE('',#27,#28);
#27 = CARTESIAN_POINT('',(15.75,1.425,10.78));
#28 = VECTOR('',#29,1.);
#29 = DIRECTION('',(0.E+000,-1.,0.E+000));
#30 = ORIENTED_EDGE('',*,*,#31,.T.);
#31 = EDGE_CURVE('',#24,#24,#32,.T.);
#32 = CIRCLE('',#33,10.75);
#33 = AXIS2_PLACEMENT_3D('',#34,#35,#36);
#34 = CARTESIAN_POINT('',(5.,-1.033536585366,10.78));
#35 = DIRECTION('',(0.E+000,-1.,0.E+000));
#36 = DIRECTION('',(1.,0.E+000,0.E+000));
#37 = ORIENTED_EDGE('',*,*,#21,.F.);
#38 = ORIENTED_EDGE('',*,*,#39,.F.);
#39 = EDGE_CURVE('',#22,#22,#40,.T.);
#40 = CIRCLE('',#41,10.75);
#41 = AXIS2_PLACEMENT_3D('',#42,#43,#44);
#42 = CARTESIAN_POINT('',(5.,-0.916463414634,10.78));
#43 = DIRECTION('',(0.E+000,-1.,0.E+000));
#44 = DIRECTION('',(1.,0.E+000,0.E+000));
#45 = CYLINDRICAL_SURFACE('',#46,10.75);
#46 = AXIS2_PLACEMENT_3D('',#47,#48,#49);
#47 = CARTESIAN_POINT('',(5.,1.425,10.78));
#48 = DIRECTION('',(0.E+000,1.,0.E+000));
#49 = DIRECTION('',(1.,0.E+000,0.E+000));
#50 = ADVANCED_FACE('',(#51,#71),#147,.T.);
#51 = FACE_BOUND('',#52,.F.);
#52 = EDGE_LOOP('',(#53,#54,#63,#70));
#53 = ORIENTED_EDGE('',*,*,#39,.T.);
#54 = ORIENTED_EDGE('',*,*,#55,.T.);
#55 = EDGE_CURVE('',#22,#56,#58,.T.);
#56 = VERTEX_POINT('',#57);
#57 = CARTESIAN_POINT('',(13.408536585366,1.425,10.78));
#58 = CIRCLE('',#59,2.341463414634);
#59 = AXIS2_PLACEMENT_3D('',#60,#61,#62);
#60 = CARTESIAN_POINT('',(13.408536585366,-0.916463414634,10.78));
#61 = DIRECTION('',(0.E+000,0.E+000,1.));
#62 = DIRECTION('',(1.,0.E+000,0.E+000));
#63 = ORIENTED_EDGE('',*,*,#64,.F.);
#64 = EDGE_CURVE('',#56,#56,#65,.T.);
#65 = CIRCLE('',#66,8.408536585366);
#66 = AXIS2_PLACEMENT_3D('',#67,#68,#69);
#67 = CARTESIAN_POINT('',(5.,1.425,10.78));
#68 = DIRECTION('',(0.E+000,-1.,0.E+000));
#69 = DIRECTION('',(1.,0.E+000,0.E+000));
#70 = ORIENTED_EDGE('',*,*,#55,.F.);
#71 = FACE_BOUND('',#72,.F.);
#72 = EDGE_LOOP('',(#73,#106));
#73 = ORIENTED_EDGE('',*,*,#74,.T.);
#74 = EDGE_CURVE('',#75,#77,#79,.T.);
#75 = VERTEX_POINT('',#76);
#76 = CARTESIAN_POINT('',(0.45,0.E+000,1.246975634922));
#77 = VERTEX_POINT('',#78);
#78 = CARTESIAN_POINT('',(-0.293471855872,-0.341136731841,1.506193960472
));
#79 = B_SPLINE_CURVE_WITH_KNOTS('',7,(#80,#81,#82,#83,#84,#85,#86,#87,
#88,#89,#90,#91,#92,#93,#94,#95,#96,#97,#98,#99,#100,#101,#102,#103,
#104,#105),.UNSPECIFIED.,.F.,.F.,(8,6,6,6,8),(0.E+000,0.218572082611
,0.419057183955,0.534708945794,1.),.UNSPECIFIED.);
#80 = CARTESIAN_POINT('',(0.45,-1.665334536938E-016,1.246975634922));
#81 = CARTESIAN_POINT('',(0.45,-3.011150339662E-002,1.232783948631));
#82 = CARTESIAN_POINT('',(0.447649266668,-6.054865265463E-002,
1.220207774172));
#83 = CARTESIAN_POINT('',(0.442856409391,-9.109469466714E-002,
1.209394118801));
#84 = CARTESIAN_POINT('',(0.435552261777,-0.121502121778,1.200471844029)
);
#85 = CARTESIAN_POINT('',(0.425703953713,-0.151492863891,1.193540103646)
);
#86 = CARTESIAN_POINT('',(0.413329285303,-0.180766762861,1.188657735003)
);
#87 = CARTESIAN_POINT('',(0.384919709442,-0.234932060091,1.183243170758)
);
#88 = CARTESIAN_POINT('',(0.369269240972,-0.259991803952,1.182383807975)
);
#89 = CARTESIAN_POINT('',(0.35162226449,-0.283960898937,1.183264072968)
);
#90 = CARTESIAN_POINT('',(0.33207805706,-0.306616748854,1.185855340663)
);
#91 = CARTESIAN_POINT('',(0.310767989961,-0.327755099644,1.19009866674)
);
#92 = CARTESIAN_POINT('',(0.287850613065,-0.347194315889,1.195911651243)
);
#93 = CARTESIAN_POINT('',(0.24946374109,-0.374923930904,1.207396946413)
);
#94 = CARTESIAN_POINT('',(0.234945265507,-0.384451832997,1.212088224084)
);
#95 = CARTESIAN_POINT('',(0.219984831477,-0.393334268725,1.217250550466)
);
#96 = CARTESIAN_POINT('',(0.204618148715,-0.401544777832,1.222863779036)
);
#97 = CARTESIAN_POINT('',(0.188882882262,-0.409059664898,1.228906550258)
);
#98 = CARTESIAN_POINT('',(0.172818417124,-0.415858129556,1.235356640337)
);
#99 = CARTESIAN_POINT('',(9.067493589211E-002,-0.446320202814,
1.269688605289));
#100 = CARTESIAN_POINT('',(1.947957026909E-002,-0.459108274824,
1.303719640471));
#101 = CARTESIAN_POINT('',(-5.307798350044E-002,-0.458063289098,
1.342394071818));
#102 = CARTESIAN_POINT('',(-0.122772177083,-0.44377899812,1.38312915412)
);
#103 = CARTESIAN_POINT('',(-0.186881313455,-0.418302610734,
1.424469091933));
#104 = CARTESIAN_POINT('',(-0.244055500194,-0.383648452971,1.46557926721
));
#105 = CARTESIAN_POINT('',(-0.293471855872,-0.341136731841,
1.506193960472));
#106 = ORIENTED_EDGE('',*,*,#107,.T.);
#107 = EDGE_CURVE('',#77,#75,#108,.T.);
#108 = B_SPLINE_CURVE_WITH_KNOTS('',7,(#109,#110,#111,#112,#113,#114,
#115,#116,#117,#118,#119,#120,#121,#122,#123,#124,#125,#126,#127,
#128,#129,#130,#131,#132,#133,#134,#135,#136,#137,#138,#139,#140,
#141,#142,#143,#144,#145,#146),.UNSPECIFIED.,.F.,.F.,(8,6,6,6,6,6,8)
,(0.E+000,8.090204717074E-002,0.353098661301,0.497988337539,
0.634525708502,0.785569086714,1.),.UNSPECIFIED.);
#109 = CARTESIAN_POINT('',(-0.293471855872,-0.341136731841,
1.506193960472));
#110 = CARTESIAN_POINT('',(-0.309265395756,-0.327549923304,
1.519174476115));
#111 = CARTESIAN_POINT('',(-0.324255111474,-0.3131702439,1.53209494444)
);
#112 = CARTESIAN_POINT('',(-0.338405239697,-0.298052135355,
1.544937678583));
#113 = CARTESIAN_POINT('',(-0.351683587238,-0.282250183033,
1.557686472167));
#114 = CARTESIAN_POINT('',(-0.364061234007,-0.265819011281,
1.570325993048));
#115 = CARTESIAN_POINT('',(-0.375512235975,-0.248813178761,
1.582841177048));
#116 = CARTESIAN_POINT('',(-0.421344470306,-0.172320130447,
1.636854061666));
#117 = CARTESIAN_POINT('',(-0.445880508254,-0.107533482804,
1.676859929104));
#118 = CARTESIAN_POINT('',(-0.458842895374,-3.892437450247E-002,
1.714728855388));
#119 = CARTESIAN_POINT('',(-0.4596149653,3.149447567398E-002,
1.749807548739));
#120 = CARTESIAN_POINT('',(-0.447808068897,0.101520111662,1.781117400433
));
#121 = CARTESIAN_POINT('',(-0.42330930559,0.168774013132,1.807068775822)
);
#122 = CARTESIAN_POINT('',(-0.366831368638,0.263440999455,1.835172575204
));
#123 = CARTESIAN_POINT('',(-0.343722820136,0.29475434993,1.842772660867)
);
#124 = CARTESIAN_POINT('',(-0.317206121122,0.324056161031,1.847866236028
));
#125 = CARTESIAN_POINT('',(-0.287441386817,0.350856051157,1.850062090131
));
#126 = CARTESIAN_POINT('',(-0.254719423996,0.374641290269,1.848960792688
));
#127 = CARTESIAN_POINT('',(-0.219487664325,0.394937059827,1.844245917673
));
#128 = CARTESIAN_POINT('',(-0.147354465532,0.426909845133,1.827893882708
));
#129 = CARTESIAN_POINT('',(-0.110640881869,0.439027570843,1.816665326746
));
#130 = CARTESIAN_POINT('',(-7.275152870655E-002,0.447434305976,
1.802066229808));
#131 = CARTESIAN_POINT('',(-3.434432951278E-002,0.451948824929,
1.784209101871));
#132 = CARTESIAN_POINT('',(3.858778690687E-003,0.452583712857,
1.763476804361));
#133 = CARTESIAN_POINT('',(4.113147237404E-002,0.449576867125,
1.740512202626));
#134 = CARTESIAN_POINT('',(0.116279085739,0.436558966544,1.689125748544)
);
#135 = CARTESIAN_POINT('',(0.154012224728,0.425800273484,1.660235939272)
);
#136 = CARTESIAN_POINT('',(0.189723223202,0.411565951034,1.630050358611)
);
#137 = CARTESIAN_POINT('',(0.223239507925,0.394243456948,1.59910745219)
);
#138 = CARTESIAN_POINT('',(0.254452126187,0.374150164537,1.567853918642)
);
#139 = CARTESIAN_POINT('',(0.283275822744,0.351529020664,1.536647947188)
);
#140 = CARTESIAN_POINT('',(0.347017939581,0.291092072646,1.461984682257)
);
#141 = CARTESIAN_POINT('',(0.379361670505,0.25093710538,1.418947738216)
);
#142 = CARTESIAN_POINT('',(0.406361188059,0.206646117202,1.37759375099)
);
#143 = CARTESIAN_POINT('',(0.427558518847,0.158693804996,1.338798175807)
);
#144 = CARTESIAN_POINT('',(0.442333108303,0.107661960895,1.303486168982)
);
#145 = CARTESIAN_POINT('',(0.45,5.437796995796E-002,1.27260421549));
#146 = CARTESIAN_POINT('',(0.45,-1.665334536938E-016,1.246975634922));
#147 = TOROIDAL_SURFACE('',#148,8.408536585366,2.341463414634);
#148 = AXIS2_PLACEMENT_3D('',#149,#150,#151);
#149 = CARTESIAN_POINT('',(5.,-0.916463414634,10.78));
#150 = DIRECTION('',(0.E+000,1.,0.E+000));
#151 = DIRECTION('',(1.,0.E+000,0.E+000));
#152 = ADVANCED_FACE('',(#153,#173),#248,.T.);
#153 = FACE_BOUND('',#154,.T.);
#154 = EDGE_LOOP('',(#155,#156,#165,#172));
#155 = ORIENTED_EDGE('',*,*,#31,.T.);
#156 = ORIENTED_EDGE('',*,*,#157,.T.);
#157 = EDGE_CURVE('',#24,#158,#160,.T.);
#158 = VERTEX_POINT('',#159);
#159 = CARTESIAN_POINT('',(13.408536585366,-3.375,10.78));
#160 = CIRCLE('',#161,2.341463414634);
#161 = AXIS2_PLACEMENT_3D('',#162,#163,#164);
#162 = CARTESIAN_POINT('',(13.408536585366,-1.033536585366,10.78));
#163 = DIRECTION('',(0.E+000,0.E+000,-1.));
#164 = DIRECTION('',(1.,0.E+000,0.E+000));
#165 = ORIENTED_EDGE('',*,*,#166,.F.);
#166 = EDGE_CURVE('',#158,#158,#167,.T.);
#167 = CIRCLE('',#168,8.408536585366);
#168 = AXIS2_PLACEMENT_3D('',#169,#170,#171);
#169 = CARTESIAN_POINT('',(5.,-3.375,10.78));
#170 = DIRECTION('',(0.E+000,-1.,0.E+000));
#171 = DIRECTION('',(1.,0.E+000,0.E+000));
#172 = ORIENTED_EDGE('',*,*,#157,.F.);
#173 = FACE_BOUND('',#174,.T.);
#174 = EDGE_LOOP('',(#175,#198));
#175 = ORIENTED_EDGE('',*,*,#176,.T.);
#176 = EDGE_CURVE('',#177,#179,#181,.T.);
#177 = VERTEX_POINT('',#178);
#178 = CARTESIAN_POINT('',(10.45,-1.95,1.731323105273));
#179 = VERTEX_POINT('',#180);
#180 = CARTESIAN_POINT('',(9.814078936097,-1.540203272344,1.230262107884
));
#181 = B_SPLINE_CURVE_WITH_KNOTS('',8,(#182,#183,#184,#185,#186,#187,
#188,#189,#190,#191,#192,#193,#194,#195,#196,#197),.UNSPECIFIED.,.F.
,.F.,(9,7,9),(0.E+000,0.283724231417,1.),.UNSPECIFIED.);
#182 = CARTESIAN_POINT('',(10.45,-1.95,1.731323105273));
#183 = CARTESIAN_POINT('',(10.45,-1.919326176192,1.716092572207));
#184 = CARTESIAN_POINT('',(10.44761045912,-1.888758729107,1.700171413973
));
#185 = CARTESIAN_POINT('',(10.44286034897,-1.858477406384,1.683649666748
));
#186 = CARTESIAN_POINT('',(10.435785983136,-1.82865890124,1.666602955779
));
#187 = CARTESIAN_POINT('',(10.426431724479,-1.79947747463,1.649095472495
));
#188 = CARTESIAN_POINT('',(10.414850692429,-1.771105577412,
1.631182951627));
#189 = CARTESIAN_POINT('',(10.401105470288,-1.743714472507,
1.612915648321));
#190 = CARTESIAN_POINT('',(10.345288391551,-1.651231658081,
1.547449498417));
#191 = CARTESIAN_POINT('',(10.292237665318,-1.59275714184,1.498905372561
));
#192 = CARTESIAN_POINT('',(10.227131674619,-1.543864109813,
1.448979606222));
#193 = CARTESIAN_POINT('',(10.150941380103,-1.507460755161,
1.398243130512));
#194 = CARTESIAN_POINT('',(10.066201499256,-1.487209939689,
1.348080815585));
#195 = CARTESIAN_POINT('',(9.97748345586,-1.486194030213,1.300771092351)
);
#196 = CARTESIAN_POINT('',(9.891441322797,-1.505104658152,1.260549130116
));
#197 = CARTESIAN_POINT('',(9.814078936097,-1.540203272344,1.230262107884
));
#198 = ORIENTED_EDGE('',*,*,#199,.T.);
#199 = EDGE_CURVE('',#179,#177,#200,.T.);
#200 = B_SPLINE_CURVE_WITH_KNOTS('',6,(#201,#202,#203,#204,#205,#206,
#207,#208,#209,#210,#211,#212,#213,#214,#215,#216,#217,#218,#219,
#220,#221,#222,#223,#224,#225,#226,#227,#228,#229,#230,#231,#232,
#233,#234,#235,#236,#237,#238,#239,#240,#241,#242,#243,#244,#245,
#246,#247),.UNSPECIFIED.,.F.,.F.,(7,5,5,5,5,5,5,5,5,7),(0.E+000,
5.409320773051E-002,0.148239940117,0.252529943434,0.305370316533,
0.46224409834,0.608470208266,0.732596764335,0.863718738739,1.),
.UNSPECIFIED.);
#201 = CARTESIAN_POINT('',(9.814078936097,-1.540203272344,1.230262107884
));
#202 = CARTESIAN_POINT('',(9.797270520535,-1.547829098255,1.223681689705
));
#203 = CARTESIAN_POINT('',(9.780855714544,-1.556273909553,1.217579295404
));
#204 = CARTESIAN_POINT('',(9.764886004189,-1.565510349778,1.21198424998)
);
#205 = CARTESIAN_POINT('',(9.74940994639,-1.575506513806,1.206923921829)
);
#206 = CARTESIAN_POINT('',(9.734473168925,-1.586225947848,1.202423722746
));
#207 = CARTESIAN_POINT('',(9.695134505921,-1.617471785071,1.191690420521
));
#208 = CARTESIAN_POINT('',(9.67191073496,-1.639384570967,1.186640259872)
);
#209 = CARTESIAN_POINT('',(9.650676953562,-1.663146438126,1.183479732449
));
#210 = CARTESIAN_POINT('',(9.631623254632,-1.688496039026,1.18230088781)
);
#211 = CARTESIAN_POINT('',(9.614889854094,-1.715140806691,1.183150436302
));
#212 = CARTESIAN_POINT('',(9.584679975024,-1.773370693469,1.18918917261)
);
#213 = CARTESIAN_POINT('',(9.571744904415,-1.805186072161,1.194836829649
));
#214 = CARTESIAN_POINT('',(9.561863751591,-1.837789297682,1.202943541698
));
#215 = CARTESIAN_POINT('',(9.555037790821,-1.870765193022,1.213409338164
));
#216 = CARTESIAN_POINT('',(9.551191256231,-1.903747447205,1.226071121693
));
#217 = CARTESIAN_POINT('',(9.549705143726,-1.952976858819,1.248157381843
));
#218 = CARTESIAN_POINT('',(9.549939587433,-1.969454329439,1.256097994316
));
#219 = CARTESIAN_POINT('',(9.550892875826,-1.985814654985,1.264526849703
));
#220 = CARTESIAN_POINT('',(9.552547196902,-2.00202242215,1.273417064844)
);
#221 = CARTESIAN_POINT('',(9.554883463607,-2.018046088378,1.28274081848)
);
#222 = CARTESIAN_POINT('',(9.566786098008,-2.080799577887,1.321354922593
));
#223 = CARTESIAN_POINT('',(9.581528042643,-2.125854908233,1.353803887109
));
#224 = CARTESIAN_POINT('',(9.601603102603,-2.16832755261,1.389100870659)
);
#225 = CARTESIAN_POINT('',(9.626515361502,-2.207728884403,1.426499695656
));
#226 = CARTESIAN_POINT('',(9.655890812679,-2.243671751819,1.465295082561
));
#227 = CARTESIAN_POINT('',(9.720796870956,-2.305552154541,1.541506123251
));
#228 = CARTESIAN_POINT('',(9.755736169012,-2.331967021105,1.578792226295
));
#229 = CARTESIAN_POINT('',(9.794133113622,-2.354628912048,1.616039878827
));
#230 = CARTESIAN_POINT('',(9.835835204394,-2.373038189267,1.652546569505
));
#231 = CARTESIAN_POINT('',(9.880586802076,-2.386499134885,1.687336458399
));
#232 = CARTESIAN_POINT('',(9.967936385237,-2.400691433339,1.746378695451
));
#233 = CARTESIAN_POINT('',(10.010027616612,-2.403070294236,
1.771557779253));
#234 = CARTESIAN_POINT('',(10.053069244905,-2.400609547459,
1.793584877736));
#235 = CARTESIAN_POINT('',(10.095907120319,-2.393063726768,
1.811557832866));
#236 = CARTESIAN_POINT('',(10.137459681075,-2.380629693153,
1.825183864092));
#237 = CARTESIAN_POINT('',(10.218504415346,-2.345987144876,
1.844453763509));
#238 = CARTESIAN_POINT('',(10.257791130641,-2.323249018267,
1.849615110127));
#239 = CARTESIAN_POINT('',(10.293788806792,-2.296076894076,
1.850145349564));
#240 = CARTESIAN_POINT('',(10.325855583776,-2.265244112442,
1.846606877624));
#241 = CARTESIAN_POINT('',(10.353662624547,-2.231530117813,
1.839619867297));
#242 = CARTESIAN_POINT('',(10.401364807579,-2.158302935331,
1.819441089843));
#243 = CARTESIAN_POINT('',(10.420905542906,-2.1186140239,1.806016080781)
);
#244 = CARTESIAN_POINT('',(10.435523811623,-2.077295090357,
1.790050610039));
#245 = CARTESIAN_POINT('',(10.445203290607,-2.035026428217,
1.772049231984));
#246 = CARTESIAN_POINT('',(10.45,-1.992412001586,1.752382018456));
#247 = CARTESIAN_POINT('',(10.45,-1.95,1.731323105273));
#248 = TOROIDAL_SURFACE('',#249,8.408536585366,2.341463414634);
#249 = AXIS2_PLACEMENT_3D('',#250,#251,#252);
#250 = CARTESIAN_POINT('',(5.,-1.033536585366,10.78));
#251 = DIRECTION('',(0.E+000,-1.,0.E+000));
#252 = DIRECTION('',(1.,0.E+000,0.E+000));
#253 = ADVANCED_FACE('',(#254),#257,.F.);
#254 = FACE_BOUND('',#255,.F.);
#255 = EDGE_LOOP('',(#256));
#256 = ORIENTED_EDGE('',*,*,#64,.T.);
#257 = PLANE('',#258);
#258 = AXIS2_PLACEMENT_3D('',#259,#260,#261);
#259 = CARTESIAN_POINT('',(5.,1.425,10.78));
#260 = DIRECTION('',(-0.E+000,-1.,-0.E+000));
#261 = DIRECTION('',(0.E+000,0.E+000,-1.));
#262 = ADVANCED_FACE('',(#263),#283,.T.);
#263 = FACE_BOUND('',#264,.T.);
#264 = EDGE_LOOP('',(#265,#266,#274,#281,#282));
#265 = ORIENTED_EDGE('',*,*,#107,.T.);
#266 = ORIENTED_EDGE('',*,*,#267,.T.);
#267 = EDGE_CURVE('',#75,#268,#270,.T.);
#268 = VERTEX_POINT('',#269);
#269 = CARTESIAN_POINT('',(0.45,0.E+000,-2.82));
#270 = LINE('',#271,#272);
#271 = CARTESIAN_POINT('',(0.45,0.E+000,10.78));
#272 = VECTOR('',#273,1.);
#273 = DIRECTION('',(-0.E+000,-0.E+000,-1.));
#274 = ORIENTED_EDGE('',*,*,#275,.T.);
#275 = EDGE_CURVE('',#268,#268,#276,.T.);
#276 = CIRCLE('',#277,0.45);
#277 = AXIS2_PLACEMENT_3D('',#278,#279,#280);
#278 = CARTESIAN_POINT('',(0.E+000,0.E+000,-2.82));
#279 = DIRECTION('',(0.E+000,0.E+000,1.));
#280 = DIRECTION('',(1.,0.E+000,0.E+000));
#281 = ORIENTED_EDGE('',*,*,#267,.F.);
#282 = ORIENTED_EDGE('',*,*,#74,.T.);
#283 = CYLINDRICAL_SURFACE('',#284,0.45);
#284 = AXIS2_PLACEMENT_3D('',#285,#286,#287);
#285 = CARTESIAN_POINT('',(0.E+000,0.E+000,10.78));
#286 = DIRECTION('',(0.E+000,0.E+000,1.));
#287 = DIRECTION('',(1.,0.E+000,0.E+000));
#288 = ADVANCED_FACE('',(#289),#292,.T.);
#289 = FACE_BOUND('',#290,.T.);
#290 = EDGE_LOOP('',(#291));
#291 = ORIENTED_EDGE('',*,*,#166,.T.);
#292 = PLANE('',#293);
#293 = AXIS2_PLACEMENT_3D('',#294,#295,#296);
#294 = CARTESIAN_POINT('',(5.,-3.375,10.78));
#295 = DIRECTION('',(-0.E+000,-1.,-0.E+000));
#296 = DIRECTION('',(0.E+000,0.E+000,-1.));
#297 = ADVANCED_FACE('',(#298),#318,.T.);
#298 = FACE_BOUND('',#299,.T.);
#299 = EDGE_LOOP('',(#300,#301,#309,#316,#317));
#300 = ORIENTED_EDGE('',*,*,#176,.F.);
#301 = ORIENTED_EDGE('',*,*,#302,.T.);
#302 = EDGE_CURVE('',#177,#303,#305,.T.);
#303 = VERTEX_POINT('',#304);
#304 = CARTESIAN_POINT('',(10.45,-1.95,-2.82));
#305 = LINE('',#306,#307);
#306 = CARTESIAN_POINT('',(10.45,-1.95,10.78));
#307 = VECTOR('',#308,1.);
#308 = DIRECTION('',(-0.E+000,-0.E+000,-1.));
#309 = ORIENTED_EDGE('',*,*,#310,.T.);
#310 = EDGE_CURVE('',#303,#303,#311,.T.);
#311 = CIRCLE('',#312,0.45);
#312 = AXIS2_PLACEMENT_3D('',#313,#314,#315);
#313 = CARTESIAN_POINT('',(10.,-1.95,-2.82));
#314 = DIRECTION('',(-1.460853528187E-030,1.2985364695E-030,1.));
#315 = DIRECTION('',(1.,5.194145877998E-031,1.460853528187E-030));
#316 = ORIENTED_EDGE('',*,*,#302,.F.);
#317 = ORIENTED_EDGE('',*,*,#199,.F.);
#318 = CYLINDRICAL_SURFACE('',#319,0.45);
#319 = AXIS2_PLACEMENT_3D('',#320,#321,#322);
#320 = CARTESIAN_POINT('',(10.,-1.95,10.78));
#321 = DIRECTION('',(0.E+000,0.E+000,1.));
#322 = DIRECTION('',(1.,0.E+000,0.E+000));
#323 = ADVANCED_FACE('',(#324),#344,.T.);
#324 = FACE_BOUND('',#325,.F.);
#325 = EDGE_LOOP('',(#326,#335,#336,#337));
#326 = ORIENTED_EDGE('',*,*,#327,.F.);
#327 = EDGE_CURVE('',#268,#328,#330,.T.);
#328 = VERTEX_POINT('',#329);
#329 = CARTESIAN_POINT('',(0.27,0.E+000,-3.));
#330 = CIRCLE('',#331,0.18);
#331 = AXIS2_PLACEMENT_3D('',#332,#333,#334);
#332 = CARTESIAN_POINT('',(0.27,0.E+000,-2.82));
#333 = DIRECTION('',(-0.E+000,1.,0.E+000));
#334 = DIRECTION('',(1.,0.E+000,0.E+000));
#335 = ORIENTED_EDGE('',*,*,#275,.T.);
#336 = ORIENTED_EDGE('',*,*,#327,.T.);
#337 = ORIENTED_EDGE('',*,*,#338,.F.);
#338 = EDGE_CURVE('',#328,#328,#339,.T.);
#339 = CIRCLE('',#340,0.27);
#340 = AXIS2_PLACEMENT_3D('',#341,#342,#343);
#341 = CARTESIAN_POINT('',(0.E+000,0.E+000,-3.));
#342 = DIRECTION('',(0.E+000,0.E+000,1.));
#343 = DIRECTION('',(1.,0.E+000,0.E+000));
#344 = TOROIDAL_SURFACE('',#345,0.27,0.18);
#345 = AXIS2_PLACEMENT_3D('',#346,#347,#348);
#346 = CARTESIAN_POINT('',(0.E+000,0.E+000,-2.82));
#347 = DIRECTION('',(-0.E+000,-0.E+000,-1.));
#348 = DIRECTION('',(1.,0.E+000,0.E+000));
#349 = ADVANCED_FACE('',(#350),#370,.T.);
#350 = FACE_BOUND('',#351,.F.);
#351 = EDGE_LOOP('',(#352,#361,#362,#363));
#352 = ORIENTED_EDGE('',*,*,#353,.F.);
#353 = EDGE_CURVE('',#303,#354,#356,.T.);
#354 = VERTEX_POINT('',#355);
#355 = CARTESIAN_POINT('',(10.27,-1.95,-3.));
#356 = CIRCLE('',#357,0.18);
#357 = AXIS2_PLACEMENT_3D('',#358,#359,#360);
#358 = CARTESIAN_POINT('',(10.27,-1.95,-2.82));
#359 = DIRECTION('',(-5.194145877998E-031,1.,-1.2985364695E-030));
#360 = DIRECTION('',(1.,5.194145877998E-031,1.460853528187E-030));
#361 = ORIENTED_EDGE('',*,*,#310,.T.);
#362 = ORIENTED_EDGE('',*,*,#353,.T.);
#363 = ORIENTED_EDGE('',*,*,#364,.F.);
#364 = EDGE_CURVE('',#354,#354,#365,.T.);
#365 = CIRCLE('',#366,0.27);
#366 = AXIS2_PLACEMENT_3D('',#367,#368,#369);
#367 = CARTESIAN_POINT('',(10.,-1.95,-3.));
#368 = DIRECTION('',(-1.460853528187E-030,1.2985364695E-030,1.));
#369 = DIRECTION('',(1.,5.194145877998E-031,1.460853528187E-030));
#370 = TOROIDAL_SURFACE('',#371,0.27,0.18);
#371 = AXIS2_PLACEMENT_3D('',#372,#373,#374);
#372 = CARTESIAN_POINT('',(10.,-1.95,-2.82));
#373 = DIRECTION('',(1.460853528187E-030,-1.2985364695E-030,-1.));
#374 = DIRECTION('',(1.,5.194145877998E-031,1.460853528187E-030));
#375 = ADVANCED_FACE('',(#376),#379,.F.);
#376 = FACE_BOUND('',#377,.F.);
#377 = EDGE_LOOP('',(#378));
#378 = ORIENTED_EDGE('',*,*,#338,.T.);
#379 = PLANE('',#380);
#380 = AXIS2_PLACEMENT_3D('',#381,#382,#383);
#381 = CARTESIAN_POINT('',(-1.18701400394E-017,2.911085817041E-017,-3.)
);
#382 = DIRECTION('',(0.E+000,0.E+000,1.));
#383 = DIRECTION('',(1.,0.E+000,0.E+000));
#384 = ADVANCED_FACE('',(#385),#388,.F.);
#385 = FACE_BOUND('',#386,.F.);
#386 = EDGE_LOOP('',(#387));
#387 = ORIENTED_EDGE('',*,*,#364,.T.);
#388 = PLANE('',#389);
#389 = AXIS2_PLACEMENT_3D('',#390,#391,#392);
#390 = CARTESIAN_POINT('',(10.,-1.95,-3.));
#391 = DIRECTION('',(-1.460853528187E-030,1.2985364695E-030,1.));
#392 = DIRECTION('',(1.,0.E+000,1.460853528187E-030));
#393 = ( GEOMETRIC_REPRESENTATION_CONTEXT(3)
GLOBAL_UNCERTAINTY_ASSIGNED_CONTEXT((#397)) GLOBAL_UNIT_ASSIGNED_CONTEXT
((#394,#395,#396)) REPRESENTATION_CONTEXT('Context #1',
'3D Context with UNIT and UNCERTAINTY') );
#394 = ( LENGTH_UNIT() NAMED_UNIT(*) SI_UNIT(.MILLI.,.METRE.) );
#395 = ( NAMED_UNIT(*) PLANE_ANGLE_UNIT() SI_UNIT($,.RADIAN.) );
#396 = ( NAMED_UNIT(*) SI_UNIT($,.STERADIAN.) SOLID_ANGLE_UNIT() );
#397 = UNCERTAINTY_MEASURE_WITH_UNIT(LENGTH_MEASURE(1.E-007),#394,
'distance_accuracy_value','confusion accuracy');
#398 = PRODUCT_RELATED_PRODUCT_CATEGORY('part',$,(#7));
#399 = MECHANICAL_DESIGN_GEOMETRIC_PRESENTATION_REPRESENTATION('',(#400,
#408,#415,#422,#429,#437,#444,#451,#458,#465,#472),#393);
#400 = STYLED_ITEM('color',(#401),#17);
#401 = PRESENTATION_STYLE_ASSIGNMENT((#402));
#402 = SURFACE_STYLE_USAGE(.BOTH.,#403);
#403 = SURFACE_SIDE_STYLE('',(#404));
#404 = SURFACE_STYLE_FILL_AREA(#405);
#405 = FILL_AREA_STYLE('',(#406));
#406 = FILL_AREA_STYLE_COLOUR('',#407);
#407 = COLOUR_RGB('',0.136999994516,0.402000010014,0.726999998093);
#408 = STYLED_ITEM('color',(#409),#50);
#409 = PRESENTATION_STYLE_ASSIGNMENT((#410));
#410 = SURFACE_STYLE_USAGE(.BOTH.,#411);
#411 = SURFACE_SIDE_STYLE('',(#412));
#412 = SURFACE_STYLE_FILL_AREA(#413);
#413 = FILL_AREA_STYLE('',(#414));
#414 = FILL_AREA_STYLE_COLOUR('',#407);
#415 = STYLED_ITEM('color',(#416),#152);
#416 = PRESENTATION_STYLE_ASSIGNMENT((#417));
#417 = SURFACE_STYLE_USAGE(.BOTH.,#418);
#418 = SURFACE_SIDE_STYLE('',(#419));
#419 = SURFACE_STYLE_FILL_AREA(#420);
#420 = FILL_AREA_STYLE('',(#421));
#421 = FILL_AREA_STYLE_COLOUR('',#407);
#422 = STYLED_ITEM('color',(#423),#253);
#423 = PRESENTATION_STYLE_ASSIGNMENT((#424));
#424 = SURFACE_STYLE_USAGE(.BOTH.,#425);
#425 = SURFACE_SIDE_STYLE('',(#426));
#426 = SURFACE_STYLE_FILL_AREA(#427);
#427 = FILL_AREA_STYLE('',(#428));
#428 = FILL_AREA_STYLE_COLOUR('',#407);
#429 = STYLED_ITEM('color',(#430),#262);
#430 = PRESENTATION_STYLE_ASSIGNMENT((#431));
#431 = SURFACE_STYLE_USAGE(.BOTH.,#432);
#432 = SURFACE_SIDE_STYLE('',(#433));
#433 = SURFACE_STYLE_FILL_AREA(#434);
#434 = FILL_AREA_STYLE('',(#435));
#435 = FILL_AREA_STYLE_COLOUR('',#436);
#436 = COLOUR_RGB('',0.824000000954,0.819999992847,0.78100001812);
#437 = STYLED_ITEM('color',(#438),#288);
#438 = PRESENTATION_STYLE_ASSIGNMENT((#439));
#439 = SURFACE_STYLE_USAGE(.BOTH.,#440);
#440 = SURFACE_SIDE_STYLE('',(#441));
#441 = SURFACE_STYLE_FILL_AREA(#442);
#442 = FILL_AREA_STYLE('',(#443));
#443 = FILL_AREA_STYLE_COLOUR('',#407);
#444 = STYLED_ITEM('color',(#445),#297);
#445 = PRESENTATION_STYLE_ASSIGNMENT((#446));
#446 = SURFACE_STYLE_USAGE(.BOTH.,#447);
#447 = SURFACE_SIDE_STYLE('',(#448));
#448 = SURFACE_STYLE_FILL_AREA(#449);
#449 = FILL_AREA_STYLE('',(#450));
#450 = FILL_AREA_STYLE_COLOUR('',#436);
#451 = STYLED_ITEM('color',(#452),#323);
#452 = PRESENTATION_STYLE_ASSIGNMENT((#453));
#453 = SURFACE_STYLE_USAGE(.BOTH.,#454);
#454 = SURFACE_SIDE_STYLE('',(#455));
#455 = SURFACE_STYLE_FILL_AREA(#456);
#456 = FILL_AREA_STYLE('',(#457));
#457 = FILL_AREA_STYLE_COLOUR('',#436);
#458 = STYLED_ITEM('color',(#459),#349);
#459 = PRESENTATION_STYLE_ASSIGNMENT((#460));
#460 = SURFACE_STYLE_USAGE(.BOTH.,#461);
#461 = SURFACE_SIDE_STYLE('',(#462));
#462 = SURFACE_STYLE_FILL_AREA(#463);
#463 = FILL_AREA_STYLE('',(#464));
#464 = FILL_AREA_STYLE_COLOUR('',#436);
#465 = STYLED_ITEM('color',(#466),#375);
#466 = PRESENTATION_STYLE_ASSIGNMENT((#467));
#467 = SURFACE_STYLE_USAGE(.BOTH.,#468);
#468 = SURFACE_SIDE_STYLE('',(#469));
#469 = SURFACE_STYLE_FILL_AREA(#470);
#470 = FILL_AREA_STYLE('',(#471));
#471 = FILL_AREA_STYLE_COLOUR('',#436);
#472 = STYLED_ITEM('color',(#473),#384);
#473 = PRESENTATION_STYLE_ASSIGNMENT((#474));
#474 = SURFACE_STYLE_USAGE(.BOTH.,#475);
#475 = SURFACE_SIDE_STYLE('',(#476));
#476 = SURFACE_STYLE_FILL_AREA(#477);
#477 = FILL_AREA_STYLE('',(#478));
#478 = FILL_AREA_STYLE_COLOUR('',#436);
ENDSEC;
END-ISO-10303-21;
