ISO-10303-21;
HEADER;
/* RV_Disc_D12mm_W6.1mm_P7.5mm.step 3D STEP model for use in ECAD systems
 * Copyright (C) 2018, kicad StepUp
 * 
 * This work is licensed under the [Creative Commons CC-BY-SA 4.0 License](https://creativecommons.org/licenses/by-sa/4.0/legalcode), 
 * with the following exception:
 * To the extent that the creation of electronic designs that use 'Licensed Material' can be considered to be 'Adapted Material', 
 * then the copyright holder waives article 3 of the license with respect to these designs and any generated files which use data provided 
 * as part of the 'Licensed Material'.
 * You are free to use the library data in your own projects without the obligation to share your project files under this or any other license agreement.
 * However, if you wish to redistribute these libraries, or parts thereof (including in modified form) as a collection then the exception above does not apply. 
 * Please refer to https://github.com/KiCad/kicad-packages3D/blob/master/LICENSE.md for further clarification of the exception.
 * Disclaimer of Warranties and Limitation of Liability.
 * These libraries are provided in the hope that they will be useful, but are provided without warranty of any kind, express or implied.
 * *USE 3D CAD DATA AT YOUR OWN RISK*
 * *DO NOT RELY UPON ANY INFORMATION FOUND HERE WITHOUT INDEPENDENT VERIFICATION.*
 * 
 */

FILE_DESCRIPTION(
/* description */ ('model of RV_Disc_D12mm_W6.1mm_P7.5mm'),
/* implementation_level */ '2;1');

FILE_NAME(
/* name */ 'RV_Disc_D12mm_W6.1mm_P7.5mm.step',
/* time_stamp */ '2018-11-11T20:40:01',
/* author */ ('kicad StepUp','ksu'),
/* organization */ ('FreeCAD'),
/* preprocessor_version */ 'OCC',
/* originating_system */ 'kicad StepUp',
/* authorisation */ '');

FILE_SCHEMA(('AUTOMOTIVE_DESIGN { 1 0 10303 214 1 1 1 1 }'));
ENDSEC;

DATA;
#1 = APPLICATION_PROTOCOL_DEFINITION('international standard',
'automotive_design',2000,#2);
#2 = APPLICATION_CONTEXT(
'core data for automotive mechanical design processes');
#3 = SHAPE_DEFINITION_REPRESENTATION(#4,#10);
#4 = PRODUCT_DEFINITION_SHAPE('','',#5);
#5 = PRODUCT_DEFINITION('design','',#6,#9);
#6 = PRODUCT_DEFINITION_FORMATION('','',#7);
#7 = PRODUCT('RV_Disc_D12mm_W61mm_P75mm','RV_Disc_D12mm_W61mm_P75mm','',
(#8));
#8 = PRODUCT_CONTEXT('',#2,'mechanical');
#9 = PRODUCT_DEFINITION_CONTEXT('part definition',#2,'design');
#10 = ADVANCED_BREP_SHAPE_REPRESENTATION('',(#11,#15),#402);
#11 = AXIS2_PLACEMENT_3D('',#12,#13,#14);
#12 = CARTESIAN_POINT('',(0.E+000,0.E+000,0.E+000));
#13 = DIRECTION('',(0.E+000,0.E+000,1.));
#14 = DIRECTION('',(1.,0.E+000,-0.E+000));
#15 = MANIFOLD_SOLID_BREP('',#16);
#16 = CLOSED_SHELL('',(#17,#50,#156,#262,#271,#297,#306,#332,#358,#384,
#393));
#17 = ADVANCED_FACE('',(#18),#45,.T.);
#18 = FACE_BOUND('',#19,.F.);
#19 = EDGE_LOOP('',(#20,#30,#37,#38));
#20 = ORIENTED_EDGE('',*,*,#21,.T.);
#21 = EDGE_CURVE('',#22,#24,#26,.T.);
#22 = VERTEX_POINT('',#23);
#23 = CARTESIAN_POINT('',(9.75,-1.375609756098,6.03));
#24 = VERTEX_POINT('',#25);
#25 = CARTESIAN_POINT('',(9.75,-1.524390243902,6.03));
#26 = LINE('',#27,#28);
#27 = CARTESIAN_POINT('',(9.75,1.6,6.03));
#28 = VECTOR('',#29,1.);
#29 = DIRECTION('',(0.E+000,-1.,0.E+000));
#30 = ORIENTED_EDGE('',*,*,#31,.T.);
#31 = EDGE_CURVE('',#24,#24,#32,.T.);
#32 = CIRCLE('',#33,6.);
#33 = AXIS2_PLACEMENT_3D('',#34,#35,#36);
#34 = CARTESIAN_POINT('',(3.75,-1.524390243902,6.03));
#35 = DIRECTION('',(0.E+000,-1.,0.E+000));
#36 = DIRECTION('',(1.,0.E+000,0.E+000));
#37 = ORIENTED_EDGE('',*,*,#21,.F.);
#38 = ORIENTED_EDGE('',*,*,#39,.F.);
#39 = EDGE_CURVE('',#22,#22,#40,.T.);
#40 = CIRCLE('',#41,6.);
#41 = AXIS2_PLACEMENT_3D('',#42,#43,#44);
#42 = CARTESIAN_POINT('',(3.75,-1.375609756098,6.03));
#43 = DIRECTION('',(0.E+000,-1.,0.E+000));
#44 = DIRECTION('',(1.,0.E+000,0.E+000));
#45 = CYLINDRICAL_SURFACE('',#46,6.);
#46 = AXIS2_PLACEMENT_3D('',#47,#48,#49);
#47 = CARTESIAN_POINT('',(3.75,1.6,6.03));
#48 = DIRECTION('',(0.E+000,1.,0.E+000));
#49 = DIRECTION('',(1.,0.E+000,0.E+000));
#50 = ADVANCED_FACE('',(#51,#71),#151,.T.);
#51 = FACE_BOUND('',#52,.F.);
#52 = EDGE_LOOP('',(#53,#54,#63,#70));
#53 = ORIENTED_EDGE('',*,*,#39,.T.);
#54 = ORIENTED_EDGE('',*,*,#55,.T.);
#55 = EDGE_CURVE('',#22,#56,#58,.T.);
#56 = VERTEX_POINT('',#57);
#57 = CARTESIAN_POINT('',(6.774390243902,1.6,6.03));
#58 = CIRCLE('',#59,2.975609756098);
#59 = AXIS2_PLACEMENT_3D('',#60,#61,#62);
#60 = CARTESIAN_POINT('',(6.774390243902,-1.375609756098,6.03));
#61 = DIRECTION('',(0.E+000,0.E+000,1.));
#62 = DIRECTION('',(1.,0.E+000,0.E+000));
#63 = ORIENTED_EDGE('',*,*,#64,.F.);
#64 = EDGE_CURVE('',#56,#56,#65,.T.);
#65 = CIRCLE('',#66,3.024390243902);
#66 = AXIS2_PLACEMENT_3D('',#67,#68,#69);
#67 = CARTESIAN_POINT('',(3.75,1.6,6.03));
#68 = DIRECTION('',(0.E+000,-1.,0.E+000));
#69 = DIRECTION('',(1.,0.E+000,0.E+000));
#70 = ORIENTED_EDGE('',*,*,#55,.F.);
#71 = FACE_BOUND('',#72,.F.);
#72 = EDGE_LOOP('',(#73,#110));
#73 = ORIENTED_EDGE('',*,*,#74,.T.);
#74 = EDGE_CURVE('',#75,#77,#79,.T.);
#75 = VERTEX_POINT('',#76);
#76 = CARTESIAN_POINT('',(0.36,0.E+000,1.493833866765));
#77 = VERTEX_POINT('',#78);
#78 = CARTESIAN_POINT('',(-0.253867370833,-0.255247640589,1.859950749811
));
#79 = B_SPLINE_CURVE_WITH_KNOTS('',8,(#80,#81,#82,#83,#84,#85,#86,#87,
#88,#89,#90,#91,#92,#93,#94,#95,#96,#97,#98,#99,#100,#101,#102,#103,
#104,#105,#106,#107,#108,#109),.UNSPECIFIED.,.F.,.F.,(9,7,7,7,9),(
0.E+000,7.727186645688E-002,0.231961961982,0.43686756058,1.),
.UNSPECIFIED.);
#80 = CARTESIAN_POINT('',(0.36,-5.551115123126E-017,1.493833866765));
#81 = CARTESIAN_POINT('',(0.36,-8.047595502645E-003,1.488596065696));
#82 = CARTESIAN_POINT('',(0.359794463209,-1.613352613376E-002,
1.483533925895));
#83 = CARTESIAN_POINT('',(0.359379838148,-2.425189660573E-002,
1.478653657825));
#84 = CARTESIAN_POINT('',(0.358752857201,-3.239639044537E-002,
1.473961401748));
#85 = CARTESIAN_POINT('',(0.357910536624,-4.056026999384E-002,
1.469463227729));
#86 = CARTESIAN_POINT('',(0.356850176534,-4.873637640669E-002,
1.465165135633));
#87 = CARTESIAN_POINT('',(0.355569360921,-5.691712965389E-002,
1.461073055126));
#88 = CARTESIAN_POINT('',(0.351056303432,-8.1464815271E-002,
1.449425077169));
#89 = CARTESIAN_POINT('',(0.347154675314,-9.782288698384E-002,
1.442505535141));
#90 = CARTESIAN_POINT('',(0.342344927531,-0.114103331195,1.43648135023)
);
#91 = CARTESIAN_POINT('',(0.336618249996,-0.13023421475,1.431395790807)
);
#92 = CARTESIAN_POINT('',(0.329974829184,-0.14613892592,1.427286145568)
);
#93 = CARTESIAN_POINT('',(0.322425509022,-0.161738016524,1.424181606132)
);
#94 = CARTESIAN_POINT('',(0.313993451787,-0.176951044048,1.422101149634)
);
#95 = CARTESIAN_POINT('',(0.292426434311,-0.211233075042,1.41966093018)
);
#96 = CARTESIAN_POINT('',(0.278648686776,-0.229958250548,1.420078427921)
);
#97 = CARTESIAN_POINT('',(0.263469496993,-0.247683763899,1.422322273866)
);
#98 = CARTESIAN_POINT('',(0.24700881063,-0.264243570429,1.426368682862)
);
#99 = CARTESIAN_POINT('',(0.229411192272,-0.279500516354,1.432158939179)
);
#100 = CARTESIAN_POINT('',(0.210837858409,-0.293348850604,1.439606428167
));
#101 = CARTESIAN_POINT('',(0.191459129583,-0.30571448933,1.4486034857));
#102 = CARTESIAN_POINT('',(0.116449734266,-0.346340094152,1.487677448442
));
#103 = CARTESIAN_POINT('',(5.684575524224E-002,-0.364498440828,
1.527017441335));
#104 = CARTESIAN_POINT('',(-4.130580224106E-003,-0.370452425956,
1.574598131286));
#105 = CARTESIAN_POINT('',(-6.356627136755E-002,-0.364972894201,
1.627727229008));
#106 = CARTESIAN_POINT('',(-0.119425813867,-0.349398330957,
1.684292454634));
#107 = CARTESIAN_POINT('',(-0.170332192416,-0.325163911508,
1.742606361054));
#108 = CARTESIAN_POINT('',(-0.215418154556,-0.293488939997,
1.801487351545));
#109 = CARTESIAN_POINT('',(-0.253867370833,-0.255247640589,
1.859950749811));
#110 = ORIENTED_EDGE('',*,*,#111,.T.);
#111 = EDGE_CURVE('',#77,#75,#112,.T.);
#112 = B_SPLINE_CURVE_WITH_KNOTS('',7,(#113,#114,#115,#116,#117,#118,
#119,#120,#121,#122,#123,#124,#125,#126,#127,#128,#129,#130,#131,
#132,#133,#134,#135,#136,#137,#138,#139,#140,#141,#142,#143,#144,
#145,#146,#147,#148,#149,#150),.UNSPECIFIED.,.F.,.F.,(8,6,6,6,6,6,8)
,(0.E+000,0.241576139748,0.301109925275,0.401213807202,0.544584570043,
0.744112921171,1.),.UNSPECIFIED.);
#113 = CARTESIAN_POINT('',(-0.253867370833,-0.255247640589,
1.859950749811));
#114 = CARTESIAN_POINT('',(-0.286845295637,-0.222448046257,
1.910094855166));
#115 = CARTESIAN_POINT('',(-0.314723885798,-0.184831952326,
1.959750051959));
#116 = CARTESIAN_POINT('',(-0.336967021029,-0.143101220778,
2.008182750791));
#117 = CARTESIAN_POINT('',(-0.352968339511,-9.792513773809E-002,
2.05455975059));
#118 = CARTESIAN_POINT('',(-0.362050309716,-5.009969508013E-002,
2.097817090547));
#119 = CARTESIAN_POINT('',(-0.363496933417,-6.063747642896E-004,
2.136557366949));
#120 = CARTESIAN_POINT('',(-0.354923787278,6.150431887599E-002,
2.176895494836));
#121 = CARTESIAN_POINT('',(-0.352723909951,7.379963285441E-002,
2.184480125));
#122 = CARTESIAN_POINT('',(-0.350010003098,8.608796883875E-002,
2.191645386837));
#123 = CARTESIAN_POINT('',(-0.346773734792,9.834438753073E-002,
2.198360397107));
#124 = CARTESIAN_POINT('',(-0.343008422123,0.110541274025,2.204592796292
));
#125 = CARTESIAN_POINT('',(-0.338709825013,0.122648491625,2.210309588141
));
#126 = CARTESIAN_POINT('',(-0.325750620739,0.154785948661,2.224168439694
));
#127 = CARTESIAN_POINT('',(-0.316111765205,0.17459772708,2.231310462188)
);
#128 = CARTESIAN_POINT('',(-0.30495808512,0.193905754917,2.236743898256)
);
#129 = CARTESIAN_POINT('',(-0.292317000173,0.212529030286,2.240314497744
));
#130 = CARTESIAN_POINT('',(-0.278258698363,0.230277369244,2.241895305654
));
#131 = CARTESIAN_POINT('',(-0.262904016701,0.246966267962,2.241411042847
));
#132 = CARTESIAN_POINT('',(-0.22282863626,0.284596734454,2.235219651585)
);
#133 = CARTESIAN_POINT('',(-0.19690990819,0.304275841263,2.227342629862)
);
#134 = CARTESIAN_POINT('',(-0.169186669107,0.320993532193,2.21523380357)
);
#135 = CARTESIAN_POINT('',(-0.140269145841,0.334514623311,2.199211259768
));
#136 = CARTESIAN_POINT('',(-0.110726966496,0.34482227438,2.179801942345)
);
#137 = CARTESIAN_POINT('',(-8.10336573293E-002,0.35202322442,
2.157580304444));
#138 = CARTESIAN_POINT('',(-1.054507113096E-002,0.362224207698,
2.099016613361));
#139 = CARTESIAN_POINT('',(3.002775064039E-002,0.362471520049,
2.060565635784));
#140 = CARTESIAN_POINT('',(6.937681035103E-002,0.357530761366,
2.019038249117));
#141 = CARTESIAN_POINT('',(0.10698477898,0.347930951649,1.9755653186));
#142 = CARTESIAN_POINT('',(0.14249149087,0.334118921147,1.931030933632)
);
#143 = CARTESIAN_POINT('',(0.175630602603,0.316446809598,1.886115577142)
);
#144 = CARTESIAN_POINT('',(0.245261873911,0.267813405366,1.783976964478)
);
#145 = CARTESIAN_POINT('',(0.279948948424,0.234584133251,1.727019489815)
);
#146 = CARTESIAN_POINT('',(0.309668815449,0.195995778769,1.671668010311)
);
#147 = CARTESIAN_POINT('',(0.333640783508,0.152453762056,1.619119277179)
);
#148 = CARTESIAN_POINT('',(0.350835579746,0.10452943294,1.570811551894)
);
#149 = CARTESIAN_POINT('',(0.36,5.317711890037E-002,1.528444350126));
#150 = CARTESIAN_POINT('',(0.36,-5.551115123126E-017,1.493833866765));
#151 = TOROIDAL_SURFACE('',#152,3.024390243902,2.975609756098);
#152 = AXIS2_PLACEMENT_3D('',#153,#154,#155);
#153 = CARTESIAN_POINT('',(3.75,-1.375609756098,6.03));
#154 = DIRECTION('',(0.E+000,1.,0.E+000));
#155 = DIRECTION('',(1.,0.E+000,0.E+000));
#156 = ADVANCED_FACE('',(#157,#177),#257,.T.);
#157 = FACE_BOUND('',#158,.T.);
#158 = EDGE_LOOP('',(#159,#160,#169,#176));
#159 = ORIENTED_EDGE('',*,*,#31,.T.);
#160 = ORIENTED_EDGE('',*,*,#161,.T.);
#161 = EDGE_CURVE('',#24,#162,#164,.T.);
#162 = VERTEX_POINT('',#163);
#163 = CARTESIAN_POINT('',(6.774390243902,-4.5,6.03));
#164 = CIRCLE('',#165,2.975609756098);
#165 = AXIS2_PLACEMENT_3D('',#166,#167,#168);
#166 = CARTESIAN_POINT('',(6.774390243902,-1.524390243902,6.03));
#167 = DIRECTION('',(0.E+000,0.E+000,-1.));
#168 = DIRECTION('',(1.,0.E+000,0.E+000));
#169 = ORIENTED_EDGE('',*,*,#170,.F.);
#170 = EDGE_CURVE('',#162,#162,#171,.T.);
#171 = CIRCLE('',#172,3.024390243902);
#172 = AXIS2_PLACEMENT_3D('',#173,#174,#175);
#173 = CARTESIAN_POINT('',(3.75,-4.5,6.03));
#174 = DIRECTION('',(0.E+000,-1.,0.E+000));
#175 = DIRECTION('',(1.,0.E+000,0.E+000));
#176 = ORIENTED_EDGE('',*,*,#161,.F.);
#177 = FACE_BOUND('',#178,.T.);
#178 = EDGE_LOOP('',(#179,#198));
#179 = ORIENTED_EDGE('',*,*,#180,.T.);
#180 = EDGE_CURVE('',#181,#183,#185,.T.);
#181 = VERTEX_POINT('',#182);
#182 = CARTESIAN_POINT('',(7.86,-2.9,2.134258326287));
#183 = VERTEX_POINT('',#184);
#184 = CARTESIAN_POINT('',(7.457979117197,-2.542460847726,1.543555232894
));
#185 = B_SPLINE_CURVE_WITH_KNOTS('',6,(#186,#187,#188,#189,#190,#191,
#192,#193,#194,#195,#196,#197),.UNSPECIFIED.,.F.,.F.,(7,5,7),(
0.E+000,0.482164735612,1.),.UNSPECIFIED.);
#186 = CARTESIAN_POINT('',(7.86,-2.9,2.134258326287));
#187 = CARTESIAN_POINT('',(7.86,-2.849719272204,2.096153216543));
#188 = CARTESIAN_POINT('',(7.851572935814,-2.800785788089,2.052539676008
));
#189 = CARTESIAN_POINT('',(7.83556456254,-2.754501853578,2.005297413463)
);
#190 = CARTESIAN_POINT('',(7.812765114481,-2.71182651231,1.955729868349)
);
#191 = CARTESIAN_POINT('',(7.783893710361,-2.673578906741,1.904845681691
));
#192 = CARTESIAN_POINT('',(7.712815991,-2.605180406627,1.798453332832));
#193 = CARTESIAN_POINT('',(7.669847289099,-2.575901634466,1.742980799475
));
#194 = CARTESIAN_POINT('',(7.62157302961,-2.553750750832,1.688224532898)
);
#195 = CARTESIAN_POINT('',(7.568976180488,-2.539967032251,1.635462387151
));
#196 = CARTESIAN_POINT('',(7.513664214286,-2.535916286316,1.58648663263)
);
#197 = CARTESIAN_POINT('',(7.457979117197,-2.542460847726,1.543555232894
));
#198 = ORIENTED_EDGE('',*,*,#199,.T.);
#199 = EDGE_CURVE('',#183,#181,#200,.T.);
#200 = B_SPLINE_CURVE_WITH_KNOTS('',7,(#201,#202,#203,#204,#205,#206,
#207,#208,#209,#210,#211,#212,#213,#214,#215,#216,#217,#218,#219,
#220,#221,#222,#223,#224,#225,#226,#227,#228,#229,#230,#231,#232,
#233,#234,#235,#236,#237,#238,#239,#240,#241,#242,#243,#244,#245,
#246,#247,#248,#249,#250,#251,#252,#253,#254,#255,#256),
.UNSPECIFIED.,.F.,.F.,(8,6,6,6,6,6,6,6,6,8),(0.E+000,0.18430631364,
0.287008920602,0.342977176824,0.525619543627,0.737920721406,
0.830303871458,0.897487006398,0.930373835637,1.),.UNSPECIFIED.);
#201 = CARTESIAN_POINT('',(7.457979117197,-2.542460847726,1.543555232894
));
#202 = CARTESIAN_POINT('',(7.414239126974,-2.547601523905,1.509833122259
));
#203 = CARTESIAN_POINT('',(7.370228691448,-2.559102896925,1.479700568496
));
#204 = CARTESIAN_POINT('',(7.327168036926,-2.577345445166,1.454312191132
));
#205 = CARTESIAN_POINT('',(7.286532129123,-2.602384352284,1.434885334097
));
#206 = CARTESIAN_POINT('',(7.249960938281,-2.633752673252,1.42256645294)
);
#207 = CARTESIAN_POINT('',(7.218908612423,-2.670243246208,1.418063366041
));
#208 = CARTESIAN_POINT('',(7.180373885831,-2.732302516821,1.422925335602
));
#209 = CARTESIAN_POINT('',(7.168536223839,-2.755564494268,1.427033796246
));
#210 = CARTESIAN_POINT('',(7.158782224349,-2.779591940787,1.43348384808)
);
#211 = CARTESIAN_POINT('',(7.151160003882,-2.804088350218,1.442174018865
));
#212 = CARTESIAN_POINT('',(7.145650733048,-2.82877926694,1.4529539434));
#213 = CARTESIAN_POINT('',(7.142188493545,-2.853427786048,1.465647362147
));
#214 = CARTESIAN_POINT('',(7.139862431289,-2.891137923951,1.487933719166
));
#215 = CARTESIAN_POINT('',(7.139622943371,-2.904369589533,1.496309932813
));
#216 = CARTESIAN_POINT('',(7.139949860356,-2.91750050342,1.505172650667)
);
#217 = CARTESIAN_POINT('',(7.140826743342,-2.930503199051,1.514493002122
));
#218 = CARTESIAN_POINT('',(7.14223600807,-2.943353418475,1.52424239581)
);
#219 = CARTESIAN_POINT('',(7.144159635192,-2.956029934356,1.534393066412
));
#220 = CARTESIAN_POINT('',(7.154477917233,-3.009255095235,1.579266882772
));
#221 = CARTESIAN_POINT('',(7.167658630335,-3.047919009842,1.617581014987
));
#222 = CARTESIAN_POINT('',(7.185497443929,-3.083919707782,1.658971175791
));
#223 = CARTESIAN_POINT('',(7.207414974578,-3.116865864602,1.702634622134
));
#224 = CARTESIAN_POINT('',(7.232920193179,-3.146479964018,1.747861573649
));
#225 = CARTESIAN_POINT('',(7.261622690295,-3.172517340847,1.794005044039
));
#226 = CARTESIAN_POINT('',(7.329935436227,-3.220453579251,1.89436056851)
);
#227 = CARTESIAN_POINT('',(7.370448082326,-3.240914610849,1.948501092672
));
#228 = CARTESIAN_POINT('',(7.414335464347,-3.255741270941,2.001969055994
));
#229 = CARTESIAN_POINT('',(7.461165960935,-3.2642518167,2.053553823555)
);
#230 = CARTESIAN_POINT('',(7.510232019159,-3.265568158851,2.10152259476)
);
#231 = CARTESIAN_POINT('',(7.560328846372,-3.25865547401,2.143492374443)
);
#232 = CARTESIAN_POINT('',(7.631011048282,-3.236068915702,2.191679468067
));
#233 = CARTESIAN_POINT('',(7.652250949777,-3.227559406921,2.20467944114)
);
#234 = CARTESIAN_POINT('',(7.673105493745,-3.217362042957,2.215853037334
));
#235 = CARTESIAN_POINT('',(7.693359098643,-3.205485619931,2.225002414892
));
#236 = CARTESIAN_POINT('',(7.712782780745,-3.191990310213,2.231974458218
));
#237 = CARTESIAN_POINT('',(7.731151241632,-3.176997909901,2.236684932637
));
#238 = CARTESIAN_POINT('',(7.760716760019,-3.148841840625,2.24092502965)
);
#239 = CARTESIAN_POINT('',(7.772507576207,-3.136290762944,2.241517949627
));
#240 = CARTESIAN_POINT('',(7.783566485294,-3.123113108721,2.24091944876)
);
#241 = CARTESIAN_POINT('',(7.793836552797,-3.109386907297,2.239155665547
));
#242 = CARTESIAN_POINT('',(7.8032771086,-3.09519441032,2.236272004198));
#243 = CARTESIAN_POINT('',(7.811862367241,-3.080618069798,2.232327154099
));
#244 = CARTESIAN_POINT('',(7.8233579317,-3.058451843976,2.224968906993)
);
#245 = CARTESIAN_POINT('',(7.826928071397,-3.051093607067,2.222312023621
));
#246 = CARTESIAN_POINT('',(7.83028923548,-3.043670795391,2.21942423811)
);
#247 = CARTESIAN_POINT('',(7.833440772847,-3.036192007852,2.216313429907
));
#248 = CARTESIAN_POINT('',(7.836382613121,-3.028665452301,2.21298757896)
);
#249 = CARTESIAN_POINT('',(7.839115266651,-3.021098945527,2.209454765714
));
#250 = CARTESIAN_POINT('',(7.846984677883,-2.997411665115,2.197822846727
));
#251 = CARTESIAN_POINT('',(7.851396133812,-2.981178661937,2.189031700485
));
#252 = CARTESIAN_POINT('',(7.854884264009,-2.964869604781,2.179425680996
));
#253 = CARTESIAN_POINT('',(7.857466111676,-2.948546111196,2.169078607242
));
#254 = CARTESIAN_POINT('',(7.859163359891,-2.932262765954,2.158060312412
));
#255 = CARTESIAN_POINT('',(7.86,-2.916067171765,2.146434787731));
#256 = CARTESIAN_POINT('',(7.86,-2.9,2.134258326287));
#257 = TOROIDAL_SURFACE('',#258,3.024390243902,2.975609756098);
#258 = AXIS2_PLACEMENT_3D('',#259,#260,#261);
#259 = CARTESIAN_POINT('',(3.75,-1.524390243902,6.03));
#260 = DIRECTION('',(0.E+000,-1.,0.E+000));
#261 = DIRECTION('',(1.,0.E+000,0.E+000));
#262 = ADVANCED_FACE('',(#263),#266,.F.);
#263 = FACE_BOUND('',#264,.F.);
#264 = EDGE_LOOP('',(#265));
#265 = ORIENTED_EDGE('',*,*,#64,.T.);
#266 = PLANE('',#267);
#267 = AXIS2_PLACEMENT_3D('',#268,#269,#270);
#268 = CARTESIAN_POINT('',(3.75,1.6,6.03));
#269 = DIRECTION('',(-0.E+000,-1.,-0.E+000));
#270 = DIRECTION('',(0.E+000,0.E+000,-1.));
#271 = ADVANCED_FACE('',(#272),#292,.T.);
#272 = FACE_BOUND('',#273,.T.);
#273 = EDGE_LOOP('',(#274,#275,#283,#290,#291));
#274 = ORIENTED_EDGE('',*,*,#111,.T.);
#275 = ORIENTED_EDGE('',*,*,#276,.T.);
#276 = EDGE_CURVE('',#75,#277,#279,.T.);
#277 = VERTEX_POINT('',#278);
#278 = CARTESIAN_POINT('',(0.36,0.E+000,-2.856));
#279 = LINE('',#280,#281);
#280 = CARTESIAN_POINT('',(0.36,0.E+000,6.03));
#281 = VECTOR('',#282,1.);
#282 = DIRECTION('',(-0.E+000,-0.E+000,-1.));
#283 = ORIENTED_EDGE('',*,*,#284,.T.);
#284 = EDGE_CURVE('',#277,#277,#285,.T.);
#285 = CIRCLE('',#286,0.36);
#286 = AXIS2_PLACEMENT_3D('',#287,#288,#289);
#287 = CARTESIAN_POINT('',(0.E+000,0.E+000,-2.856));
#288 = DIRECTION('',(0.E+000,0.E+000,1.));
#289 = DIRECTION('',(1.,0.E+000,0.E+000));
#290 = ORIENTED_EDGE('',*,*,#276,.F.);
#291 = ORIENTED_EDGE('',*,*,#74,.T.);
#292 = CYLINDRICAL_SURFACE('',#293,0.36);
#293 = AXIS2_PLACEMENT_3D('',#294,#295,#296);
#294 = CARTESIAN_POINT('',(0.E+000,0.E+000,6.03));
#295 = DIRECTION('',(0.E+000,0.E+000,1.));
#296 = DIRECTION('',(1.,0.E+000,0.E+000));
#297 = ADVANCED_FACE('',(#298),#301,.T.);
#298 = FACE_BOUND('',#299,.T.);
#299 = EDGE_LOOP('',(#300));
#300 = ORIENTED_EDGE('',*,*,#170,.T.);
#301 = PLANE('',#302);
#302 = AXIS2_PLACEMENT_3D('',#303,#304,#305);
#303 = CARTESIAN_POINT('',(3.75,-4.5,6.03));
#304 = DIRECTION('',(-0.E+000,-1.,-0.E+000));
#305 = DIRECTION('',(0.E+000,0.E+000,-1.));
#306 = ADVANCED_FACE('',(#307),#327,.T.);
#307 = FACE_BOUND('',#308,.T.);
#308 = EDGE_LOOP('',(#309,#310,#318,#325,#326));
#309 = ORIENTED_EDGE('',*,*,#180,.F.);
#310 = ORIENTED_EDGE('',*,*,#311,.T.);
#311 = EDGE_CURVE('',#181,#312,#314,.T.);
#312 = VERTEX_POINT('',#313);
#313 = CARTESIAN_POINT('',(7.86,-2.9,-2.856));
#314 = LINE('',#315,#316);
#315 = CARTESIAN_POINT('',(7.86,-2.9,6.03));
#316 = VECTOR('',#317,1.);
#317 = DIRECTION('',(-0.E+000,-0.E+000,-1.));
#318 = ORIENTED_EDGE('',*,*,#319,.T.);
#319 = EDGE_CURVE('',#312,#312,#320,.T.);
#320 = CIRCLE('',#321,0.36);
#321 = AXIS2_PLACEMENT_3D('',#322,#323,#324);
#322 = CARTESIAN_POINT('',(7.5,-2.9,-2.856));
#323 = DIRECTION('',(4.184736669286E-030,2.282583637792E-030,1.));
#324 = DIRECTION('',(1.,9.130334551169E-031,-4.184736669286E-030));
#325 = ORIENTED_EDGE('',*,*,#311,.F.);
#326 = ORIENTED_EDGE('',*,*,#199,.F.);
#327 = CYLINDRICAL_SURFACE('',#328,0.36);
#328 = AXIS2_PLACEMENT_3D('',#329,#330,#331);
#329 = CARTESIAN_POINT('',(7.5,-2.9,6.03));
#330 = DIRECTION('',(0.E+000,0.E+000,1.));
#331 = DIRECTION('',(1.,0.E+000,0.E+000));
#332 = ADVANCED_FACE('',(#333),#353,.T.);
#333 = FACE_BOUND('',#334,.F.);
#334 = EDGE_LOOP('',(#335,#344,#345,#346));
#335 = ORIENTED_EDGE('',*,*,#336,.F.);
#336 = EDGE_CURVE('',#277,#337,#339,.T.);
#337 = VERTEX_POINT('',#338);
#338 = CARTESIAN_POINT('',(0.216,0.E+000,-3.));
#339 = CIRCLE('',#340,0.144);
#340 = AXIS2_PLACEMENT_3D('',#341,#342,#343);
#341 = CARTESIAN_POINT('',(0.216,0.E+000,-2.856));
#342 = DIRECTION('',(-0.E+000,1.,0.E+000));
#343 = DIRECTION('',(1.,0.E+000,0.E+000));
#344 = ORIENTED_EDGE('',*,*,#284,.T.);
#345 = ORIENTED_EDGE('',*,*,#336,.T.);
#346 = ORIENTED_EDGE('',*,*,#347,.F.);
#347 = EDGE_CURVE('',#337,#337,#348,.T.);
#348 = CIRCLE('',#349,0.216);
#349 = AXIS2_PLACEMENT_3D('',#350,#351,#352);
#350 = CARTESIAN_POINT('',(0.E+000,0.E+000,-3.));
#351 = DIRECTION('',(0.E+000,0.E+000,1.));
#352 = DIRECTION('',(1.,0.E+000,0.E+000));
#353 = TOROIDAL_SURFACE('',#354,0.216,0.144);
#354 = AXIS2_PLACEMENT_3D('',#355,#356,#357);
#355 = CARTESIAN_POINT('',(0.E+000,0.E+000,-2.856));
#356 = DIRECTION('',(-0.E+000,-0.E+000,-1.));
#357 = DIRECTION('',(1.,0.E+000,0.E+000));
#358 = ADVANCED_FACE('',(#359),#379,.T.);
#359 = FACE_BOUND('',#360,.F.);
#360 = EDGE_LOOP('',(#361,#370,#371,#372));
#361 = ORIENTED_EDGE('',*,*,#362,.F.);
#362 = EDGE_CURVE('',#312,#363,#365,.T.);
#363 = VERTEX_POINT('',#364);
#364 = CARTESIAN_POINT('',(7.716,-2.9,-3.));
#365 = CIRCLE('',#366,0.144);
#366 = AXIS2_PLACEMENT_3D('',#367,#368,#369);
#367 = CARTESIAN_POINT('',(7.716,-2.9,-2.856));
#368 = DIRECTION('',(-9.130334551169E-031,1.,-2.282583637792E-030));
#369 = DIRECTION('',(1.,9.130334551169E-031,-4.184736669286E-030));
#370 = ORIENTED_EDGE('',*,*,#319,.T.);
#371 = ORIENTED_EDGE('',*,*,#362,.T.);
#372 = ORIENTED_EDGE('',*,*,#373,.F.);
#373 = EDGE_CURVE('',#363,#363,#374,.T.);
#374 = CIRCLE('',#375,0.216);
#375 = AXIS2_PLACEMENT_3D('',#376,#377,#378);
#376 = CARTESIAN_POINT('',(7.5,-2.9,-3.));
#377 = DIRECTION('',(4.184736669286E-030,2.282583637792E-030,1.));
#378 = DIRECTION('',(1.,9.130334551169E-031,-4.184736669286E-030));
#379 = TOROIDAL_SURFACE('',#380,0.216,0.144);
#380 = AXIS2_PLACEMENT_3D('',#381,#382,#383);
#381 = CARTESIAN_POINT('',(7.5,-2.9,-2.856));
#382 = DIRECTION('',(-4.184736669286E-030,-2.282583637792E-030,-1.));
#383 = DIRECTION('',(1.,9.130334551169E-031,-4.184736669286E-030));
#384 = ADVANCED_FACE('',(#385),#388,.F.);
#385 = FACE_BOUND('',#386,.F.);
#386 = EDGE_LOOP('',(#387));
#387 = ORIENTED_EDGE('',*,*,#347,.T.);
#388 = PLANE('',#389);
#389 = AXIS2_PLACEMENT_3D('',#390,#391,#392);
#390 = CARTESIAN_POINT('',(-1.483767504926E-017,1.497958850874E-017,-3.)
);
#391 = DIRECTION('',(0.E+000,0.E+000,1.));
#392 = DIRECTION('',(1.,0.E+000,0.E+000));
#393 = ADVANCED_FACE('',(#394),#397,.F.);
#394 = FACE_BOUND('',#395,.F.);
#395 = EDGE_LOOP('',(#396));
#396 = ORIENTED_EDGE('',*,*,#373,.T.);
#397 = PLANE('',#398);
#398 = AXIS2_PLACEMENT_3D('',#399,#400,#401);
#399 = CARTESIAN_POINT('',(7.5,-2.9,-3.));
#400 = DIRECTION('',(4.184736669286E-030,2.282583637792E-030,1.));
#401 = DIRECTION('',(1.,0.E+000,-4.184736669286E-030));
#402 = ( GEOMETRIC_REPRESENTATION_CONTEXT(3)
GLOBAL_UNCERTAINTY_ASSIGNED_CONTEXT((#406)) GLOBAL_UNIT_ASSIGNED_CONTEXT
((#403,#404,#405)) REPRESENTATION_CONTEXT('Context #1',
'3D Context with UNIT and UNCERTAINTY') );
#403 = ( LENGTH_UNIT() NAMED_UNIT(*) SI_UNIT(.MILLI.,.METRE.) );
#404 = ( NAMED_UNIT(*) PLANE_ANGLE_UNIT() SI_UNIT($,.RADIAN.) );
#405 = ( NAMED_UNIT(*) SI_UNIT($,.STERADIAN.) SOLID_ANGLE_UNIT() );
#406 = UNCERTAINTY_MEASURE_WITH_UNIT(LENGTH_MEASURE(1.E-007),#403,
'distance_accuracy_value','confusion accuracy');
#407 = PRODUCT_RELATED_PRODUCT_CATEGORY('part',$,(#7));
#408 = MECHANICAL_DESIGN_GEOMETRIC_PRESENTATION_REPRESENTATION('',(#409,
#417,#424,#431,#438,#446,#453,#460,#467,#474,#481),#402);
#409 = STYLED_ITEM('color',(#410),#17);
#410 = PRESENTATION_STYLE_ASSIGNMENT((#411));
#411 = SURFACE_STYLE_USAGE(.BOTH.,#412);
#412 = SURFACE_SIDE_STYLE('',(#413));
#413 = SURFACE_STYLE_FILL_AREA(#414);
#414 = FILL_AREA_STYLE('',(#415));
#415 = FILL_AREA_STYLE_COLOUR('',#416);
#416 = COLOUR_RGB('',0.136999994516,0.402000010014,0.726999998093);
#417 = STYLED_ITEM('color',(#418),#50);
#418 = PRESENTATION_STYLE_ASSIGNMENT((#419));
#419 = SURFACE_STYLE_USAGE(.BOTH.,#420);
#420 = SURFACE_SIDE_STYLE('',(#421));
#421 = SURFACE_STYLE_FILL_AREA(#422);
#422 = FILL_AREA_STYLE('',(#423));
#423 = FILL_AREA_STYLE_COLOUR('',#416);
#424 = STYLED_ITEM('color',(#425),#156);
#425 = PRESENTATION_STYLE_ASSIGNMENT((#426));
#426 = SURFACE_STYLE_USAGE(.BOTH.,#427);
#427 = SURFACE_SIDE_STYLE('',(#428));
#428 = SURFACE_STYLE_FILL_AREA(#429);
#429 = FILL_AREA_STYLE('',(#430));
#430 = FILL_AREA_STYLE_COLOUR('',#416);
#431 = STYLED_ITEM('color',(#432),#262);
#432 = PRESENTATION_STYLE_ASSIGNMENT((#433));
#433 = SURFACE_STYLE_USAGE(.BOTH.,#434);
#434 = SURFACE_SIDE_STYLE('',(#435));
#435 = SURFACE_STYLE_FILL_AREA(#436);
#436 = FILL_AREA_STYLE('',(#437));
#437 = FILL_AREA_STYLE_COLOUR('',#416);
#438 = STYLED_ITEM('color',(#439),#271);
#439 = PRESENTATION_STYLE_ASSIGNMENT((#440));
#440 = SURFACE_STYLE_USAGE(.BOTH.,#441);
#441 = SURFACE_SIDE_STYLE('',(#442));
#442 = SURFACE_STYLE_FILL_AREA(#443);
#443 = FILL_AREA_STYLE('',(#444));
#444 = FILL_AREA_STYLE_COLOUR('',#445);
#445 = COLOUR_RGB('',0.824000000954,0.819999992847,0.78100001812);
#446 = STYLED_ITEM('color',(#447),#297);
#447 = PRESENTATION_STYLE_ASSIGNMENT((#448));
#448 = SURFACE_STYLE_USAGE(.BOTH.,#449);
#449 = SURFACE_SIDE_STYLE('',(#450));
#450 = SURFACE_STYLE_FILL_AREA(#451);
#451 = FILL_AREA_STYLE('',(#452));
#452 = FILL_AREA_STYLE_COLOUR('',#416);
#453 = STYLED_ITEM('color',(#454),#306);
#454 = PRESENTATION_STYLE_ASSIGNMENT((#455));
#455 = SURFACE_STYLE_USAGE(.BOTH.,#456);
#456 = SURFACE_SIDE_STYLE('',(#457));
#457 = SURFACE_STYLE_FILL_AREA(#458);
#458 = FILL_AREA_STYLE('',(#459));
#459 = FILL_AREA_STYLE_COLOUR('',#445);
#460 = STYLED_ITEM('color',(#461),#332);
#461 = PRESENTATION_STYLE_ASSIGNMENT((#462));
#462 = SURFACE_STYLE_USAGE(.BOTH.,#463);
#463 = SURFACE_SIDE_STYLE('',(#464));
#464 = SURFACE_STYLE_FILL_AREA(#465);
#465 = FILL_AREA_STYLE('',(#466));
#466 = FILL_AREA_STYLE_COLOUR('',#445);
#467 = STYLED_ITEM('color',(#468),#358);
#468 = PRESENTATION_STYLE_ASSIGNMENT((#469));
#469 = SURFACE_STYLE_USAGE(.BOTH.,#470);
#470 = SURFACE_SIDE_STYLE('',(#471));
#471 = SURFACE_STYLE_FILL_AREA(#472);
#472 = FILL_AREA_STYLE('',(#473));
#473 = FILL_AREA_STYLE_COLOUR('',#445);
#474 = STYLED_ITEM('color',(#475),#384);
#475 = PRESENTATION_STYLE_ASSIGNMENT((#476));
#476 = SURFACE_STYLE_USAGE(.BOTH.,#477);
#477 = SURFACE_SIDE_STYLE('',(#478));
#478 = SURFACE_STYLE_FILL_AREA(#479);
#479 = FILL_AREA_STYLE('',(#480));
#480 = FILL_AREA_STYLE_COLOUR('',#445);
#481 = STYLED_ITEM('color',(#482),#393);
#482 = PRESENTATION_STYLE_ASSIGNMENT((#483));
#483 = SURFACE_STYLE_USAGE(.BOTH.,#484);
#484 = SURFACE_SIDE_STYLE('',(#485));
#485 = SURFACE_STYLE_FILL_AREA(#486);
#486 = FILL_AREA_STYLE('',(#487));
#487 = FILL_AREA_STYLE_COLOUR('',#445);
ENDSEC;
END-ISO-10303-21;
