ISO-10303-21;
HEADER;
/* RV_Disc_D12mm_W5.8mm_P7.5mm.step 3D STEP model for use in ECAD systems
 * Copyright (C) 2018, kicad StepUp
 * 
 * This work is licensed under the [Creative Commons CC-BY-SA 4.0 License](https://creativecommons.org/licenses/by-sa/4.0/legalcode), 
 * with the following exception:
 * To the extent that the creation of electronic designs that use 'Licensed Material' can be considered to be 'Adapted Material', 
 * then the copyright holder waives article 3 of the license with respect to these designs and any generated files which use data provided 
 * as part of the 'Licensed Material'.
 * You are free to use the library data in your own projects without the obligation to share your project files under this or any other license agreement.
 * However, if you wish to redistribute these libraries, or parts thereof (including in modified form) as a collection then the exception above does not apply. 
 * Please refer to https://github.com/KiCad/kicad-packages3D/blob/master/LICENSE.md for further clarification of the exception.
 * Disclaimer of Warranties and Limitation of Liability.
 * These libraries are provided in the hope that they will be useful, but are provided without warranty of any kind, express or implied.
 * *USE 3D CAD DATA AT YOUR OWN RISK*
 * *DO NOT RELY UPON ANY INFORMATION FOUND HERE WITHOUT INDEPENDENT VERIFICATION.*
 * 
 */

FILE_DESCRIPTION(
/* description */ ('model of RV_Disc_D12mm_W5.8mm_P7.5mm'),
/* implementation_level */ '2;1');

FILE_NAME(
/* name */ 'RV_Disc_D12mm_W5.8mm_P7.5mm.step',
/* time_stamp */ '2018-11-11T20:39:18',
/* author */ ('kicad StepUp','ksu'),
/* organization */ ('FreeCAD'),
/* preprocessor_version */ 'OCC',
/* originating_system */ 'kicad StepUp',
/* authorisation */ '');

FILE_SCHEMA(('AUTOMOTIVE_DESIGN { 1 0 10303 214 1 1 1 1 }'));
ENDSEC;

DATA;
#1 = APPLICATION_PROTOCOL_DEFINITION('international standard',
'automotive_design',2000,#2);
#2 = APPLICATION_CONTEXT(
'core data for automotive mechanical design processes');
#3 = SHAPE_DEFINITION_REPRESENTATION(#4,#10);
#4 = PRODUCT_DEFINITION_SHAPE('','',#5);
#5 = PRODUCT_DEFINITION('design','',#6,#9);
#6 = PRODUCT_DEFINITION_FORMATION('','',#7);
#7 = PRODUCT('RV_Disc_D12mm_W58mm_P75mm','RV_Disc_D12mm_W58mm_P75mm','',
(#8));
#8 = PRODUCT_CONTEXT('',#2,'mechanical');
#9 = PRODUCT_DEFINITION_CONTEXT('part definition',#2,'design');
#10 = ADVANCED_BREP_SHAPE_REPRESENTATION('',(#11,#15),#396);
#11 = AXIS2_PLACEMENT_3D('',#12,#13,#14);
#12 = CARTESIAN_POINT('',(0.E+000,0.E+000,0.E+000));
#13 = DIRECTION('',(0.E+000,0.E+000,1.));
#14 = DIRECTION('',(1.,0.E+000,-0.E+000));
#15 = MANIFOLD_SOLID_BREP('',#16);
#16 = CLOSED_SHELL('',(#17,#50,#156,#256,#265,#291,#300,#326,#352,#378,
#387));
#17 = ADVANCED_FACE('',(#18),#45,.T.);
#18 = FACE_BOUND('',#19,.F.);
#19 = EDGE_LOOP('',(#20,#30,#37,#38));
#20 = ORIENTED_EDGE('',*,*,#21,.T.);
#21 = EDGE_CURVE('',#22,#24,#26,.T.);
#22 = VERTEX_POINT('',#23);
#23 = CARTESIAN_POINT('',(9.75,-1.279268292683,6.03));
#24 = VERTEX_POINT('',#25);
#25 = CARTESIAN_POINT('',(9.75,-1.420731707317,6.03));
#26 = LINE('',#27,#28);
#27 = CARTESIAN_POINT('',(9.75,1.55,6.03));
#28 = VECTOR('',#29,1.);
#29 = DIRECTION('',(0.E+000,-1.,0.E+000));
#30 = ORIENTED_EDGE('',*,*,#31,.T.);
#31 = EDGE_CURVE('',#24,#24,#32,.T.);
#32 = CIRCLE('',#33,6.);
#33 = AXIS2_PLACEMENT_3D('',#34,#35,#36);
#34 = CARTESIAN_POINT('',(3.75,-1.420731707317,6.03));
#35 = DIRECTION('',(0.E+000,-1.,0.E+000));
#36 = DIRECTION('',(1.,0.E+000,0.E+000));
#37 = ORIENTED_EDGE('',*,*,#21,.F.);
#38 = ORIENTED_EDGE('',*,*,#39,.F.);
#39 = EDGE_CURVE('',#22,#22,#40,.T.);
#40 = CIRCLE('',#41,6.);
#41 = AXIS2_PLACEMENT_3D('',#42,#43,#44);
#42 = CARTESIAN_POINT('',(3.75,-1.279268292683,6.03));
#43 = DIRECTION('',(0.E+000,-1.,0.E+000));
#44 = DIRECTION('',(1.,0.E+000,0.E+000));
#45 = CYLINDRICAL_SURFACE('',#46,6.);
#46 = AXIS2_PLACEMENT_3D('',#47,#48,#49);
#47 = CARTESIAN_POINT('',(3.75,1.55,6.03));
#48 = DIRECTION('',(0.E+000,1.,0.E+000));
#49 = DIRECTION('',(1.,0.E+000,0.E+000));
#50 = ADVANCED_FACE('',(#51,#71),#151,.T.);
#51 = FACE_BOUND('',#52,.F.);
#52 = EDGE_LOOP('',(#53,#54,#63,#70));
#53 = ORIENTED_EDGE('',*,*,#39,.T.);
#54 = ORIENTED_EDGE('',*,*,#55,.T.);
#55 = EDGE_CURVE('',#22,#56,#58,.T.);
#56 = VERTEX_POINT('',#57);
#57 = CARTESIAN_POINT('',(6.920731707317,1.55,6.03));
#58 = CIRCLE('',#59,2.829268292683);
#59 = AXIS2_PLACEMENT_3D('',#60,#61,#62);
#60 = CARTESIAN_POINT('',(6.920731707317,-1.279268292683,6.03));
#61 = DIRECTION('',(0.E+000,0.E+000,1.));
#62 = DIRECTION('',(1.,0.E+000,0.E+000));
#63 = ORIENTED_EDGE('',*,*,#64,.F.);
#64 = EDGE_CURVE('',#56,#56,#65,.T.);
#65 = CIRCLE('',#66,3.170731707317);
#66 = AXIS2_PLACEMENT_3D('',#67,#68,#69);
#67 = CARTESIAN_POINT('',(3.75,1.55,6.03));
#68 = DIRECTION('',(0.E+000,-1.,0.E+000));
#69 = DIRECTION('',(1.,0.E+000,0.E+000));
#70 = ORIENTED_EDGE('',*,*,#55,.F.);
#71 = FACE_BOUND('',#72,.F.);
#72 = EDGE_LOOP('',(#73,#110));
#73 = ORIENTED_EDGE('',*,*,#74,.T.);
#74 = EDGE_CURVE('',#75,#77,#79,.T.);
#75 = VERTEX_POINT('',#76);
#76 = CARTESIAN_POINT('',(0.36,0.E+000,1.454786379065));
#77 = VERTEX_POINT('',#78);
#78 = CARTESIAN_POINT('',(-0.268489815213,-0.239819138367,1.844721395895
));
#79 = B_SPLINE_CURVE_WITH_KNOTS('',8,(#80,#81,#82,#83,#84,#85,#86,#87,
#88,#89,#90,#91,#92,#93,#94,#95,#96,#97,#98,#99,#100,#101,#102,#103,
#104,#105,#106,#107,#108,#109),.UNSPECIFIED.,.F.,.F.,(9,7,7,7,9),(
0.E+000,7.261125357371E-002,0.220383207056,0.422475380577,1.),
.UNSPECIFIED.);
#80 = CARTESIAN_POINT('',(0.36,-5.551115123126E-017,1.454786379065));
#81 = CARTESIAN_POINT('',(0.36,-7.767798988771E-003,1.449885469861));
#82 = CARTESIAN_POINT('',(0.359808499963,-1.557040421787E-002,
1.445149362744));
#83 = CARTESIAN_POINT('',(0.3594223942,-2.340246554999E-002,
1.440583501149));
#84 = CARTESIAN_POINT('',(0.358838825553,-3.125827590159E-002,
1.436193249908));
#85 = CARTESIAN_POINT('',(0.358055185394,-3.913177124286E-002,
1.43198389525));
#86 = CARTESIAN_POINT('',(0.357069113629,-4.701653059775E-002,
1.427960644805));
#87 = CARTESIAN_POINT('',(0.355878498693,-5.490577604397E-002,
1.424128627599));
#88 = CARTESIAN_POINT('',(0.35163838461,-7.884247154399E-002,
1.413093773106));
#89 = CARTESIAN_POINT('',(0.347940470531,-9.488272615427E-002,
1.406506835275));
#90 = CARTESIAN_POINT('',(0.343372856691,-0.110851885153,1.400774778342)
);
#91 = CARTESIAN_POINT('',(0.337927328175,-0.126682959185,1.395936473797)
);
#92 = CARTESIAN_POINT('',(0.331603767625,-0.142304807448,1.392025184541)
);
#93 = CARTESIAN_POINT('',(0.324411589073,-0.157643724212,1.389066782574)
);
#94 = CARTESIAN_POINT('',(0.316371171775,-0.172625025346,1.387077966691)
);
#95 = CARTESIAN_POINT('',(0.29540404063,-0.207072606908,1.384678441148)
);
#96 = CARTESIAN_POINT('',(0.281763194089,-0.226170556426,1.385116060307)
);
#97 = CARTESIAN_POINT('',(0.26667713972,-0.244273875465,1.387394894144)
);
#98 = CARTESIAN_POINT('',(0.250264057162,-0.261211385719,1.391490159187)
);
#99 = CARTESIAN_POINT('',(0.232667676257,-0.276840310444,1.397342035676)
);
#100 = CARTESIAN_POINT('',(0.21404939251,-0.29104901864,1.404862771058)
);
#101 = CARTESIAN_POINT('',(0.19458074213,-0.30375754144,1.413943583303)
);
#102 = CARTESIAN_POINT('',(0.116868703741,-0.346803310836,1.454518328662
));
#103 = CARTESIAN_POINT('',(5.39798316487E-002,-0.365921341148,
1.496207057812));
#104 = CARTESIAN_POINT('',(-1.050083739881E-002,-0.37148546952,
1.546723952012));
#105 = CARTESIAN_POINT('',(-7.316626114272E-002,-0.364354302462,
1.602956962397));
#106 = CARTESIAN_POINT('',(-0.131650490153,-0.346078618717,1.66252265575
));
#107 = CARTESIAN_POINT('',(-0.184356018709,-0.318344452852,
1.723517642134));
#108 = CARTESIAN_POINT('',(-0.230294200069,-0.282581086899,
1.784630647447));
#109 = CARTESIAN_POINT('',(-0.268489815213,-0.239819138367,
1.844721395895));
#110 = ORIENTED_EDGE('',*,*,#111,.T.);
#111 = EDGE_CURVE('',#77,#75,#112,.T.);
#112 = B_SPLINE_CURVE_WITH_KNOTS('',7,(#113,#114,#115,#116,#117,#118,
#119,#120,#121,#122,#123,#124,#125,#126,#127,#128,#129,#130,#131,
#132,#133,#134,#135,#136,#137,#138,#139,#140,#141,#142,#143,#144,
#145,#146,#147,#148,#149,#150),.UNSPECIFIED.,.F.,.F.,(8,6,6,6,6,6,8)
,(0.E+000,0.230195422195,0.290920844407,0.39362077941,0.543694224505,
0.742882916793,1.),.UNSPECIFIED.);
#113 = CARTESIAN_POINT('',(-0.268489815213,-0.239819138367,
1.844721395895));
#114 = CARTESIAN_POINT('',(-0.297612197186,-0.207215139338,
1.890537799763));
#115 = CARTESIAN_POINT('',(-0.322048997268,-0.170560166276,1.93560461837
));
#116 = CARTESIAN_POINT('',(-0.341343916172,-0.130438783642,
1.979316763493));
#117 = CARTESIAN_POINT('',(-0.354985381959,-8.744450324114E-002,
2.020972769827));
#118 = CARTESIAN_POINT('',(-0.362412293569,-4.226701753031E-002,
2.059686565378));
#119 = CARTESIAN_POINT('',(-0.363050827947,4.225387041257E-003,
2.094312149428));
#120 = CARTESIAN_POINT('',(-0.35462315973,6.322314597893E-002,
2.131049571393));
#121 = CARTESIAN_POINT('',(-0.352356166517,7.554669798538E-002,
2.138328430901));
#122 = CARTESIAN_POINT('',(-0.349572803787,8.785627319021E-002,
2.145190202094));
#123 = CARTESIAN_POINT('',(-0.346265500224,0.100126553987,2.151605226647
));
#124 = CARTESIAN_POINT('',(-0.342428396473,0.112329695228,2.157542539321
));
#125 = CARTESIAN_POINT('',(-0.33805810107,0.124435494817,2.162970664874)
);
#126 = CARTESIAN_POINT('',(-0.324861296603,0.156665710112,2.176124666541
));
#127 = CARTESIAN_POINT('',(-0.315040656976,0.176553591445,2.18284728298)
);
#128 = CARTESIAN_POINT('',(-0.303694137042,0.195910119215,2.187871391128
));
#129 = CARTESIAN_POINT('',(-0.290853253122,0.214553936953,2.19104885232)
);
#130 = CARTESIAN_POINT('',(-0.276591570948,0.232296201046,2.192258383897
));
#131 = CARTESIAN_POINT('',(-0.261031730948,0.248955002889,2.191428448484
));
#132 = CARTESIAN_POINT('',(-0.21996679929,0.286909011587,2.184375556081)
);
#133 = CARTESIAN_POINT('',(-0.19316639443,0.306815394683,2.175838201476)
);
#134 = CARTESIAN_POINT('',(-0.164492861964,0.323591906852,2.162951596341
));
#135 = CARTESIAN_POINT('',(-0.134593993925,0.33699426137,2.146044569279)
);
#136 = CARTESIAN_POINT('',(-0.104075641562,0.347008453086,2.125667472572
));
#137 = CARTESIAN_POINT('',(-7.344396207664E-002,0.353751500592,
2.102426969099));
#138 = CARTESIAN_POINT('',(-2.825446816846E-003,0.362267376121,
2.043036459875));
#139 = CARTESIAN_POINT('',(3.69330181733E-002,0.361689523194,
2.005157671452));
#140 = CARTESIAN_POINT('',(7.544862736928E-002,0.356147200788,
1.96446748525));
#141 = CARTESIAN_POINT('',(0.112229130495,0.34613118317,1.922014212836)
);
#142 = CARTESIAN_POINT('',(0.146937693262,0.332073034644,1.878636961653)
);
#143 = CARTESIAN_POINT('',(0.179316846819,0.314301777863,1.8349767957));
#144 = CARTESIAN_POINT('',(0.247580002529,0.26558823352,1.735517469074)
);
#145 = CARTESIAN_POINT('',(0.281643833174,0.23238979358,1.680026630899)
);
#146 = CARTESIAN_POINT('',(0.310790426046,0.193973689076,1.626233132246)
);
#147 = CARTESIAN_POINT('',(0.334262589586,0.150745480945,1.575310009708)
);
#148 = CARTESIAN_POINT('',(0.351066211891,0.103273512031,1.528656749055)
);
#149 = CARTESIAN_POINT('',(0.36,5.250376018259E-002,1.48791238579));
#150 = CARTESIAN_POINT('',(0.36,-5.551115123126E-017,1.454786379065));
#151 = TOROIDAL_SURFACE('',#152,3.170731707317,2.829268292683);
#152 = AXIS2_PLACEMENT_3D('',#153,#154,#155);
#153 = CARTESIAN_POINT('',(3.75,-1.279268292683,6.03));
#154 = DIRECTION('',(0.E+000,1.,0.E+000));
#155 = DIRECTION('',(1.,0.E+000,0.E+000));
#156 = ADVANCED_FACE('',(#157,#177),#251,.T.);
#157 = FACE_BOUND('',#158,.T.);
#158 = EDGE_LOOP('',(#159,#160,#169,#176));
#159 = ORIENTED_EDGE('',*,*,#31,.T.);
#160 = ORIENTED_EDGE('',*,*,#161,.T.);
#161 = EDGE_CURVE('',#24,#162,#164,.T.);
#162 = VERTEX_POINT('',#163);
#163 = CARTESIAN_POINT('',(6.920731707317,-4.25,6.03));
#164 = CIRCLE('',#165,2.829268292683);
#165 = AXIS2_PLACEMENT_3D('',#166,#167,#168);
#166 = CARTESIAN_POINT('',(6.920731707317,-1.420731707317,6.03));
#167 = DIRECTION('',(0.E+000,0.E+000,-1.));
#168 = DIRECTION('',(1.,0.E+000,0.E+000));
#169 = ORIENTED_EDGE('',*,*,#170,.F.);
#170 = EDGE_CURVE('',#162,#162,#171,.T.);
#171 = CIRCLE('',#172,3.170731707317);
#172 = AXIS2_PLACEMENT_3D('',#173,#174,#175);
#173 = CARTESIAN_POINT('',(3.75,-4.25,6.03));
#174 = DIRECTION('',(0.E+000,-1.,0.E+000));
#175 = DIRECTION('',(1.,0.E+000,0.E+000));
#176 = ORIENTED_EDGE('',*,*,#161,.F.);
#177 = FACE_BOUND('',#178,.T.);
#178 = EDGE_LOOP('',(#179,#198));
#179 = ORIENTED_EDGE('',*,*,#180,.T.);
#180 = EDGE_CURVE('',#181,#183,#185,.T.);
#181 = VERTEX_POINT('',#182);
#182 = CARTESIAN_POINT('',(7.86,-2.7,2.088860611804));
#183 = VERTEX_POINT('',#184);
#184 = CARTESIAN_POINT('',(7.460869776524,-2.342132949811,1.5131027413)
);
#185 = B_SPLINE_CURVE_WITH_KNOTS('',6,(#186,#187,#188,#189,#190,#191,
#192,#193,#194,#195,#196,#197),.UNSPECIFIED.,.F.,.F.,(7,5,7),(
0.E+000,0.490138879385,1.),.UNSPECIFIED.);
#186 = CARTESIAN_POINT('',(7.86,-2.7,2.088860611804));
#187 = CARTESIAN_POINT('',(7.86,-2.649221784583,2.051668940645));
#188 = CARTESIAN_POINT('',(7.851405335959,-2.599747233068,2.008915241426
));
#189 = CARTESIAN_POINT('',(7.835042605635,-2.552945785817,1.962449925006
));
#190 = CARTESIAN_POINT('',(7.811715248772,-2.509839792761,1.913568153937
));
#191 = CARTESIAN_POINT('',(7.78216975124,-2.471301046688,1.863277769366)
);
#192 = CARTESIAN_POINT('',(7.710663487494,-2.403799763047,1.75966436234)
);
#193 = CARTESIAN_POINT('',(7.668312263829,-2.37534302486,1.706389739713)
);
#194 = CARTESIAN_POINT('',(7.620894530173,-2.353794256284,1.653678176931
));
#195 = CARTESIAN_POINT('',(7.569373550235,-2.340321716202,1.602715888356
));
#196 = CARTESIAN_POINT('',(7.515298325637,-2.336181574044,1.555165662743
));
#197 = CARTESIAN_POINT('',(7.460869776524,-2.342132949811,1.5131027413)
);
#198 = ORIENTED_EDGE('',*,*,#199,.T.);
#199 = EDGE_CURVE('',#183,#181,#200,.T.);
#200 = B_SPLINE_CURVE_WITH_KNOTS('',7,(#201,#202,#203,#204,#205,#206,
#207,#208,#209,#210,#211,#212,#213,#214,#215,#216,#217,#218,#219,
#220,#221,#222,#223,#224,#225,#226,#227,#228,#229,#230,#231,#232,
#233,#234,#235,#236,#237,#238,#239,#240,#241,#242,#243,#244,#245,
#246,#247,#248,#249,#250),.UNSPECIFIED.,.F.,.F.,(8,6,6,6,6,6,6,6,8),
(0.E+000,0.189280682432,0.293318994444,0.349392143417,0.527729554809,
0.741713780986,0.828782828577,0.929545383473,1.),.UNSPECIFIED.);
#201 = CARTESIAN_POINT('',(7.460869776524,-2.342132949811,1.5131027413)
);
#202 = CARTESIAN_POINT('',(7.415844815072,-2.34705610997,1.478307005471)
);
#203 = CARTESIAN_POINT('',(7.370537002829,-2.358698001973,1.447124760139
));
#204 = CARTESIAN_POINT('',(7.326269810931,-2.377452504144,1.420786080227
));
#205 = CARTESIAN_POINT('',(7.284627393242,-2.40335017225,1.400583969425)
);
#206 = CARTESIAN_POINT('',(7.247348494953,-2.435858232387,1.387739524884
));
#207 = CARTESIAN_POINT('',(7.215953240376,-2.473664401405,1.38301427266)
);
#208 = CARTESIAN_POINT('',(7.177652896125,-2.537548951181,1.387976695679
));
#209 = CARTESIAN_POINT('',(7.166080233865,-2.561251089336,1.392132681529
));
#210 = CARTESIAN_POINT('',(7.15664838885,-2.585697829445,1.398658018085)
);
#211 = CARTESIAN_POINT('',(7.149400283611,-2.610585555261,1.407450705048
));
#212 = CARTESIAN_POINT('',(7.14431131009,-2.635634541186,1.418358821015)
);
#213 = CARTESIAN_POINT('',(7.141309894937,-2.660604217426,1.431203670147
));
#214 = CARTESIAN_POINT('',(7.139756444158,-2.698601425645,1.453667688907
));
#215 = CARTESIAN_POINT('',(7.139790987906,-2.711828733512,1.462044626054
));
#216 = CARTESIAN_POINT('',(7.140389227948,-2.724945995838,1.470903185062
));
#217 = CARTESIAN_POINT('',(7.14153455295,-2.737926321206,1.480214956005)
);
#218 = CARTESIAN_POINT('',(7.14320931137,-2.750745963976,1.489951765329)
);
#219 = CARTESIAN_POINT('',(7.14539549612,-2.763384132396,1.500086203014)
);
#220 = CARTESIAN_POINT('',(7.156598801764,-2.815383250084,1.544005706453
));
#221 = CARTESIAN_POINT('',(7.170110707236,-2.852898109782,1.581153903237
));
#222 = CARTESIAN_POINT('',(7.188036617399,-2.887832910499,1.62122046287)
);
#223 = CARTESIAN_POINT('',(7.20984473282,-2.919824779865,1.663461291118)
);
#224 = CARTESIAN_POINT('',(7.235083461578,-2.948610233351,1.707210903718
));
#225 = CARTESIAN_POINT('',(7.263391277535,-2.973952605059,1.75185591023)
);
#226 = CARTESIAN_POINT('',(7.331780572265,-3.021506420448,1.850673922418
));
#227 = CARTESIAN_POINT('',(7.372969284946,-3.041999018813,1.904801184649
));
#228 = CARTESIAN_POINT('',(7.41762651893,-3.056701567974,1.958256434149)
);
#229 = CARTESIAN_POINT('',(7.465296710216,-3.064877062423,2.009756903714
));
#230 = CARTESIAN_POINT('',(7.515211129136,-3.065587277976,2.057449047876
));
#231 = CARTESIAN_POINT('',(7.566014458975,-3.057757299373,2.098806550368
));
#232 = CARTESIAN_POINT('',(7.635858446177,-3.034062094034,2.144752358211
));
#233 = CARTESIAN_POINT('',(7.65583725156,-3.025726983837,2.156580942536)
);
#234 = CARTESIAN_POINT('',(7.675427862396,-3.015896535609,2.166778513421
));
#235 = CARTESIAN_POINT('',(7.69444944375,-3.004587509485,2.17519349471)
);
#236 = CARTESIAN_POINT('',(7.712714387756,-2.991856570477,2.181712152118
));
#237 = CARTESIAN_POINT('',(7.73004042008,-2.977806315927,2.186273662227)
);
#238 = CARTESIAN_POINT('',(7.765047374462,-2.944975012978,2.191901040844
));
#239 = CARTESIAN_POINT('',(7.782365839023,-2.925787880854,2.19230604774)
);
#240 = CARTESIAN_POINT('',(7.797972657091,-2.905255723075,2.190097503209
));
#241 = CARTESIAN_POINT('',(7.81170494944,-2.883650404207,2.185401108465)
);
#242 = CARTESIAN_POINT('',(7.823480362321,-2.861247309431,2.178415386882
));
#243 = CARTESIAN_POINT('',(7.83328092334,-2.838300161669,2.169368702785)
);
#244 = CARTESIAN_POINT('',(7.84661465973,-2.798757975912,2.150876523665)
);
#245 = CARTESIAN_POINT('',(7.851147156695,-2.78232580555,2.142368221408)
);
#246 = CARTESIAN_POINT('',(7.854733845362,-2.765803964048,2.133035929099
));
#247 = CARTESIAN_POINT('',(7.85739054724,-2.749256684353,2.122952698331)
);
#248 = CARTESIAN_POINT('',(7.859138102988,-2.732741236648,2.112187844386
));
#249 = CARTESIAN_POINT('',(7.86,-2.716307910999,2.100805073779));
#250 = CARTESIAN_POINT('',(7.86,-2.7,2.088860611804));
#251 = TOROIDAL_SURFACE('',#252,3.170731707317,2.829268292683);
#252 = AXIS2_PLACEMENT_3D('',#253,#254,#255);
#253 = CARTESIAN_POINT('',(3.75,-1.420731707317,6.03));
#254 = DIRECTION('',(0.E+000,-1.,0.E+000));
#255 = DIRECTION('',(1.,0.E+000,0.E+000));
#256 = ADVANCED_FACE('',(#257),#260,.F.);
#257 = FACE_BOUND('',#258,.F.);
#258 = EDGE_LOOP('',(#259));
#259 = ORIENTED_EDGE('',*,*,#64,.T.);
#260 = PLANE('',#261);
#261 = AXIS2_PLACEMENT_3D('',#262,#263,#264);
#262 = CARTESIAN_POINT('',(3.75,1.55,6.03));
#263 = DIRECTION('',(-0.E+000,-1.,-0.E+000));
#264 = DIRECTION('',(0.E+000,0.E+000,-1.));
#265 = ADVANCED_FACE('',(#266),#286,.T.);
#266 = FACE_BOUND('',#267,.T.);
#267 = EDGE_LOOP('',(#268,#269,#277,#284,#285));
#268 = ORIENTED_EDGE('',*,*,#111,.T.);
#269 = ORIENTED_EDGE('',*,*,#270,.T.);
#270 = EDGE_CURVE('',#75,#271,#273,.T.);
#271 = VERTEX_POINT('',#272);
#272 = CARTESIAN_POINT('',(0.36,0.E+000,-2.856));
#273 = LINE('',#274,#275);
#274 = CARTESIAN_POINT('',(0.36,0.E+000,6.03));
#275 = VECTOR('',#276,1.);
#276 = DIRECTION('',(-0.E+000,-0.E+000,-1.));
#277 = ORIENTED_EDGE('',*,*,#278,.T.);
#278 = EDGE_CURVE('',#271,#271,#279,.T.);
#279 = CIRCLE('',#280,0.36);
#280 = AXIS2_PLACEMENT_3D('',#281,#282,#283);
#281 = CARTESIAN_POINT('',(0.E+000,0.E+000,-2.856));
#282 = DIRECTION('',(0.E+000,0.E+000,1.));
#283 = DIRECTION('',(1.,0.E+000,0.E+000));
#284 = ORIENTED_EDGE('',*,*,#270,.F.);
#285 = ORIENTED_EDGE('',*,*,#74,.T.);
#286 = CYLINDRICAL_SURFACE('',#287,0.36);
#287 = AXIS2_PLACEMENT_3D('',#288,#289,#290);
#288 = CARTESIAN_POINT('',(0.E+000,0.E+000,6.03));
#289 = DIRECTION('',(0.E+000,0.E+000,1.));
#290 = DIRECTION('',(1.,0.E+000,0.E+000));
#291 = ADVANCED_FACE('',(#292),#295,.T.);
#292 = FACE_BOUND('',#293,.T.);
#293 = EDGE_LOOP('',(#294));
#294 = ORIENTED_EDGE('',*,*,#170,.T.);
#295 = PLANE('',#296);
#296 = AXIS2_PLACEMENT_3D('',#297,#298,#299);
#297 = CARTESIAN_POINT('',(3.75,-4.25,6.03));
#298 = DIRECTION('',(-0.E+000,-1.,-0.E+000));
#299 = DIRECTION('',(0.E+000,0.E+000,-1.));
#300 = ADVANCED_FACE('',(#301),#321,.T.);
#301 = FACE_BOUND('',#302,.T.);
#302 = EDGE_LOOP('',(#303,#304,#312,#319,#320));
#303 = ORIENTED_EDGE('',*,*,#180,.F.);
#304 = ORIENTED_EDGE('',*,*,#305,.T.);
#305 = EDGE_CURVE('',#181,#306,#308,.T.);
#306 = VERTEX_POINT('',#307);
#307 = CARTESIAN_POINT('',(7.86,-2.7,-2.856));
#308 = LINE('',#309,#310);
#309 = CARTESIAN_POINT('',(7.86,-2.7,6.03));
#310 = VECTOR('',#311,1.);
#311 = DIRECTION('',(-0.E+000,-0.E+000,-1.));
#312 = ORIENTED_EDGE('',*,*,#313,.T.);
#313 = EDGE_CURVE('',#306,#306,#314,.T.);
#314 = CIRCLE('',#315,0.36);
#315 = AXIS2_PLACEMENT_3D('',#316,#317,#318);
#316 = CARTESIAN_POINT('',(7.5,-2.7,-2.856));
#317 = DIRECTION('',(4.184736669286E-030,-3.804306062987E-030,1.));
#318 = DIRECTION('',(1.,-1.521722425195E-030,-4.184736669286E-030));
#319 = ORIENTED_EDGE('',*,*,#305,.F.);
#320 = ORIENTED_EDGE('',*,*,#199,.F.);
#321 = CYLINDRICAL_SURFACE('',#322,0.36);
#322 = AXIS2_PLACEMENT_3D('',#323,#324,#325);
#323 = CARTESIAN_POINT('',(7.5,-2.7,6.03));
#324 = DIRECTION('',(0.E+000,0.E+000,1.));
#325 = DIRECTION('',(1.,0.E+000,0.E+000));
#326 = ADVANCED_FACE('',(#327),#347,.T.);
#327 = FACE_BOUND('',#328,.F.);
#328 = EDGE_LOOP('',(#329,#338,#339,#340));
#329 = ORIENTED_EDGE('',*,*,#330,.F.);
#330 = EDGE_CURVE('',#271,#331,#333,.T.);
#331 = VERTEX_POINT('',#332);
#332 = CARTESIAN_POINT('',(0.216,0.E+000,-3.));
#333 = CIRCLE('',#334,0.144);
#334 = AXIS2_PLACEMENT_3D('',#335,#336,#337);
#335 = CARTESIAN_POINT('',(0.216,0.E+000,-2.856));
#336 = DIRECTION('',(-0.E+000,1.,0.E+000));
#337 = DIRECTION('',(1.,0.E+000,0.E+000));
#338 = ORIENTED_EDGE('',*,*,#278,.T.);
#339 = ORIENTED_EDGE('',*,*,#330,.T.);
#340 = ORIENTED_EDGE('',*,*,#341,.F.);
#341 = EDGE_CURVE('',#331,#331,#342,.T.);
#342 = CIRCLE('',#343,0.216);
#343 = AXIS2_PLACEMENT_3D('',#344,#345,#346);
#344 = CARTESIAN_POINT('',(0.E+000,0.E+000,-3.));
#345 = DIRECTION('',(0.E+000,0.E+000,1.));
#346 = DIRECTION('',(1.,0.E+000,0.E+000));
#347 = TOROIDAL_SURFACE('',#348,0.216,0.144);
#348 = AXIS2_PLACEMENT_3D('',#349,#350,#351);
#349 = CARTESIAN_POINT('',(0.E+000,0.E+000,-2.856));
#350 = DIRECTION('',(-0.E+000,-0.E+000,-1.));
#351 = DIRECTION('',(1.,0.E+000,0.E+000));
#352 = ADVANCED_FACE('',(#353),#373,.T.);
#353 = FACE_BOUND('',#354,.F.);
#354 = EDGE_LOOP('',(#355,#364,#365,#366));
#355 = ORIENTED_EDGE('',*,*,#356,.F.);
#356 = EDGE_CURVE('',#306,#357,#359,.T.);
#357 = VERTEX_POINT('',#358);
#358 = CARTESIAN_POINT('',(7.716,-2.7,-3.));
#359 = CIRCLE('',#360,0.144);
#360 = AXIS2_PLACEMENT_3D('',#361,#362,#363);
#361 = CARTESIAN_POINT('',(7.716,-2.7,-2.856));
#362 = DIRECTION('',(1.521722425195E-030,1.,3.804306062987E-030));
#363 = DIRECTION('',(1.,-1.521722425195E-030,-4.184736669286E-030));
#364 = ORIENTED_EDGE('',*,*,#313,.T.);
#365 = ORIENTED_EDGE('',*,*,#356,.T.);
#366 = ORIENTED_EDGE('',*,*,#367,.F.);
#367 = EDGE_CURVE('',#357,#357,#368,.T.);
#368 = CIRCLE('',#369,0.216);
#369 = AXIS2_PLACEMENT_3D('',#370,#371,#372);
#370 = CARTESIAN_POINT('',(7.5,-2.7,-3.));
#371 = DIRECTION('',(4.184736669286E-030,-3.804306062987E-030,1.));
#372 = DIRECTION('',(1.,-1.521722425195E-030,-4.184736669286E-030));
#373 = TOROIDAL_SURFACE('',#374,0.216,0.144);
#374 = AXIS2_PLACEMENT_3D('',#375,#376,#377);
#375 = CARTESIAN_POINT('',(7.5,-2.7,-2.856));
#376 = DIRECTION('',(-4.184736669286E-030,3.804306062987E-030,-1.));
#377 = DIRECTION('',(1.,-1.521722425195E-030,-4.184736669286E-030));
#378 = ADVANCED_FACE('',(#379),#382,.F.);
#379 = FACE_BOUND('',#380,.F.);
#380 = EDGE_LOOP('',(#381));
#381 = ORIENTED_EDGE('',*,*,#341,.T.);
#382 = PLANE('',#383);
#383 = AXIS2_PLACEMENT_3D('',#384,#385,#386);
#384 = CARTESIAN_POINT('',(-1.483767504926E-017,1.497958850874E-017,-3.)
);
#385 = DIRECTION('',(0.E+000,0.E+000,1.));
#386 = DIRECTION('',(1.,0.E+000,0.E+000));
#387 = ADVANCED_FACE('',(#388),#391,.F.);
#388 = FACE_BOUND('',#389,.F.);
#389 = EDGE_LOOP('',(#390));
#390 = ORIENTED_EDGE('',*,*,#367,.T.);
#391 = PLANE('',#392);
#392 = AXIS2_PLACEMENT_3D('',#393,#394,#395);
#393 = CARTESIAN_POINT('',(7.5,-2.7,-3.));
#394 = DIRECTION('',(4.184736669286E-030,-3.804306062987E-030,1.));
#395 = DIRECTION('',(1.,0.E+000,-4.184736669286E-030));
#396 = ( GEOMETRIC_REPRESENTATION_CONTEXT(3)
GLOBAL_UNCERTAINTY_ASSIGNED_CONTEXT((#400)) GLOBAL_UNIT_ASSIGNED_CONTEXT
((#397,#398,#399)) REPRESENTATION_CONTEXT('Context #1',
'3D Context with UNIT and UNCERTAINTY') );
#397 = ( LENGTH_UNIT() NAMED_UNIT(*) SI_UNIT(.MILLI.,.METRE.) );
#398 = ( NAMED_UNIT(*) PLANE_ANGLE_UNIT() SI_UNIT($,.RADIAN.) );
#399 = ( NAMED_UNIT(*) SI_UNIT($,.STERADIAN.) SOLID_ANGLE_UNIT() );
#400 = UNCERTAINTY_MEASURE_WITH_UNIT(LENGTH_MEASURE(1.E-007),#397,
'distance_accuracy_value','confusion accuracy');
#401 = PRODUCT_RELATED_PRODUCT_CATEGORY('part',$,(#7));
#402 = MECHANICAL_DESIGN_GEOMETRIC_PRESENTATION_REPRESENTATION('',(#403,
#411,#418,#425,#432,#440,#447,#454,#461,#468,#475),#396);
#403 = STYLED_ITEM('color',(#404),#17);
#404 = PRESENTATION_STYLE_ASSIGNMENT((#405));
#405 = SURFACE_STYLE_USAGE(.BOTH.,#406);
#406 = SURFACE_SIDE_STYLE('',(#407));
#407 = SURFACE_STYLE_FILL_AREA(#408);
#408 = FILL_AREA_STYLE('',(#409));
#409 = FILL_AREA_STYLE_COLOUR('',#410);
#410 = COLOUR_RGB('',0.136999994516,0.402000010014,0.726999998093);
#411 = STYLED_ITEM('color',(#412),#50);
#412 = PRESENTATION_STYLE_ASSIGNMENT((#413));
#413 = SURFACE_STYLE_USAGE(.BOTH.,#414);
#414 = SURFACE_SIDE_STYLE('',(#415));
#415 = SURFACE_STYLE_FILL_AREA(#416);
#416 = FILL_AREA_STYLE('',(#417));
#417 = FILL_AREA_STYLE_COLOUR('',#410);
#418 = STYLED_ITEM('color',(#419),#156);
#419 = PRESENTATION_STYLE_ASSIGNMENT((#420));
#420 = SURFACE_STYLE_USAGE(.BOTH.,#421);
#421 = SURFACE_SIDE_STYLE('',(#422));
#422 = SURFACE_STYLE_FILL_AREA(#423);
#423 = FILL_AREA_STYLE('',(#424));
#424 = FILL_AREA_STYLE_COLOUR('',#410);
#425 = STYLED_ITEM('color',(#426),#256);
#426 = PRESENTATION_STYLE_ASSIGNMENT((#427));
#427 = SURFACE_STYLE_USAGE(.BOTH.,#428);
#428 = SURFACE_SIDE_STYLE('',(#429));
#429 = SURFACE_STYLE_FILL_AREA(#430);
#430 = FILL_AREA_STYLE('',(#431));
#431 = FILL_AREA_STYLE_COLOUR('',#410);
#432 = STYLED_ITEM('color',(#433),#265);
#433 = PRESENTATION_STYLE_ASSIGNMENT((#434));
#434 = SURFACE_STYLE_USAGE(.BOTH.,#435);
#435 = SURFACE_SIDE_STYLE('',(#436));
#436 = SURFACE_STYLE_FILL_AREA(#437);
#437 = FILL_AREA_STYLE('',(#438));
#438 = FILL_AREA_STYLE_COLOUR('',#439);
#439 = COLOUR_RGB('',0.824000000954,0.819999992847,0.78100001812);
#440 = STYLED_ITEM('color',(#441),#291);
#441 = PRESENTATION_STYLE_ASSIGNMENT((#442));
#442 = SURFACE_STYLE_USAGE(.BOTH.,#443);
#443 = SURFACE_SIDE_STYLE('',(#444));
#444 = SURFACE_STYLE_FILL_AREA(#445);
#445 = FILL_AREA_STYLE('',(#446));
#446 = FILL_AREA_STYLE_COLOUR('',#410);
#447 = STYLED_ITEM('color',(#448),#300);
#448 = PRESENTATION_STYLE_ASSIGNMENT((#449));
#449 = SURFACE_STYLE_USAGE(.BOTH.,#450);
#450 = SURFACE_SIDE_STYLE('',(#451));
#451 = SURFACE_STYLE_FILL_AREA(#452);
#452 = FILL_AREA_STYLE('',(#453));
#453 = FILL_AREA_STYLE_COLOUR('',#439);
#454 = STYLED_ITEM('color',(#455),#326);
#455 = PRESENTATION_STYLE_ASSIGNMENT((#456));
#456 = SURFACE_STYLE_USAGE(.BOTH.,#457);
#457 = SURFACE_SIDE_STYLE('',(#458));
#458 = SURFACE_STYLE_FILL_AREA(#459);
#459 = FILL_AREA_STYLE('',(#460));
#460 = FILL_AREA_STYLE_COLOUR('',#439);
#461 = STYLED_ITEM('color',(#462),#352);
#462 = PRESENTATION_STYLE_ASSIGNMENT((#463));
#463 = SURFACE_STYLE_USAGE(.BOTH.,#464);
#464 = SURFACE_SIDE_STYLE('',(#465));
#465 = SURFACE_STYLE_FILL_AREA(#466);
#466 = FILL_AREA_STYLE('',(#467));
#467 = FILL_AREA_STYLE_COLOUR('',#439);
#468 = STYLED_ITEM('color',(#469),#378);
#469 = PRESENTATION_STYLE_ASSIGNMENT((#470));
#470 = SURFACE_STYLE_USAGE(.BOTH.,#471);
#471 = SURFACE_SIDE_STYLE('',(#472));
#472 = SURFACE_STYLE_FILL_AREA(#473);
#473 = FILL_AREA_STYLE('',(#474));
#474 = FILL_AREA_STYLE_COLOUR('',#439);
#475 = STYLED_ITEM('color',(#476),#387);
#476 = PRESENTATION_STYLE_ASSIGNMENT((#477));
#477 = SURFACE_STYLE_USAGE(.BOTH.,#478);
#478 = SURFACE_SIDE_STYLE('',(#479));
#479 = SURFACE_STYLE_FILL_AREA(#480);
#480 = FILL_AREA_STYLE('',(#481));
#481 = FILL_AREA_STYLE_COLOUR('',#439);
ENDSEC;
END-ISO-10303-21;
