ISO-10303-21;
HEADER;
/* RV_Disc_D9mm_W3.3mm_P5mm.step 3D STEP model for use in ECAD systems
 * Copyright (C) 2018, kicad StepUp
 * 
 * This work is licensed under the [Creative Commons CC-BY-SA 4.0 License](https://creativecommons.org/licenses/by-sa/4.0/legalcode), 
 * with the following exception:
 * To the extent that the creation of electronic designs that use 'Licensed Material' can be considered to be 'Adapted Material', 
 * then the copyright holder waives article 3 of the license with respect to these designs and any generated files which use data provided 
 * as part of the 'Licensed Material'.
 * You are free to use the library data in your own projects without the obligation to share your project files under this or any other license agreement.
 * However, if you wish to redistribute these libraries, or parts thereof (including in modified form) as a collection then the exception above does not apply. 
 * Please refer to https://github.com/KiCad/kicad-packages3D/blob/master/LICENSE.md for further clarification of the exception.
 * Disclaimer of Warranties and Limitation of Liability.
 * These libraries are provided in the hope that they will be useful, but are provided without warranty of any kind, express or implied.
 * *USE 3D CAD DATA AT YOUR OWN RISK*
 * *DO NOT RELY UPON ANY INFORMATION FOUND HERE WITHOUT INDEPENDENT VERIFICATION.*
 * 
 */

FILE_DESCRIPTION(
/* description */ ('model of RV_Disc_D9mm_W3.3mm_P5mm'),
/* implementation_level */ '2;1');

FILE_NAME(
/* name */ 'RV_Disc_D9mm_W3.3mm_P5mm.step',
/* time_stamp */ '2018-11-11T21:09:49',
/* author */ ('kicad StepUp','ksu'),
/* organization */ ('FreeCAD'),
/* preprocessor_version */ 'OCC',
/* originating_system */ 'kicad StepUp',
/* authorisation */ '');

FILE_SCHEMA(('AUTOMOTIVE_DESIGN { 1 0 10303 214 1 1 1 1 }'));
ENDSEC;

DATA;
#1 = APPLICATION_PROTOCOL_DEFINITION('international standard',
'automotive_design',2000,#2);
#2 = APPLICATION_CONTEXT(
'core data for automotive mechanical design processes');
#3 = SHAPE_DEFINITION_REPRESENTATION(#4,#10);
#4 = PRODUCT_DEFINITION_SHAPE('','',#5);
#5 = PRODUCT_DEFINITION('design','',#6,#9);
#6 = PRODUCT_DEFINITION_FORMATION('','',#7);
#7 = PRODUCT('RV_Disc_D9mm_W33mm_P5mm','RV_Disc_D9mm_W33mm_P5mm','',(#8)
);
#8 = PRODUCT_CONTEXT('',#2,'mechanical');
#9 = PRODUCT_DEFINITION_CONTEXT('part definition',#2,'design');
#10 = ADVANCED_BREP_SHAPE_REPRESENTATION('',(#11,#15),#372);
#11 = AXIS2_PLACEMENT_3D('',#12,#13,#14);
#12 = CARTESIAN_POINT('',(0.E+000,0.E+000,0.E+000));
#13 = DIRECTION('',(0.E+000,0.E+000,1.));
#14 = DIRECTION('',(1.,0.E+000,-0.E+000));
#15 = MANIFOLD_SOLID_BREP('',#16);
#16 = CLOSED_SHELL('',(#17,#50,#140,#232,#241,#267,#276,#302,#328,#354,
#363));
#17 = ADVANCED_FACE('',(#18),#45,.T.);
#18 = FACE_BOUND('',#19,.F.);
#19 = EDGE_LOOP('',(#20,#30,#37,#38));
#20 = ORIENTED_EDGE('',*,*,#21,.T.);
#21 = EDGE_CURVE('',#22,#24,#26,.T.);
#22 = VERTEX_POINT('',#23);
#23 = CARTESIAN_POINT('',(7.,-0.559756097561,4.53));
#24 = VERTEX_POINT('',#25);
#25 = CARTESIAN_POINT('',(7.,-0.640243902439,4.53));
#26 = LINE('',#27,#28);
#27 = CARTESIAN_POINT('',(7.,1.05,4.53));
#28 = VECTOR('',#29,1.);
#29 = DIRECTION('',(0.E+000,-1.,0.E+000));
#30 = ORIENTED_EDGE('',*,*,#31,.T.);
#31 = EDGE_CURVE('',#24,#24,#32,.T.);
#32 = CIRCLE('',#33,4.5);
#33 = AXIS2_PLACEMENT_3D('',#34,#35,#36);
#34 = CARTESIAN_POINT('',(2.5,-0.640243902439,4.53));
#35 = DIRECTION('',(-3.246341173749E-033,-1.,1.2985364695E-032));
#36 = DIRECTION('',(1.,-3.246341173749E-033,-4.645171110405E-033));
#37 = ORIENTED_EDGE('',*,*,#21,.F.);
#38 = ORIENTED_EDGE('',*,*,#39,.F.);
#39 = EDGE_CURVE('',#22,#22,#40,.T.);
#40 = CIRCLE('',#41,4.5);
#41 = AXIS2_PLACEMENT_3D('',#42,#43,#44);
#42 = CARTESIAN_POINT('',(2.5,-0.559756097561,4.53));
#43 = DIRECTION('',(-3.246341173749E-033,-1.,1.2985364695E-032));
#44 = DIRECTION('',(1.,-3.246341173749E-033,4.645171110405E-033));
#45 = CYLINDRICAL_SURFACE('',#46,4.5);
#46 = AXIS2_PLACEMENT_3D('',#47,#48,#49);
#47 = CARTESIAN_POINT('',(2.5,1.05,4.53));
#48 = DIRECTION('',(0.E+000,1.,0.E+000));
#49 = DIRECTION('',(1.,0.E+000,0.E+000));
#50 = ADVANCED_FACE('',(#51,#71),#135,.T.);
#51 = FACE_BOUND('',#52,.F.);
#52 = EDGE_LOOP('',(#53,#54,#63,#70));
#53 = ORIENTED_EDGE('',*,*,#39,.T.);
#54 = ORIENTED_EDGE('',*,*,#55,.T.);
#55 = EDGE_CURVE('',#22,#56,#58,.T.);
#56 = VERTEX_POINT('',#57);
#57 = CARTESIAN_POINT('',(5.390243902439,1.05,4.53));
#58 = CIRCLE('',#59,1.609756097561);
#59 = AXIS2_PLACEMENT_3D('',#60,#61,#62);
#60 = CARTESIAN_POINT('',(5.390243902439,-0.559756097561,4.53));
#61 = DIRECTION('',(-4.645171110405E-033,1.2985364695E-032,1.));
#62 = DIRECTION('',(1.,-3.246341173749E-033,4.645171110405E-033));
#63 = ORIENTED_EDGE('',*,*,#64,.F.);
#64 = EDGE_CURVE('',#56,#56,#65,.T.);
#65 = CIRCLE('',#66,2.890243902439);
#66 = AXIS2_PLACEMENT_3D('',#67,#68,#69);
#67 = CARTESIAN_POINT('',(2.5,1.05,4.53));
#68 = DIRECTION('',(-3.246341173749E-033,-1.,1.2985364695E-032));
#69 = DIRECTION('',(1.,-3.246341173749E-033,4.645171110405E-033));
#70 = ORIENTED_EDGE('',*,*,#55,.F.);
#71 = FACE_BOUND('',#72,.F.);
#72 = EDGE_LOOP('',(#73,#100));
#73 = ORIENTED_EDGE('',*,*,#74,.T.);
#74 = EDGE_CURVE('',#75,#77,#79,.T.);
#75 = VERTEX_POINT('',#76);
#76 = CARTESIAN_POINT('',(0.27,0.E+000,0.737495500029));
#77 = VERTEX_POINT('',#78);
#78 = CARTESIAN_POINT('',(-0.193276727756,-0.188531447,0.979275410275));
#79 = B_SPLINE_CURVE_WITH_KNOTS('',7,(#80,#81,#82,#83,#84,#85,#86,#87,
#88,#89,#90,#91,#92,#93,#94,#95,#96,#97,#98,#99),.UNSPECIFIED.,.F.,
.F.,(8,6,6,8),(0.E+000,0.18723055714,0.537748903969,1.),
.UNSPECIFIED.);
#80 = CARTESIAN_POINT('',(0.27,-5.551115123126E-017,0.737495500029));
#81 = CARTESIAN_POINT('',(0.27,-1.655981210953E-002,0.730370905801));
#82 = CARTESIAN_POINT('',(0.268815101574,-3.322606151988E-002,
0.724180911825));
#83 = CARTESIAN_POINT('',(0.266417729232,-4.989770981369E-002,
0.718981152904));
#84 = CARTESIAN_POINT('',(0.262791115599,-6.646374997525E-002,
0.714817988109));
#85 = CARTESIAN_POINT('',(0.257932559364,-8.280615642603E-002,
0.71172583538));
#86 = CARTESIAN_POINT('',(0.251856683211,-9.880283506015E-002,
0.709724506143));
#87 = CARTESIAN_POINT('',(0.231010850114,-0.143400385462,0.707116716832)
);
#88 = CARTESIAN_POINT('',(0.213277679317,-0.170831638045,0.70924858775)
);
#89 = CARTESIAN_POINT('',(0.191626091487,-0.195818578751,0.715233365804)
);
#90 = CARTESIAN_POINT('',(0.16650149671,-0.217619536215,0.724876331777)
);
#91 = CARTESIAN_POINT('',(0.138528582537,-0.235627197504,0.737819328021)
);
#92 = CARTESIAN_POINT('',(0.108457617579,-0.249414893353,0.753597361088)
);
#93 = CARTESIAN_POINT('',(3.573806458781E-002,-0.271081422139,
0.79557152184));
#94 = CARTESIAN_POINT('',(-7.90828841854E-003,-0.275689370183,
0.823510487321));
#95 = CARTESIAN_POINT('',(-5.166942429225E-002,-0.271938902118,
0.854165455847));
#96 = CARTESIAN_POINT('',(-9.335437959999E-002,-0.260266155931,
0.885994743006));
#97 = CARTESIAN_POINT('',(-0.131441232716,-0.241764694719,0.917913200962
));
#98 = CARTESIAN_POINT('',(-0.164984870576,-0.217535401857,0.949188057963
));
#99 = CARTESIAN_POINT('',(-0.193276727756,-0.188531447,0.979275410275));
#100 = ORIENTED_EDGE('',*,*,#101,.T.);
#101 = EDGE_CURVE('',#77,#75,#102,.T.);
#102 = B_SPLINE_CURVE_WITH_KNOTS('',7,(#103,#104,#105,#106,#107,#108,
#109,#110,#111,#112,#113,#114,#115,#116,#117,#118,#119,#120,#121,
#122,#123,#124,#125,#126,#127,#128,#129,#130,#131,#132,#133,#134),
.UNSPECIFIED.,.F.,.F.,(8,6,6,6,6,8),(0.E+000,0.268772082984,
0.449562912326,0.607992431138,0.762100585127,1.),.UNSPECIFIED.);
#103 = CARTESIAN_POINT('',(-0.193276727756,-0.188531447,0.979275410275)
);
#104 = CARTESIAN_POINT('',(-0.221236180025,-0.159868263588,
1.009009262157));
#105 = CARTESIAN_POINT('',(-0.244012233507,-0.126597321791,
1.037525317726));
#106 = CARTESIAN_POINT('',(-0.260896850931,-8.973116810314E-002,
1.064242171193));
#107 = CARTESIAN_POINT('',(-0.271329823406,-5.033459746167E-002,
1.088606237493));
#108 = CARTESIAN_POINT('',(-0.274878286517,-9.571670390203E-003,
1.109994237996));
#109 = CARTESIAN_POINT('',(-0.271284435281,3.125598864605E-002,
1.127612225554));
#110 = CARTESIAN_POINT('',(-0.253368870516,9.726673755662E-002,
1.149259616615));
#111 = CARTESIAN_POINT('',(-0.242946022105,0.123187814691,1.155846491398
));
#112 = CARTESIAN_POINT('',(-0.229323281347,0.148029720637,1.160036071983
));
#113 = CARTESIAN_POINT('',(-0.212594182089,0.17129437172,1.161528716768)
);
#114 = CARTESIAN_POINT('',(-0.192978020658,0.192462385609,1.160045358412
));
#115 = CARTESIAN_POINT('',(-0.170841656774,0.211046298126,1.155401843958
));
#116 = CARTESIAN_POINT('',(-0.125530519422,0.240369464919,1.140793368721
));
#117 = CARTESIAN_POINT('',(-0.102814884671,0.251799685379,1.131554794403
));
#118 = CARTESIAN_POINT('',(-7.889420634774E-002,0.260704784469,
1.119911259662));
#119 = CARTESIAN_POINT('',(-5.418575210458E-002,0.266909346422,
1.105987970942));
#120 = CARTESIAN_POINT('',(-2.914347376314E-002,0.270347442753,
1.090049908948));
#121 = CARTESIAN_POINT('',(-4.222982612362E-003,0.271071671487,
1.072485277533));
#122 = CARTESIAN_POINT('',(4.387078009968E-002,0.267471267218,
1.035519761709));
#123 = CARTESIAN_POINT('',(6.708633386828E-002,0.263282803218,
1.016171908121));
#124 = CARTESIAN_POINT('',(8.95163292513E-002,0.25682056878,
0.996040876296));
#125 = CARTESIAN_POINT('',(0.110937713336,0.24825946841,0.975461119945)
);
#126 = CARTESIAN_POINT('',(0.131183228486,0.237775794178,0.954729528591)
);
#127 = CARTESIAN_POINT('',(0.150125254181,0.225526747482,0.934094916516)
);
#128 = CARTESIAN_POINT('',(0.194706717699,0.190211989629,0.88239800734)
);
#129 = CARTESIAN_POINT('',(0.218353283012,0.16491316009,0.851806214442)
);
#130 = CARTESIAN_POINT('',(0.238168040692,0.136270288537,0.822810172053)
);
#131 = CARTESIAN_POINT('',(0.253705210574,0.104773904363,0.796166275385)
);
#132 = CARTESIAN_POINT('',(0.264472582266,7.101548985112E-002,
0.772622245355));
#133 = CARTESIAN_POINT('',(0.27,3.576609732288E-002,0.752883291199));
#134 = CARTESIAN_POINT('',(0.27,-2.775557561563E-017,0.737495500029));
#135 = TOROIDAL_SURFACE('',#136,2.890243902439,1.609756097561);
#136 = AXIS2_PLACEMENT_3D('',#137,#138,#139);
#137 = CARTESIAN_POINT('',(2.5,-0.559756097561,4.53));
#138 = DIRECTION('',(3.246341173749E-033,1.,-1.2985364695E-032));
#139 = DIRECTION('',(1.,-3.246341173749E-033,4.645171110405E-033));
#140 = ADVANCED_FACE('',(#141,#161),#227,.T.);
#141 = FACE_BOUND('',#142,.T.);
#142 = EDGE_LOOP('',(#143,#144,#153,#160));
#143 = ORIENTED_EDGE('',*,*,#31,.T.);
#144 = ORIENTED_EDGE('',*,*,#145,.T.);
#145 = EDGE_CURVE('',#24,#146,#148,.T.);
#146 = VERTEX_POINT('',#147);
#147 = CARTESIAN_POINT('',(5.390243902439,-2.25,4.53));
#148 = CIRCLE('',#149,1.609756097561);
#149 = AXIS2_PLACEMENT_3D('',#150,#151,#152);
#150 = CARTESIAN_POINT('',(5.390243902439,-0.640243902439,4.53));
#151 = DIRECTION('',(-4.645171110405E-033,-1.2985364695E-032,-1.));
#152 = DIRECTION('',(1.,-3.246341173749E-033,-4.645171110405E-033));
#153 = ORIENTED_EDGE('',*,*,#154,.F.);
#154 = EDGE_CURVE('',#146,#146,#155,.T.);
#155 = CIRCLE('',#156,2.890243902439);
#156 = AXIS2_PLACEMENT_3D('',#157,#158,#159);
#157 = CARTESIAN_POINT('',(2.5,-2.25,4.53));
#158 = DIRECTION('',(-3.246341173749E-033,-1.,1.2985364695E-032));
#159 = DIRECTION('',(1.,-3.246341173749E-033,-4.645171110405E-033));
#160 = ORIENTED_EDGE('',*,*,#145,.F.);
#161 = FACE_BOUND('',#162,.T.);
#162 = EDGE_LOOP('',(#163,#182));
#163 = ORIENTED_EDGE('',*,*,#164,.T.);
#164 = EDGE_CURVE('',#165,#167,#169,.T.);
#165 = VERTEX_POINT('',#166);
#166 = CARTESIAN_POINT('',(5.27,-1.2,1.111946404414));
#167 = VERTEX_POINT('',#168);
#168 = CARTESIAN_POINT('',(5.12185816557,-0.959063104768,0.912004944853)
);
#169 = B_SPLINE_CURVE_WITH_KNOTS('',6,(#170,#171,#172,#173,#174,#175,
#176,#177,#178,#179,#180,#181),.UNSPECIFIED.,.F.,.F.,(7,5,7),(
0.E+000,0.695913046307,1.),.UNSPECIFIED.);
#170 = CARTESIAN_POINT('',(5.27,-1.2,1.111946404414));
#171 = CARTESIAN_POINT('',(5.27,-1.165315341327,1.095389109234));
#172 = CARTESIAN_POINT('',(5.264653212449,-1.130913680654,1.076072441298
));
#173 = CARTESIAN_POINT('',(5.254123309753,-1.097701236974,1.054545809103
));
#174 = CARTESIAN_POINT('',(5.238708398025,-1.066502330719,1.031261754056
));
#175 = CARTESIAN_POINT('',(5.218801221203,-1.038081061692,1.006612917791
));
#176 = CARTESIAN_POINT('',(5.184474118221,-1.002270790658,0.96983890476)
);
#177 = CARTESIAN_POINT('',(5.173276657572,-0.99205093336,0.958477659752)
);
#178 = CARTESIAN_POINT('',(5.161363501143,-0.982561062325,0.946973386683
));
#179 = CARTESIAN_POINT('',(5.14878386011,-0.973861335132,0.935364298318)
);
#180 = CARTESIAN_POINT('',(5.135593956832,-0.966010228098,0.923692426006
));
#181 = CARTESIAN_POINT('',(5.12185816557,-0.959063104768,0.912004944853)
);
#182 = ORIENTED_EDGE('',*,*,#183,.T.);
#183 = EDGE_CURVE('',#167,#165,#184,.T.);
#184 = B_SPLINE_CURVE_WITH_KNOTS('',6,(#185,#186,#187,#188,#189,#190,
#191,#192,#193,#194,#195,#196,#197,#198,#199,#200,#201,#202,#203,
#204,#205,#206,#207,#208,#209,#210,#211,#212,#213,#214,#215,#216,
#217,#218,#219,#220,#221,#222,#223,#224,#225,#226),.UNSPECIFIED.,.F.
,.F.,(7,5,5,5,5,5,5,5,7),(0.E+000,0.150563907063,0.30145558209,
0.442639984598,0.568599476287,0.685075883862,0.808311414327,
0.919818126555,1.),.UNSPECIFIED.);
#185 = CARTESIAN_POINT('',(5.12185816557,-0.959063104768,0.912004944853)
);
#186 = CARTESIAN_POINT('',(5.090824486387,-0.943367263696,0.885599073243
));
#187 = CARTESIAN_POINT('',(5.056978833608,-0.932273607586,0.859091676064
));
#188 = CARTESIAN_POINT('',(5.021093554781,-0.926448789944,0.833060776525
));
#189 = CARTESIAN_POINT('',(4.984240251918,-0.926493956947,0.808267069055
));
#190 = CARTESIAN_POINT('',(4.94790133881,-0.932596396694,0.785735497316)
);
#191 = CARTESIAN_POINT('',(4.879020115214,-0.955892290456,0.746886355763
));
#192 = CARTESIAN_POINT('',(4.846405865414,-0.973137804393,0.730537040944
));
#193 = CARTESIAN_POINT('',(4.8168593959,-0.995575842725,0.718042218422)
);
#194 = CARTESIAN_POINT('',(4.791460321818,-1.022432336973,0.710060338301
));
#195 = CARTESIAN_POINT('',(4.770979330075,-1.05261239619,0.70697974303)
);
#196 = CARTESIAN_POINT('',(4.741529914475,-1.115098916425,0.710449615601
));
#197 = CARTESIAN_POINT('',(4.73190095721,-1.147153185224,0.716393701813)
);
#198 = CARTESIAN_POINT('',(4.72717646618,-1.180048223403,0.726589506474)
);
#199 = CARTESIAN_POINT('',(4.727262857705,-1.212785360739,0.740698086635
));
#200 = CARTESIAN_POINT('',(4.731851401742,-1.244593805241,0.758204339004
));
#201 = CARTESIAN_POINT('',(4.748377003841,-1.301861063827,0.796688503529
));
#202 = CARTESIAN_POINT('',(4.759468622682,-1.327636931014,0.817089653396
));
#203 = CARTESIAN_POINT('',(4.773611196876,-1.351768868039,0.839356449119
));
#204 = CARTESIAN_POINT('',(4.790530003835,-1.373921366613,0.863061894891
));
#205 = CARTESIAN_POINT('',(4.809970729413,-1.393803628131,0.887767203035
));
#206 = CARTESIAN_POINT('',(4.851757275237,-1.427119674973,0.9363269851)
);
#207 = CARTESIAN_POINT('',(4.873759674389,-1.440914705053,0.960088641262
));
#208 = CARTESIAN_POINT('',(4.89750018583,-1.452278382762,0.983923617876)
);
#209 = CARTESIAN_POINT('',(4.92275802679,-1.46093566187,1.007399352481)
);
#210 = CARTESIAN_POINT('',(4.949203012155,-1.466576977151,1.029965893431
));
#211 = CARTESIAN_POINT('',(5.005108815328,-1.471489092223,1.073381296702
));
#212 = CARTESIAN_POINT('',(5.034684437693,-1.47037376191,1.094076872254)
);
#213 = CARTESIAN_POINT('',(5.064340439317,-1.465304230337,1.112318765274
));
#214 = CARTESIAN_POINT('',(5.093227104064,-1.456237421115,1.127424624211
));
#215 = CARTESIAN_POINT('',(5.120537155595,-1.443431343066,1.139084114391
));
#216 = CARTESIAN_POINT('',(5.168335698049,-1.412814772791,1.154679903708
));
#217 = CARTESIAN_POINT('',(5.189238123349,-1.395588864074,1.159249763765
));
#218 = CARTESIAN_POINT('',(5.20787421484,-1.376014735817,1.160960487201)
);
#219 = CARTESIAN_POINT('',(5.223913034547,-1.354541380342,1.159986642822
));
#220 = CARTESIAN_POINT('',(5.237173534011,-1.331635852872,1.156581082008
));
#221 = CARTESIAN_POINT('',(5.2550517533,-1.290552972538,1.146990198439)
);
#222 = CARTESIAN_POINT('',(5.261051518819,-1.272853677209,1.141854169941
));
#223 = CARTESIAN_POINT('',(5.265543362303,-1.254800264131,1.135689742022
));
#224 = CARTESIAN_POINT('',(5.268522103537,-1.236546113458,1.128592189225
));
#225 = CARTESIAN_POINT('',(5.27,-1.21823522837,1.120651292118));
#226 = CARTESIAN_POINT('',(5.27,-1.2,1.111946404414));
#227 = TOROIDAL_SURFACE('',#228,2.890243902439,1.609756097561);
#228 = AXIS2_PLACEMENT_3D('',#229,#230,#231);
#229 = CARTESIAN_POINT('',(2.5,-0.640243902439,4.53));
#230 = DIRECTION('',(-3.246341173749E-033,-1.,1.2985364695E-032));
#231 = DIRECTION('',(1.,-3.246341173749E-033,-4.645171110405E-033));
#232 = ADVANCED_FACE('',(#233),#236,.F.);
#233 = FACE_BOUND('',#234,.F.);
#234 = EDGE_LOOP('',(#235));
#235 = ORIENTED_EDGE('',*,*,#64,.T.);
#236 = PLANE('',#237);
#237 = AXIS2_PLACEMENT_3D('',#238,#239,#240);
#238 = CARTESIAN_POINT('',(2.5,1.05,4.53));
#239 = DIRECTION('',(-3.246341173749E-033,-1.,1.2985364695E-032));
#240 = DIRECTION('',(0.E+000,-1.2985364695E-032,-1.));
#241 = ADVANCED_FACE('',(#242),#262,.T.);
#242 = FACE_BOUND('',#243,.T.);
#243 = EDGE_LOOP('',(#244,#245,#253,#260,#261));
#244 = ORIENTED_EDGE('',*,*,#101,.T.);
#245 = ORIENTED_EDGE('',*,*,#246,.T.);
#246 = EDGE_CURVE('',#75,#247,#249,.T.);
#247 = VERTEX_POINT('',#248);
#248 = CARTESIAN_POINT('',(0.27,0.E+000,-2.892));
#249 = LINE('',#250,#251);
#250 = CARTESIAN_POINT('',(0.27,0.E+000,4.53));
#251 = VECTOR('',#252,1.);
#252 = DIRECTION('',(-0.E+000,-0.E+000,-1.));
#253 = ORIENTED_EDGE('',*,*,#254,.T.);
#254 = EDGE_CURVE('',#247,#247,#255,.T.);
#255 = CIRCLE('',#256,0.27);
#256 = AXIS2_PLACEMENT_3D('',#257,#258,#259);
#257 = CARTESIAN_POINT('',(0.E+000,0.E+000,-2.892));
#258 = DIRECTION('',(0.E+000,0.E+000,1.));
#259 = DIRECTION('',(1.,0.E+000,0.E+000));
#260 = ORIENTED_EDGE('',*,*,#246,.F.);
#261 = ORIENTED_EDGE('',*,*,#74,.T.);
#262 = CYLINDRICAL_SURFACE('',#263,0.27);
#263 = AXIS2_PLACEMENT_3D('',#264,#265,#266);
#264 = CARTESIAN_POINT('',(0.E+000,0.E+000,4.53));
#265 = DIRECTION('',(0.E+000,0.E+000,1.));
#266 = DIRECTION('',(1.,0.E+000,0.E+000));
#267 = ADVANCED_FACE('',(#268),#271,.T.);
#268 = FACE_BOUND('',#269,.T.);
#269 = EDGE_LOOP('',(#270));
#270 = ORIENTED_EDGE('',*,*,#154,.T.);
#271 = PLANE('',#272);
#272 = AXIS2_PLACEMENT_3D('',#273,#274,#275);
#273 = CARTESIAN_POINT('',(2.5,-2.25,4.53));
#274 = DIRECTION('',(-3.246341173749E-033,-1.,1.2985364695E-032));
#275 = DIRECTION('',(0.E+000,-1.2985364695E-032,-1.));
#276 = ADVANCED_FACE('',(#277),#297,.T.);
#277 = FACE_BOUND('',#278,.T.);
#278 = EDGE_LOOP('',(#279,#280,#288,#295,#296));
#279 = ORIENTED_EDGE('',*,*,#164,.F.);
#280 = ORIENTED_EDGE('',*,*,#281,.T.);
#281 = EDGE_CURVE('',#165,#282,#284,.T.);
#282 = VERTEX_POINT('',#283);
#283 = CARTESIAN_POINT('',(5.27,-1.2,-2.892));
#284 = LINE('',#285,#286);
#285 = CARTESIAN_POINT('',(5.27,-1.2,4.53));
#286 = VECTOR('',#287,1.);
#287 = DIRECTION('',(-0.E+000,-0.E+000,-1.));
#288 = ORIENTED_EDGE('',*,*,#289,.T.);
#289 = EDGE_CURVE('',#282,#282,#290,.T.);
#290 = CIRCLE('',#291,0.27);
#291 = AXIS2_PLACEMENT_3D('',#292,#293,#294);
#292 = CARTESIAN_POINT('',(5.,-1.2,-2.892));
#293 = DIRECTION('',(0.E+000,0.E+000,1.));
#294 = DIRECTION('',(1.,0.E+000,0.E+000));
#295 = ORIENTED_EDGE('',*,*,#281,.F.);
#296 = ORIENTED_EDGE('',*,*,#183,.F.);
#297 = CYLINDRICAL_SURFACE('',#298,0.27);
#298 = AXIS2_PLACEMENT_3D('',#299,#300,#301);
#299 = CARTESIAN_POINT('',(5.,-1.2,4.53));
#300 = DIRECTION('',(0.E+000,0.E+000,1.));
#301 = DIRECTION('',(1.,0.E+000,0.E+000));
#302 = ADVANCED_FACE('',(#303),#323,.T.);
#303 = FACE_BOUND('',#304,.F.);
#304 = EDGE_LOOP('',(#305,#314,#315,#316));
#305 = ORIENTED_EDGE('',*,*,#306,.F.);
#306 = EDGE_CURVE('',#247,#307,#309,.T.);
#307 = VERTEX_POINT('',#308);
#308 = CARTESIAN_POINT('',(0.162,0.E+000,-3.));
#309 = CIRCLE('',#310,0.108);
#310 = AXIS2_PLACEMENT_3D('',#311,#312,#313);
#311 = CARTESIAN_POINT('',(0.162,0.E+000,-2.892));
#312 = DIRECTION('',(-0.E+000,1.,0.E+000));
#313 = DIRECTION('',(1.,0.E+000,0.E+000));
#314 = ORIENTED_EDGE('',*,*,#254,.T.);
#315 = ORIENTED_EDGE('',*,*,#306,.T.);
#316 = ORIENTED_EDGE('',*,*,#317,.F.);
#317 = EDGE_CURVE('',#307,#307,#318,.T.);
#318 = CIRCLE('',#319,0.162);
#319 = AXIS2_PLACEMENT_3D('',#320,#321,#322);
#320 = CARTESIAN_POINT('',(0.E+000,0.E+000,-3.));
#321 = DIRECTION('',(0.E+000,0.E+000,1.));
#322 = DIRECTION('',(1.,0.E+000,0.E+000));
#323 = TOROIDAL_SURFACE('',#324,0.162,0.108);
#324 = AXIS2_PLACEMENT_3D('',#325,#326,#327);
#325 = CARTESIAN_POINT('',(0.E+000,0.E+000,-2.892));
#326 = DIRECTION('',(-0.E+000,-0.E+000,-1.));
#327 = DIRECTION('',(1.,0.E+000,0.E+000));
#328 = ADVANCED_FACE('',(#329),#349,.T.);
#329 = FACE_BOUND('',#330,.F.);
#330 = EDGE_LOOP('',(#331,#340,#341,#342));
#331 = ORIENTED_EDGE('',*,*,#332,.F.);
#332 = EDGE_CURVE('',#282,#333,#335,.T.);
#333 = VERTEX_POINT('',#334);
#334 = CARTESIAN_POINT('',(5.162,-1.2,-3.));
#335 = CIRCLE('',#336,0.108);
#336 = AXIS2_PLACEMENT_3D('',#337,#338,#339);
#337 = CARTESIAN_POINT('',(5.162,-1.2,-2.892));
#338 = DIRECTION('',(-0.E+000,1.,0.E+000));
#339 = DIRECTION('',(1.,0.E+000,0.E+000));
#340 = ORIENTED_EDGE('',*,*,#289,.T.);
#341 = ORIENTED_EDGE('',*,*,#332,.T.);
#342 = ORIENTED_EDGE('',*,*,#343,.F.);
#343 = EDGE_CURVE('',#333,#333,#344,.T.);
#344 = CIRCLE('',#345,0.162);
#345 = AXIS2_PLACEMENT_3D('',#346,#347,#348);
#346 = CARTESIAN_POINT('',(5.,-1.2,-3.));
#347 = DIRECTION('',(0.E+000,0.E+000,1.));
#348 = DIRECTION('',(1.,0.E+000,0.E+000));
#349 = TOROIDAL_SURFACE('',#350,0.162,0.108);
#350 = AXIS2_PLACEMENT_3D('',#351,#352,#353);
#351 = CARTESIAN_POINT('',(5.,-1.2,-2.892));
#352 = DIRECTION('',(-0.E+000,-0.E+000,-1.));
#353 = DIRECTION('',(1.,0.E+000,0.E+000));
#354 = ADVANCED_FACE('',(#355),#358,.F.);
#355 = FACE_BOUND('',#356,.F.);
#356 = EDGE_LOOP('',(#357));
#357 = ORIENTED_EDGE('',*,*,#317,.T.);
#358 = PLANE('',#359);
#359 = AXIS2_PLACEMENT_3D('',#360,#361,#362);
#360 = CARTESIAN_POINT('',(-1.978356673234E-017,2.854531227236E-017,-3.)
);
#361 = DIRECTION('',(0.E+000,0.E+000,1.));
#362 = DIRECTION('',(1.,0.E+000,0.E+000));
#363 = ADVANCED_FACE('',(#364),#367,.F.);
#364 = FACE_BOUND('',#365,.F.);
#365 = EDGE_LOOP('',(#366));
#366 = ORIENTED_EDGE('',*,*,#343,.T.);
#367 = PLANE('',#368);
#368 = AXIS2_PLACEMENT_3D('',#369,#370,#371);
#369 = CARTESIAN_POINT('',(5.,-1.2,-3.));
#370 = DIRECTION('',(0.E+000,0.E+000,1.));
#371 = DIRECTION('',(1.,0.E+000,0.E+000));
#372 = ( GEOMETRIC_REPRESENTATION_CONTEXT(3)
GLOBAL_UNCERTAINTY_ASSIGNED_CONTEXT((#376)) GLOBAL_UNIT_ASSIGNED_CONTEXT
((#373,#374,#375)) REPRESENTATION_CONTEXT('Context #1',
'3D Context with UNIT and UNCERTAINTY') );
#373 = ( LENGTH_UNIT() NAMED_UNIT(*) SI_UNIT(.MILLI.,.METRE.) );
#374 = ( NAMED_UNIT(*) PLANE_ANGLE_UNIT() SI_UNIT($,.RADIAN.) );
#375 = ( NAMED_UNIT(*) SI_UNIT($,.STERADIAN.) SOLID_ANGLE_UNIT() );
#376 = UNCERTAINTY_MEASURE_WITH_UNIT(LENGTH_MEASURE(1.E-007),#373,
'distance_accuracy_value','confusion accuracy');
#377 = PRODUCT_RELATED_PRODUCT_CATEGORY('part',$,(#7));
#378 = MECHANICAL_DESIGN_GEOMETRIC_PRESENTATION_REPRESENTATION('',(#379,
#387,#394,#401,#408,#416,#423,#430,#437,#444,#451),#372);
#379 = STYLED_ITEM('color',(#380),#17);
#380 = PRESENTATION_STYLE_ASSIGNMENT((#381));
#381 = SURFACE_STYLE_USAGE(.BOTH.,#382);
#382 = SURFACE_SIDE_STYLE('',(#383));
#383 = SURFACE_STYLE_FILL_AREA(#384);
#384 = FILL_AREA_STYLE('',(#385));
#385 = FILL_AREA_STYLE_COLOUR('',#386);
#386 = COLOUR_RGB('',0.136999994516,0.402000010014,0.726999998093);
#387 = STYLED_ITEM('color',(#388),#50);
#388 = PRESENTATION_STYLE_ASSIGNMENT((#389));
#389 = SURFACE_STYLE_USAGE(.BOTH.,#390);
#390 = SURFACE_SIDE_STYLE('',(#391));
#391 = SURFACE_STYLE_FILL_AREA(#392);
#392 = FILL_AREA_STYLE('',(#393));
#393 = FILL_AREA_STYLE_COLOUR('',#386);
#394 = STYLED_ITEM('color',(#395),#140);
#395 = PRESENTATION_STYLE_ASSIGNMENT((#396));
#396 = SURFACE_STYLE_USAGE(.BOTH.,#397);
#397 = SURFACE_SIDE_STYLE('',(#398));
#398 = SURFACE_STYLE_FILL_AREA(#399);
#399 = FILL_AREA_STYLE('',(#400));
#400 = FILL_AREA_STYLE_COLOUR('',#386);
#401 = STYLED_ITEM('color',(#402),#232);
#402 = PRESENTATION_STYLE_ASSIGNMENT((#403));
#403 = SURFACE_STYLE_USAGE(.BOTH.,#404);
#404 = SURFACE_SIDE_STYLE('',(#405));
#405 = SURFACE_STYLE_FILL_AREA(#406);
#406 = FILL_AREA_STYLE('',(#407));
#407 = FILL_AREA_STYLE_COLOUR('',#386);
#408 = STYLED_ITEM('color',(#409),#241);
#409 = PRESENTATION_STYLE_ASSIGNMENT((#410));
#410 = SURFACE_STYLE_USAGE(.BOTH.,#411);
#411 = SURFACE_SIDE_STYLE('',(#412));
#412 = SURFACE_STYLE_FILL_AREA(#413);
#413 = FILL_AREA_STYLE('',(#414));
#414 = FILL_AREA_STYLE_COLOUR('',#415);
#415 = COLOUR_RGB('',0.824000000954,0.819999992847,0.78100001812);
#416 = STYLED_ITEM('color',(#417),#267);
#417 = PRESENTATION_STYLE_ASSIGNMENT((#418));
#418 = SURFACE_STYLE_USAGE(.BOTH.,#419);
#419 = SURFACE_SIDE_STYLE('',(#420));
#420 = SURFACE_STYLE_FILL_AREA(#421);
#421 = FILL_AREA_STYLE('',(#422));
#422 = FILL_AREA_STYLE_COLOUR('',#386);
#423 = STYLED_ITEM('color',(#424),#276);
#424 = PRESENTATION_STYLE_ASSIGNMENT((#425));
#425 = SURFACE_STYLE_USAGE(.BOTH.,#426);
#426 = SURFACE_SIDE_STYLE('',(#427));
#427 = SURFACE_STYLE_FILL_AREA(#428);
#428 = FILL_AREA_STYLE('',(#429));
#429 = FILL_AREA_STYLE_COLOUR('',#415);
#430 = STYLED_ITEM('color',(#431),#302);
#431 = PRESENTATION_STYLE_ASSIGNMENT((#432));
#432 = SURFACE_STYLE_USAGE(.BOTH.,#433);
#433 = SURFACE_SIDE_STYLE('',(#434));
#434 = SURFACE_STYLE_FILL_AREA(#435);
#435 = FILL_AREA_STYLE('',(#436));
#436 = FILL_AREA_STYLE_COLOUR('',#415);
#437 = STYLED_ITEM('color',(#438),#328);
#438 = PRESENTATION_STYLE_ASSIGNMENT((#439));
#439 = SURFACE_STYLE_USAGE(.BOTH.,#440);
#440 = SURFACE_SIDE_STYLE('',(#441));
#441 = SURFACE_STYLE_FILL_AREA(#442);
#442 = FILL_AREA_STYLE('',(#443));
#443 = FILL_AREA_STYLE_COLOUR('',#415);
#444 = STYLED_ITEM('color',(#445),#354);
#445 = PRESENTATION_STYLE_ASSIGNMENT((#446));
#446 = SURFACE_STYLE_USAGE(.BOTH.,#447);
#447 = SURFACE_SIDE_STYLE('',(#448));
#448 = SURFACE_STYLE_FILL_AREA(#449);
#449 = FILL_AREA_STYLE('',(#450));
#450 = FILL_AREA_STYLE_COLOUR('',#415);
#451 = STYLED_ITEM('color',(#452),#363);
#452 = PRESENTATION_STYLE_ASSIGNMENT((#453));
#453 = SURFACE_STYLE_USAGE(.BOTH.,#454);
#454 = SURFACE_SIDE_STYLE('',(#455));
#455 = SURFACE_STYLE_FILL_AREA(#456);
#456 = FILL_AREA_STYLE('',(#457));
#457 = FILL_AREA_STYLE_COLOUR('',#415);
ENDSEC;
END-ISO-10303-21;
