ISO-10303-21;
HEADER;
/* RV_Disc_D21.5mm_W4.9mm_P10mm.step 3D STEP model for use in ECAD systems
 * Copyright (C) 2018, kicad StepUp
 * 
 * This work is licensed under the [Creative Commons CC-BY-SA 4.0 License](https://creativecommons.org/licenses/by-sa/4.0/legalcode), 
 * with the following exception:
 * To the extent that the creation of electronic designs that use 'Licensed Material' can be considered to be 'Adapted Material', 
 * then the copyright holder waives article 3 of the license with respect to these designs and any generated files which use data provided 
 * as part of the 'Licensed Material'.
 * You are free to use the library data in your own projects without the obligation to share your project files under this or any other license agreement.
 * However, if you wish to redistribute these libraries, or parts thereof (including in modified form) as a collection then the exception above does not apply. 
 * Please refer to https://github.com/KiCad/kicad-packages3D/blob/master/LICENSE.md for further clarification of the exception.
 * Disclaimer of Warranties and Limitation of Liability.
 * These libraries are provided in the hope that they will be useful, but are provided without warranty of any kind, express or implied.
 * *USE 3D CAD DATA AT YOUR OWN RISK*
 * *DO NOT RELY UPON ANY INFORMATION FOUND HERE WITHOUT INDEPENDENT VERIFICATION.*
 * 
 */

FILE_DESCRIPTION(
/* description */ ('model of RV_Disc_D21.5mm_W4.9mm_P10mm'),
/* implementation_level */ '2;1');

FILE_NAME(
/* name */ 'RV_Disc_D21.5mm_W4.9mm_P10mm.step',
/* time_stamp */ '2018-11-11T21:03:24',
/* author */ ('kicad StepUp','ksu'),
/* organization */ ('FreeCAD'),
/* preprocessor_version */ 'OCC',
/* originating_system */ 'kicad StepUp',
/* authorisation */ '');

FILE_SCHEMA(('AUTOMOTIVE_DESIGN { 1 0 10303 214 1 1 1 1 }'));
ENDSEC;

DATA;
#1 = APPLICATION_PROTOCOL_DEFINITION('international standard',
'automotive_design',2000,#2);
#2 = APPLICATION_CONTEXT(
'core data for automotive mechanical design processes');
#3 = SHAPE_DEFINITION_REPRESENTATION(#4,#10);
#4 = PRODUCT_DEFINITION_SHAPE('','',#5);
#5 = PRODUCT_DEFINITION('design','',#6,#9);
#6 = PRODUCT_DEFINITION_FORMATION('','',#7);
#7 = PRODUCT('RV_Disc_D215mm_W49mm_P10mm','RV_Disc_D215mm_W49mm_P10mm',
'',(#8));
#8 = PRODUCT_CONTEXT('',#2,'mechanical');
#9 = PRODUCT_DEFINITION_CONTEXT('part definition',#2,'design');
#10 = ADVANCED_BREP_SHAPE_REPRESENTATION('',(#11,#15),#394);
#11 = AXIS2_PLACEMENT_3D('',#12,#13,#14);
#12 = CARTESIAN_POINT('',(0.E+000,0.E+000,0.E+000));
#13 = DIRECTION('',(0.E+000,0.E+000,1.));
#14 = DIRECTION('',(1.,0.E+000,-0.E+000));
#15 = MANIFOLD_SOLID_BREP('',#16);
#16 = CLOSED_SHELL('',(#17,#50,#158,#254,#263,#289,#298,#324,#350,#376,
#385));
#17 = ADVANCED_FACE('',(#18),#45,.T.);
#18 = FACE_BOUND('',#19,.F.);
#19 = EDGE_LOOP('',(#20,#30,#37,#38));
#20 = ORIENTED_EDGE('',*,*,#21,.T.);
#21 = EDGE_CURVE('',#22,#24,#26,.T.);
#22 = VERTEX_POINT('',#23);
#23 = CARTESIAN_POINT('',(15.75,-0.990243902439,10.78));
#24 = VERTEX_POINT('',#25);
#25 = CARTESIAN_POINT('',(15.75,-1.109756097561,10.78));
#26 = LINE('',#27,#28);
#27 = CARTESIAN_POINT('',(15.75,1.4,10.78));
#28 = VECTOR('',#29,1.);
#29 = DIRECTION('',(0.E+000,-1.,0.E+000));
#30 = ORIENTED_EDGE('',*,*,#31,.T.);
#31 = EDGE_CURVE('',#24,#24,#32,.T.);
#32 = CIRCLE('',#33,10.75);
#33 = AXIS2_PLACEMENT_3D('',#34,#35,#36);
#34 = CARTESIAN_POINT('',(5.,-1.109756097561,10.78));
#35 = DIRECTION('',(0.E+000,-1.,0.E+000));
#36 = DIRECTION('',(1.,0.E+000,0.E+000));
#37 = ORIENTED_EDGE('',*,*,#21,.F.);
#38 = ORIENTED_EDGE('',*,*,#39,.F.);
#39 = EDGE_CURVE('',#22,#22,#40,.T.);
#40 = CIRCLE('',#41,10.75);
#41 = AXIS2_PLACEMENT_3D('',#42,#43,#44);
#42 = CARTESIAN_POINT('',(5.,-0.990243902439,10.78));
#43 = DIRECTION('',(0.E+000,-1.,0.E+000));
#44 = DIRECTION('',(1.,0.E+000,0.E+000));
#45 = CYLINDRICAL_SURFACE('',#46,10.75);
#46 = AXIS2_PLACEMENT_3D('',#47,#48,#49);
#47 = CARTESIAN_POINT('',(5.,1.4,10.78));
#48 = DIRECTION('',(0.E+000,1.,0.E+000));
#49 = DIRECTION('',(1.,0.E+000,0.E+000));
#50 = ADVANCED_FACE('',(#51,#71),#153,.T.);
#51 = FACE_BOUND('',#52,.F.);
#52 = EDGE_LOOP('',(#53,#54,#63,#70));
#53 = ORIENTED_EDGE('',*,*,#39,.T.);
#54 = ORIENTED_EDGE('',*,*,#55,.T.);
#55 = EDGE_CURVE('',#22,#56,#58,.T.);
#56 = VERTEX_POINT('',#57);
#57 = CARTESIAN_POINT('',(13.359756097561,1.4,10.78));
#58 = CIRCLE('',#59,2.390243902439);
#59 = AXIS2_PLACEMENT_3D('',#60,#61,#62);
#60 = CARTESIAN_POINT('',(13.359756097561,-0.990243902439,10.78));
#61 = DIRECTION('',(0.E+000,0.E+000,1.));
#62 = DIRECTION('',(1.,0.E+000,0.E+000));
#63 = ORIENTED_EDGE('',*,*,#64,.F.);
#64 = EDGE_CURVE('',#56,#56,#65,.T.);
#65 = CIRCLE('',#66,8.359756097561);
#66 = AXIS2_PLACEMENT_3D('',#67,#68,#69);
#67 = CARTESIAN_POINT('',(5.,1.4,10.78));
#68 = DIRECTION('',(0.E+000,-1.,0.E+000));
#69 = DIRECTION('',(1.,0.E+000,0.E+000));
#70 = ORIENTED_EDGE('',*,*,#55,.F.);
#71 = FACE_BOUND('',#72,.F.);
#72 = EDGE_LOOP('',(#73,#106));
#73 = ORIENTED_EDGE('',*,*,#74,.T.);
#74 = EDGE_CURVE('',#75,#77,#79,.T.);
#75 = VERTEX_POINT('',#76);
#76 = CARTESIAN_POINT('',(0.45,0.E+000,1.277971117729));
#77 = VERTEX_POINT('',#78);
#78 = CARTESIAN_POINT('',(-0.285463681675,-0.347865615496,1.520223742108
));
#79 = B_SPLINE_CURVE_WITH_KNOTS('',7,(#80,#81,#82,#83,#84,#85,#86,#87,
#88,#89,#90,#91,#92,#93,#94,#95,#96,#97,#98,#99,#100,#101,#102,#103,
#104,#105),.UNSPECIFIED.,.F.,.F.,(8,6,6,6,8),(0.E+000,0.231846742918
,0.436858244171,0.554859817321,1.),.UNSPECIFIED.);
#80 = CARTESIAN_POINT('',(0.45,-1.110223024625E-016,1.277971117729));
#81 = CARTESIAN_POINT('',(0.45,-3.148111296151E-002,1.262083229007));
#82 = CARTESIAN_POINT('',(0.447430550467,-6.334060808922E-002,
1.247951936947));
#83 = CARTESIAN_POINT('',(0.442180663733,-9.533459587531E-002,
1.235755012162));
#84 = CARTESIAN_POINT('',(0.434163679698,-0.127179884782,1.225652163393)
);
#85 = CARTESIAN_POINT('',(0.42333625195,-0.158553014865,1.217769663645)
);
#86 = CARTESIAN_POINT('',(0.409718031279,-0.189101176222,1.212185641706)
);
#87 = CARTESIAN_POINT('',(0.378993408,-0.244430113335,1.20602487855));
#88 = CARTESIAN_POINT('',(0.362469600176,-0.269475752914,1.204942645259)
);
#89 = CARTESIAN_POINT('',(0.343909820571,-0.293352267393,1.205682309724)
);
#90 = CARTESIAN_POINT('',(0.323423761448,-0.315825512021,1.20821659414)
);
#91 = CARTESIAN_POINT('',(0.301156165566,-0.336681914061,1.212485319914)
);
#92 = CARTESIAN_POINT('',(0.277281381838,-0.355733525945,1.218402755223)
);
#93 = CARTESIAN_POINT('',(0.23744513673,-0.382659570841,1.230160098203)
);
#94 = CARTESIAN_POINT('',(0.222424812068,-0.391846574332,1.234967271859)
);
#95 = CARTESIAN_POINT('',(0.206973399106,-0.400354773464,1.24026714078)
);
#96 = CARTESIAN_POINT('',(0.19112977557,-0.408157761661,1.246038656195)
);
#97 = CARTESIAN_POINT('',(0.174934974668,-0.415232249914,1.252259405059)
);
#98 = CARTESIAN_POINT('',(0.15843191493,-0.421558275486,1.258905951803)
);
#99 = CARTESIAN_POINT('',(7.841538272783E-002,-0.448097814918,
1.292542381738));
#100 = CARTESIAN_POINT('',(1.088171135905E-002,-0.458368056336,
1.325070364545));
#101 = CARTESIAN_POINT('',(-5.740395479809E-002,-0.456299942755,
1.361884137931));
#102 = CARTESIAN_POINT('',(-0.122926244008,-0.442544385045,
1.400827955875));
#103 = CARTESIAN_POINT('',(-0.183448985758,-0.418859498961,
1.440615870686));
#104 = CARTESIAN_POINT('',(-0.237853651775,-0.386935111918,
1.480496215936));
#105 = CARTESIAN_POINT('',(-0.285463681675,-0.347865615496,
1.520223742108));
#106 = ORIENTED_EDGE('',*,*,#107,.T.);
#107 = EDGE_CURVE('',#77,#75,#108,.T.);
#108 = B_SPLINE_CURVE_WITH_KNOTS('',7,(#109,#110,#111,#112,#113,#114,
#115,#116,#117,#118,#119,#120,#121,#122,#123,#124,#125,#126,#127,
#128,#129,#130,#131,#132,#133,#134,#135,#136,#137,#138,#139,#140,
#141,#142,#143,#144,#145,#146,#147,#148,#149,#150,#151,#152),
.UNSPECIFIED.,.F.,.F.,(8,6,6,6,6,6,6,8),(0.E+000,9.213231282535E-002,
0.358310052793,0.413853741931,0.504151833926,0.635453564916,
0.789256374188,1.),.UNSPECIFIED.);
#109 = CARTESIAN_POINT('',(-0.285463681675,-0.347865615496,
1.520223742108));
#110 = CARTESIAN_POINT('',(-0.30394845404,-0.332696737231,1.535648102887
));
#111 = CARTESIAN_POINT('',(-0.321390681531,-0.316465751418,
1.551034065618));
#112 = CARTESIAN_POINT('',(-0.337736444264,-0.299255070483,
1.566352197896));
#113 = CARTESIAN_POINT('',(-0.35293807789,-0.281147045675,1.581575924528
));
#114 = CARTESIAN_POINT('',(-0.366953530146,-0.262223786423,
1.596680332465));
#115 = CARTESIAN_POINT('',(-0.379745717415,-0.242566979702,
1.611640975739));
#116 = CARTESIAN_POINT('',(-0.424610796298,-0.16358257679,1.66916711735)
);
#117 = CARTESIAN_POINT('',(-0.447413977913,-9.953479734874E-002,
1.71043767627));
#118 = CARTESIAN_POINT('',(-0.459008259452,-3.199303299194E-002,
1.749721723793));
#119 = CARTESIAN_POINT('',(-0.458830014301,3.715991444587E-002,
1.786338740233));
#120 = CARTESIAN_POINT('',(-0.446505161982,0.105853206494,1.819281463675
));
#121 = CARTESIAN_POINT('',(-0.421897298851,0.171844334376,1.84694826444)
);
#122 = CARTESIAN_POINT('',(-0.377607875803,0.245216683232,1.871227880413
));
#123 = CARTESIAN_POINT('',(-0.369440387975,0.25764905809,1.875088038999)
);
#124 = CARTESIAN_POINT('',(-0.360755895733,0.269821408615,1.878595599961
));
#125 = CARTESIAN_POINT('',(-0.351560270434,0.281707422398,1.881728233086
));
#126 = CARTESIAN_POINT('',(-0.341861524943,0.293279800383,1.884462778838
));
#127 = CARTESIAN_POINT('',(-0.331670206967,0.304510573812,1.886775754354
));
#128 = CARTESIAN_POINT('',(-0.303652761711,0.333028040856,1.891680862004
));
#129 = CARTESIAN_POINT('',(-0.285038589942,0.349708002169,1.893542150731
));
#130 = CARTESIAN_POINT('',(-0.265216202638,0.365287866662,1.894127999024
));
#131 = CARTESIAN_POINT('',(-0.244268356475,0.379640976319,1.893339798227
));
#132 = CARTESIAN_POINT('',(-0.222302835709,0.392646010147,1.891092573321
));
#133 = CARTESIAN_POINT('',(-0.199453648651,0.404195540773,1.887327498609
));
#134 = CARTESIAN_POINT('',(-0.141607204905,0.428758670696,1.874313239753
));
#135 = CARTESIAN_POINT('',(-0.10576484543,0.440072842805,1.863341467006)
);
#136 = CARTESIAN_POINT('',(-6.888839906355E-002,0.447853389441,
1.849045553864));
#137 = CARTESIAN_POINT('',(-3.160704179793E-002,0.451952669763,
1.831555114986));
#138 = CARTESIAN_POINT('',(5.409143233685E-003,0.452407085726,
1.811252088079));
#139 = CARTESIAN_POINT('',(4.150232893856E-002,0.449453253022,
1.788750950213));
#140 = CARTESIAN_POINT('',(0.116579431613,0.436575131726,1.736744557471)
);
#141 = CARTESIAN_POINT('',(0.15521354378,0.425506076219,1.706550775295)
);
#142 = CARTESIAN_POINT('',(0.191686124824,0.410811980305,1.674901502359)
);
#143 = CARTESIAN_POINT('',(0.225827610771,0.392915771432,1.642396005927)
);
#144 = CARTESIAN_POINT('',(0.25753543249,0.372158262554,1.609524105635)
);
#145 = CARTESIAN_POINT('',(0.286728985218,0.348795951324,1.576672389627)
);
#146 = CARTESIAN_POINT('',(0.349749546623,0.287665473819,1.499616802697)
);
#147 = CARTESIAN_POINT('',(0.381232849042,0.247822433007,1.45578361524)
);
#148 = CARTESIAN_POINT('',(0.40750530951,0.203999659821,1.413544999156)
);
#149 = CARTESIAN_POINT('',(0.428133355946,0.156639983463,1.373744986262)
);
#150 = CARTESIAN_POINT('',(0.44252105259,0.106284781102,1.337279153182)
);
#151 = CARTESIAN_POINT('',(0.45,5.370734406713E-002,1.305076141212));
#152 = CARTESIAN_POINT('',(0.45,-1.110223024625E-016,1.277971117729));
#153 = TOROIDAL_SURFACE('',#154,8.359756097561,2.390243902439);
#154 = AXIS2_PLACEMENT_3D('',#155,#156,#157);
#155 = CARTESIAN_POINT('',(5.,-0.990243902439,10.78));
#156 = DIRECTION('',(0.E+000,1.,0.E+000));
#157 = DIRECTION('',(1.,0.E+000,0.E+000));
#158 = ADVANCED_FACE('',(#159,#179),#249,.T.);
#159 = FACE_BOUND('',#160,.T.);
#160 = EDGE_LOOP('',(#161,#162,#171,#178));
#161 = ORIENTED_EDGE('',*,*,#31,.T.);
#162 = ORIENTED_EDGE('',*,*,#163,.T.);
#163 = EDGE_CURVE('',#24,#164,#166,.T.);
#164 = VERTEX_POINT('',#165);
#165 = CARTESIAN_POINT('',(13.359756097561,-3.5,10.78));
#166 = CIRCLE('',#167,2.390243902439);
#167 = AXIS2_PLACEMENT_3D('',#168,#169,#170);
#168 = CARTESIAN_POINT('',(13.359756097561,-1.109756097561,10.78));
#169 = DIRECTION('',(0.E+000,0.E+000,-1.));
#170 = DIRECTION('',(1.,0.E+000,0.E+000));
#171 = ORIENTED_EDGE('',*,*,#172,.F.);
#172 = EDGE_CURVE('',#164,#164,#173,.T.);
#173 = CIRCLE('',#174,8.359756097561);
#174 = AXIS2_PLACEMENT_3D('',#175,#176,#177);
#175 = CARTESIAN_POINT('',(5.,-3.5,10.78));
#176 = DIRECTION('',(0.E+000,-1.,0.E+000));
#177 = DIRECTION('',(1.,0.E+000,0.E+000));
#178 = ORIENTED_EDGE('',*,*,#163,.F.);
#179 = FACE_BOUND('',#180,.T.);
#180 = EDGE_LOOP('',(#181,#204));
#181 = ORIENTED_EDGE('',*,*,#182,.T.);
#182 = EDGE_CURVE('',#183,#185,#187,.T.);
#183 = VERTEX_POINT('',#184);
#184 = CARTESIAN_POINT('',(10.45,-2.1,1.763983535978));
#185 = VERTEX_POINT('',#186);
#186 = CARTESIAN_POINT('',(9.806442250329,-1.693754510742,1.245411079976
));
#187 = B_SPLINE_CURVE_WITH_KNOTS('',8,(#188,#189,#190,#191,#192,#193,
#194,#195,#196,#197,#198,#199,#200,#201,#202,#203),.UNSPECIFIED.,.F.
,.F.,(9,7,9),(0.E+000,0.270550890467,1.),.UNSPECIFIED.);
#188 = CARTESIAN_POINT('',(10.45,-2.1,1.763983535978));
#189 = CARTESIAN_POINT('',(10.45,-2.07056254597,1.748326195055));
#190 = CARTESIAN_POINT('',(10.447799214476,-2.041227731148,1.73204359691
));
#191 = CARTESIAN_POINT('',(10.443424448756,-2.012152477749,
1.715219633707));
#192 = CARTESIAN_POINT('',(10.436907950209,-1.983491145758,
1.697925576992));
#193 = CARTESIAN_POINT('',(10.42828807115,-1.955396158591,1.680222620906
));
#194 = CARTESIAN_POINT('',(10.417609931741,-1.928018628759,
1.662164425407));
#195 = CARTESIAN_POINT('',(10.404926082898,-1.90150898353,1.643799659489
));
#196 = CARTESIAN_POINT('',(10.35085524364,-1.807288658132,1.574958211356
));
#197 = CARTESIAN_POINT('',(10.297534199023,-1.746415841711,
1.523181156504));
#198 = CARTESIAN_POINT('',(10.23137189953,-1.695333415789,1.470178639379
));
#199 = CARTESIAN_POINT('',(10.153294223958,-1.657204144196,
1.416627657818));
#200 = CARTESIAN_POINT('',(10.065965369226,-1.636083088617,
1.364142053473));
#201 = CARTESIAN_POINT('',(9.974305016856,-1.635415930415,1.315248658107
));
#202 = CARTESIAN_POINT('',(9.885622225599,-1.656028804888,1.274681247984
));
#203 = CARTESIAN_POINT('',(9.806442250329,-1.693754510742,1.245411079976
));
#204 = ORIENTED_EDGE('',*,*,#205,.T.);
#205 = EDGE_CURVE('',#185,#183,#206,.T.);
#206 = B_SPLINE_CURVE_WITH_KNOTS('',6,(#207,#208,#209,#210,#211,#212,
#213,#214,#215,#216,#217,#218,#219,#220,#221,#222,#223,#224,#225,
#226,#227,#228,#229,#230,#231,#232,#233,#234,#235,#236,#237,#238,
#239,#240,#241,#242,#243,#244,#245,#246,#247,#248),.UNSPECIFIED.,.F.
,.F.,(7,5,5,5,5,5,5,5,7),(0.E+000,0.137380885583,0.243302123129,
0.296864857676,0.457111688829,0.607209054089,0.732154399223,
0.859855272666,1.),.UNSPECIFIED.);
#207 = CARTESIAN_POINT('',(9.806442250329,-1.693754510742,1.245411079976
));
#208 = CARTESIAN_POINT('',(9.764106469227,-1.713925611068,1.229760968677
));
#209 = CARTESIAN_POINT('',(9.724386361247,-1.739346676301,1.217414928974
));
#210 = CARTESIAN_POINT('',(9.688151645337,-1.769549249881,1.208845493263
));
#211 = CARTESIAN_POINT('',(9.656154745277,-1.80384686347,1.204456074781)
);
#212 = CARTESIAN_POINT('',(9.628955483114,-1.841360851043,1.204480885567
));
#213 = CARTESIAN_POINT('',(9.589775596833,-1.911730510284,1.212249203314
));
#214 = CARTESIAN_POINT('',(9.575730148033,-1.943696740202,1.218225120026
));
#215 = CARTESIAN_POINT('',(9.564824967492,-1.976544923153,1.226775564596
));
#216 = CARTESIAN_POINT('',(9.557066227075,-2.009834178755,1.237788947111
));
#217 = CARTESIAN_POINT('',(9.552375362932,-2.043177730308,1.251087303713
));
#218 = CARTESIAN_POINT('',(9.549743434736,-2.092968571007,1.27422960405)
);
#219 = CARTESIAN_POINT('',(9.549611963835,-2.109622025784,1.282532387312
));
#220 = CARTESIAN_POINT('',(9.550216917577,-2.126165449069,1.291338794851
));
#221 = CARTESIAN_POINT('',(9.551539637541,-2.14256209789,1.30062030676)
);
#222 = CARTESIAN_POINT('',(9.553560128836,-2.158779400707,1.31034757668)
);
#223 = CARTESIAN_POINT('',(9.564330754691,-2.222684487695,1.350838938659
));
#224 = CARTESIAN_POINT('',(9.578466061295,-2.268698748153,1.384901949144
));
#225 = CARTESIAN_POINT('',(9.59812266657,-2.312102042575,1.421912995999)
);
#226 = CARTESIAN_POINT('',(9.622774656139,-2.352392991722,1.46108282175)
);
#227 = CARTESIAN_POINT('',(9.652032182928,-2.389181576337,1.50167366965)
);
#228 = CARTESIAN_POINT('',(9.717144060474,-2.452745400706,1.581518392495
));
#229 = CARTESIAN_POINT('',(9.752421460965,-2.479966775053,1.620643382857
));
#230 = CARTESIAN_POINT('',(9.791318318891,-2.503347039004,1.659686909806
));
#231 = CARTESIAN_POINT('',(9.833694415143,-2.522361434298,1.697896066416
));
#232 = CARTESIAN_POINT('',(9.879310471875,-2.536266229144,1.734203845009
));
#233 = CARTESIAN_POINT('',(9.967804004965,-2.550691067408,1.794920214784
));
#234 = CARTESIAN_POINT('',(10.010053872459,-2.55309546606,1.820436997996
));
#235 = CARTESIAN_POINT('',(10.05331666589,-2.550623529045,1.842606833098
));
#236 = CARTESIAN_POINT('',(10.096419455911,-2.542999308755,
1.860470507888));
#237 = CARTESIAN_POINT('',(10.138233998324,-2.530409179052,
1.873716614135));
#238 = CARTESIAN_POINT('',(10.218355119992,-2.495935244111,
1.891405702822));
#239 = CARTESIAN_POINT('',(10.256610115627,-2.473832697757,
1.895658635384));
#240 = CARTESIAN_POINT('',(10.291733207197,-2.4475359698,1.895348030552)
);
#241 = CARTESIAN_POINT('',(10.323127801058,-2.417776765202,1.89103923645
));
#242 = CARTESIAN_POINT('',(10.350495447859,-2.385285200952,
1.883347970721));
#243 = CARTESIAN_POINT('',(10.399163156567,-2.31273934549,1.86124262324)
);
#244 = CARTESIAN_POINT('',(10.419610173124,-2.272259666018,
1.846247347625));
#245 = CARTESIAN_POINT('',(10.434888412657,-2.230060108033,
1.828521203676));
#246 = CARTESIAN_POINT('',(10.444994667432,-2.186869061849,
1.808641844041));
#247 = CARTESIAN_POINT('',(10.45,-2.143324539563,1.787027209714));
#248 = CARTESIAN_POINT('',(10.45,-2.1,1.763983535978));
#249 = TOROIDAL_SURFACE('',#250,8.359756097561,2.390243902439);
#250 = AXIS2_PLACEMENT_3D('',#251,#252,#253);
#251 = CARTESIAN_POINT('',(5.,-1.109756097561,10.78));
#252 = DIRECTION('',(0.E+000,-1.,0.E+000));
#253 = DIRECTION('',(1.,0.E+000,0.E+000));
#254 = ADVANCED_FACE('',(#255),#258,.F.);
#255 = FACE_BOUND('',#256,.F.);
#256 = EDGE_LOOP('',(#257));
#257 = ORIENTED_EDGE('',*,*,#64,.T.);
#258 = PLANE('',#259);
#259 = AXIS2_PLACEMENT_3D('',#260,#261,#262);
#260 = CARTESIAN_POINT('',(5.,1.4,10.78));
#261 = DIRECTION('',(-0.E+000,-1.,-0.E+000));
#262 = DIRECTION('',(0.E+000,0.E+000,-1.));
#263 = ADVANCED_FACE('',(#264),#284,.T.);
#264 = FACE_BOUND('',#265,.T.);
#265 = EDGE_LOOP('',(#266,#267,#275,#282,#283));
#266 = ORIENTED_EDGE('',*,*,#107,.T.);
#267 = ORIENTED_EDGE('',*,*,#268,.T.);
#268 = EDGE_CURVE('',#75,#269,#271,.T.);
#269 = VERTEX_POINT('',#270);
#270 = CARTESIAN_POINT('',(0.45,0.E+000,-2.82));
#271 = LINE('',#272,#273);
#272 = CARTESIAN_POINT('',(0.45,0.E+000,10.78));
#273 = VECTOR('',#274,1.);
#274 = DIRECTION('',(-0.E+000,-0.E+000,-1.));
#275 = ORIENTED_EDGE('',*,*,#276,.T.);
#276 = EDGE_CURVE('',#269,#269,#277,.T.);
#277 = CIRCLE('',#278,0.45);
#278 = AXIS2_PLACEMENT_3D('',#279,#280,#281);
#279 = CARTESIAN_POINT('',(0.E+000,0.E+000,-2.82));
#280 = DIRECTION('',(0.E+000,0.E+000,1.));
#281 = DIRECTION('',(1.,0.E+000,0.E+000));
#282 = ORIENTED_EDGE('',*,*,#268,.F.);
#283 = ORIENTED_EDGE('',*,*,#74,.T.);
#284 = CYLINDRICAL_SURFACE('',#285,0.45);
#285 = AXIS2_PLACEMENT_3D('',#286,#287,#288);
#286 = CARTESIAN_POINT('',(0.E+000,0.E+000,10.78));
#287 = DIRECTION('',(0.E+000,0.E+000,1.));
#288 = DIRECTION('',(1.,0.E+000,0.E+000));
#289 = ADVANCED_FACE('',(#290),#293,.T.);
#290 = FACE_BOUND('',#291,.T.);
#291 = EDGE_LOOP('',(#292));
#292 = ORIENTED_EDGE('',*,*,#172,.T.);
#293 = PLANE('',#294);
#294 = AXIS2_PLACEMENT_3D('',#295,#296,#297);
#295 = CARTESIAN_POINT('',(5.,-3.5,10.78));
#296 = DIRECTION('',(-0.E+000,-1.,-0.E+000));
#297 = DIRECTION('',(0.E+000,0.E+000,-1.));
#298 = ADVANCED_FACE('',(#299),#319,.T.);
#299 = FACE_BOUND('',#300,.T.);
#300 = EDGE_LOOP('',(#301,#302,#310,#317,#318));
#301 = ORIENTED_EDGE('',*,*,#182,.F.);
#302 = ORIENTED_EDGE('',*,*,#303,.T.);
#303 = EDGE_CURVE('',#183,#304,#306,.T.);
#304 = VERTEX_POINT('',#305);
#305 = CARTESIAN_POINT('',(10.45,-2.1,-2.82));
#306 = LINE('',#307,#308);
#307 = CARTESIAN_POINT('',(10.45,-2.1,10.78));
#308 = VECTOR('',#309,1.);
#309 = DIRECTION('',(-0.E+000,-0.E+000,-1.));
#310 = ORIENTED_EDGE('',*,*,#311,.T.);
#311 = EDGE_CURVE('',#304,#304,#312,.T.);
#312 = CIRCLE('',#313,0.45);
#313 = AXIS2_PLACEMENT_3D('',#314,#315,#316);
#314 = CARTESIAN_POINT('',(10.,-2.1,-2.82));
#315 = DIRECTION('',(0.E+000,0.E+000,1.));
#316 = DIRECTION('',(1.,0.E+000,0.E+000));
#317 = ORIENTED_EDGE('',*,*,#303,.F.);
#318 = ORIENTED_EDGE('',*,*,#205,.F.);
#319 = CYLINDRICAL_SURFACE('',#320,0.45);
#320 = AXIS2_PLACEMENT_3D('',#321,#322,#323);
#321 = CARTESIAN_POINT('',(10.,-2.1,10.78));
#322 = DIRECTION('',(0.E+000,0.E+000,1.));
#323 = DIRECTION('',(1.,0.E+000,0.E+000));
#324 = ADVANCED_FACE('',(#325),#345,.T.);
#325 = FACE_BOUND('',#326,.F.);
#326 = EDGE_LOOP('',(#327,#336,#337,#338));
#327 = ORIENTED_EDGE('',*,*,#328,.F.);
#328 = EDGE_CURVE('',#269,#329,#331,.T.);
#329 = VERTEX_POINT('',#330);
#330 = CARTESIAN_POINT('',(0.27,0.E+000,-3.));
#331 = CIRCLE('',#332,0.18);
#332 = AXIS2_PLACEMENT_3D('',#333,#334,#335);
#333 = CARTESIAN_POINT('',(0.27,0.E+000,-2.82));
#334 = DIRECTION('',(-0.E+000,1.,0.E+000));
#335 = DIRECTION('',(1.,0.E+000,0.E+000));
#336 = ORIENTED_EDGE('',*,*,#276,.T.);
#337 = ORIENTED_EDGE('',*,*,#328,.T.);
#338 = ORIENTED_EDGE('',*,*,#339,.F.);
#339 = EDGE_CURVE('',#329,#329,#340,.T.);
#340 = CIRCLE('',#341,0.27);
#341 = AXIS2_PLACEMENT_3D('',#342,#343,#344);
#342 = CARTESIAN_POINT('',(0.E+000,0.E+000,-3.));
#343 = DIRECTION('',(0.E+000,0.E+000,1.));
#344 = DIRECTION('',(1.,0.E+000,0.E+000));
#345 = TOROIDAL_SURFACE('',#346,0.27,0.18);
#346 = AXIS2_PLACEMENT_3D('',#347,#348,#349);
#347 = CARTESIAN_POINT('',(0.E+000,0.E+000,-2.82));
#348 = DIRECTION('',(-0.E+000,-0.E+000,-1.));
#349 = DIRECTION('',(1.,0.E+000,0.E+000));
#350 = ADVANCED_FACE('',(#351),#371,.T.);
#351 = FACE_BOUND('',#352,.F.);
#352 = EDGE_LOOP('',(#353,#362,#363,#364));
#353 = ORIENTED_EDGE('',*,*,#354,.F.);
#354 = EDGE_CURVE('',#304,#355,#357,.T.);
#355 = VERTEX_POINT('',#356);
#356 = CARTESIAN_POINT('',(10.27,-2.1,-3.));
#357 = CIRCLE('',#358,0.18);
#358 = AXIS2_PLACEMENT_3D('',#359,#360,#361);
#359 = CARTESIAN_POINT('',(10.27,-2.1,-2.82));
#360 = DIRECTION('',(-0.E+000,1.,0.E+000));
#361 = DIRECTION('',(1.,0.E+000,0.E+000));
#362 = ORIENTED_EDGE('',*,*,#311,.T.);
#363 = ORIENTED_EDGE('',*,*,#354,.T.);
#364 = ORIENTED_EDGE('',*,*,#365,.F.);
#365 = EDGE_CURVE('',#355,#355,#366,.T.);
#366 = CIRCLE('',#367,0.27);
#367 = AXIS2_PLACEMENT_3D('',#368,#369,#370);
#368 = CARTESIAN_POINT('',(10.,-2.1,-3.));
#369 = DIRECTION('',(0.E+000,0.E+000,1.));
#370 = DIRECTION('',(1.,0.E+000,0.E+000));
#371 = TOROIDAL_SURFACE('',#372,0.27,0.18);
#372 = AXIS2_PLACEMENT_3D('',#373,#374,#375);
#373 = CARTESIAN_POINT('',(10.,-2.1,-2.82));
#374 = DIRECTION('',(-0.E+000,-0.E+000,-1.));
#375 = DIRECTION('',(1.,0.E+000,0.E+000));
#376 = ADVANCED_FACE('',(#377),#380,.F.);
#377 = FACE_BOUND('',#378,.F.);
#378 = EDGE_LOOP('',(#379));
#379 = ORIENTED_EDGE('',*,*,#339,.T.);
#380 = PLANE('',#381);
#381 = AXIS2_PLACEMENT_3D('',#382,#383,#384);
#382 = CARTESIAN_POINT('',(-1.18701400394E-017,2.911085817041E-017,-3.)
);
#383 = DIRECTION('',(0.E+000,0.E+000,1.));
#384 = DIRECTION('',(1.,0.E+000,0.E+000));
#385 = ADVANCED_FACE('',(#386),#389,.F.);
#386 = FACE_BOUND('',#387,.F.);
#387 = EDGE_LOOP('',(#388));
#388 = ORIENTED_EDGE('',*,*,#365,.T.);
#389 = PLANE('',#390);
#390 = AXIS2_PLACEMENT_3D('',#391,#392,#393);
#391 = CARTESIAN_POINT('',(10.,-2.1,-3.));
#392 = DIRECTION('',(0.E+000,0.E+000,1.));
#393 = DIRECTION('',(1.,0.E+000,0.E+000));
#394 = ( GEOMETRIC_REPRESENTATION_CONTEXT(3)
GLOBAL_UNCERTAINTY_ASSIGNED_CONTEXT((#398)) GLOBAL_UNIT_ASSIGNED_CONTEXT
((#395,#396,#397)) REPRESENTATION_CONTEXT('Context #1',
'3D Context with UNIT and UNCERTAINTY') );
#395 = ( LENGTH_UNIT() NAMED_UNIT(*) SI_UNIT(.MILLI.,.METRE.) );
#396 = ( NAMED_UNIT(*) PLANE_ANGLE_UNIT() SI_UNIT($,.RADIAN.) );
#397 = ( NAMED_UNIT(*) SI_UNIT($,.STERADIAN.) SOLID_ANGLE_UNIT() );
#398 = UNCERTAINTY_MEASURE_WITH_UNIT(LENGTH_MEASURE(1.E-007),#395,
'distance_accuracy_value','confusion accuracy');
#399 = PRODUCT_RELATED_PRODUCT_CATEGORY('part',$,(#7));
#400 = MECHANICAL_DESIGN_GEOMETRIC_PRESENTATION_REPRESENTATION('',(#401,
#409,#416,#423,#430,#438,#445,#452,#459,#466,#473),#394);
#401 = STYLED_ITEM('color',(#402),#17);
#402 = PRESENTATION_STYLE_ASSIGNMENT((#403));
#403 = SURFACE_STYLE_USAGE(.BOTH.,#404);
#404 = SURFACE_SIDE_STYLE('',(#405));
#405 = SURFACE_STYLE_FILL_AREA(#406);
#406 = FILL_AREA_STYLE('',(#407));
#407 = FILL_AREA_STYLE_COLOUR('',#408);
#408 = COLOUR_RGB('',0.136999994516,0.402000010014,0.726999998093);
#409 = STYLED_ITEM('color',(#410),#50);
#410 = PRESENTATION_STYLE_ASSIGNMENT((#411));
#411 = SURFACE_STYLE_USAGE(.BOTH.,#412);
#412 = SURFACE_SIDE_STYLE('',(#413));
#413 = SURFACE_STYLE_FILL_AREA(#414);
#414 = FILL_AREA_STYLE('',(#415));
#415 = FILL_AREA_STYLE_COLOUR('',#408);
#416 = STYLED_ITEM('color',(#417),#158);
#417 = PRESENTATION_STYLE_ASSIGNMENT((#418));
#418 = SURFACE_STYLE_USAGE(.BOTH.,#419);
#419 = SURFACE_SIDE_STYLE('',(#420));
#420 = SURFACE_STYLE_FILL_AREA(#421);
#421 = FILL_AREA_STYLE('',(#422));
#422 = FILL_AREA_STYLE_COLOUR('',#408);
#423 = STYLED_ITEM('color',(#424),#254);
#424 = PRESENTATION_STYLE_ASSIGNMENT((#425));
#425 = SURFACE_STYLE_USAGE(.BOTH.,#426);
#426 = SURFACE_SIDE_STYLE('',(#427));
#427 = SURFACE_STYLE_FILL_AREA(#428);
#428 = FILL_AREA_STYLE('',(#429));
#429 = FILL_AREA_STYLE_COLOUR('',#408);
#430 = STYLED_ITEM('color',(#431),#263);
#431 = PRESENTATION_STYLE_ASSIGNMENT((#432));
#432 = SURFACE_STYLE_USAGE(.BOTH.,#433);
#433 = SURFACE_SIDE_STYLE('',(#434));
#434 = SURFACE_STYLE_FILL_AREA(#435);
#435 = FILL_AREA_STYLE('',(#436));
#436 = FILL_AREA_STYLE_COLOUR('',#437);
#437 = COLOUR_RGB('',0.824000000954,0.819999992847,0.78100001812);
#438 = STYLED_ITEM('color',(#439),#289);
#439 = PRESENTATION_STYLE_ASSIGNMENT((#440));
#440 = SURFACE_STYLE_USAGE(.BOTH.,#441);
#441 = SURFACE_SIDE_STYLE('',(#442));
#442 = SURFACE_STYLE_FILL_AREA(#443);
#443 = FILL_AREA_STYLE('',(#444));
#444 = FILL_AREA_STYLE_COLOUR('',#408);
#445 = STYLED_ITEM('color',(#446),#298);
#446 = PRESENTATION_STYLE_ASSIGNMENT((#447));
#447 = SURFACE_STYLE_USAGE(.BOTH.,#448);
#448 = SURFACE_SIDE_STYLE('',(#449));
#449 = SURFACE_STYLE_FILL_AREA(#450);
#450 = FILL_AREA_STYLE('',(#451));
#451 = FILL_AREA_STYLE_COLOUR('',#437);
#452 = STYLED_ITEM('color',(#453),#324);
#453 = PRESENTATION_STYLE_ASSIGNMENT((#454));
#454 = SURFACE_STYLE_USAGE(.BOTH.,#455);
#455 = SURFACE_SIDE_STYLE('',(#456));
#456 = SURFACE_STYLE_FILL_AREA(#457);
#457 = FILL_AREA_STYLE('',(#458));
#458 = FILL_AREA_STYLE_COLOUR('',#437);
#459 = STYLED_ITEM('color',(#460),#350);
#460 = PRESENTATION_STYLE_ASSIGNMENT((#461));
#461 = SURFACE_STYLE_USAGE(.BOTH.,#462);
#462 = SURFACE_SIDE_STYLE('',(#463));
#463 = SURFACE_STYLE_FILL_AREA(#464);
#464 = FILL_AREA_STYLE('',(#465));
#465 = FILL_AREA_STYLE_COLOUR('',#437);
#466 = STYLED_ITEM('color',(#467),#376);
#467 = PRESENTATION_STYLE_ASSIGNMENT((#468));
#468 = SURFACE_STYLE_USAGE(.BOTH.,#469);
#469 = SURFACE_SIDE_STYLE('',(#470));
#470 = SURFACE_STYLE_FILL_AREA(#471);
#471 = FILL_AREA_STYLE('',(#472));
#472 = FILL_AREA_STYLE_COLOUR('',#437);
#473 = STYLED_ITEM('color',(#474),#385);
#474 = PRESENTATION_STYLE_ASSIGNMENT((#475));
#475 = SURFACE_STYLE_USAGE(.BOTH.,#476);
#476 = SURFACE_SIDE_STYLE('',(#477));
#477 = SURFACE_STYLE_FILL_AREA(#478);
#478 = FILL_AREA_STYLE('',(#479));
#479 = FILL_AREA_STYLE_COLOUR('',#437);
ENDSEC;
END-ISO-10303-21;
