ISO-10303-21;
HEADER;
/* RV_Disc_D15.5mm_W6.4mm_P7.5mm.step 3D STEP model for use in ECAD systems
 * Copyright (C) 2018, kicad StepUp
 * 
 * This work is licensed under the [Creative Commons CC-BY-SA 4.0 License](https://creativecommons.org/licenses/by-sa/4.0/legalcode), 
 * with the following exception:
 * To the extent that the creation of electronic designs that use 'Licensed Material' can be considered to be 'Adapted Material', 
 * then the copyright holder waives article 3 of the license with respect to these designs and any generated files which use data provided 
 * as part of the 'Licensed Material'.
 * You are free to use the library data in your own projects without the obligation to share your project files under this or any other license agreement.
 * However, if you wish to redistribute these libraries, or parts thereof (including in modified form) as a collection then the exception above does not apply. 
 * Please refer to https://github.com/KiCad/kicad-packages3D/blob/master/LICENSE.md for further clarification of the exception.
 * Disclaimer of Warranties and Limitation of Liability.
 * These libraries are provided in the hope that they will be useful, but are provided without warranty of any kind, express or implied.
 * *USE 3D CAD DATA AT YOUR OWN RISK*
 * *DO NOT RELY UPON ANY INFORMATION FOUND HERE WITHOUT INDEPENDENT VERIFICATION.*
 * 
 */

FILE_DESCRIPTION(
/* description */ ('model of RV_Disc_D15.5mm_W6.4mm_P7.5mm'),
/* implementation_level */ '2;1');

FILE_NAME(
/* name */ 'RV_Disc_D15.5mm_W6.4mm_P7.5mm.step',
/* time_stamp */ '2018-11-11T21:01:03',
/* author */ ('kicad StepUp','ksu'),
/* organization */ ('FreeCAD'),
/* preprocessor_version */ 'OCC',
/* originating_system */ 'kicad StepUp',
/* authorisation */ '');

FILE_SCHEMA(('AUTOMOTIVE_DESIGN { 1 0 10303 214 1 1 1 1 }'));
ENDSEC;

DATA;
#1 = APPLICATION_PROTOCOL_DEFINITION('international standard',
'automotive_design',2000,#2);
#2 = APPLICATION_CONTEXT(
'core data for automotive mechanical design processes');
#3 = SHAPE_DEFINITION_REPRESENTATION(#4,#10);
#4 = PRODUCT_DEFINITION_SHAPE('','',#5);
#5 = PRODUCT_DEFINITION('design','',#6,#9);
#6 = PRODUCT_DEFINITION_FORMATION('','',#7);
#7 = PRODUCT('RV_Disc_D155mm_W64mm_P75mm','RV_Disc_D155mm_W64mm_P75mm',
'',(#8));
#8 = PRODUCT_CONTEXT('',#2,'mechanical');
#9 = PRODUCT_DEFINITION_CONTEXT('part definition',#2,'design');
#10 = ADVANCED_BREP_SHAPE_REPRESENTATION('',(#11,#15),#378);
#11 = AXIS2_PLACEMENT_3D('',#12,#13,#14);
#12 = CARTESIAN_POINT('',(0.E+000,0.E+000,0.E+000));
#13 = DIRECTION('',(0.E+000,0.E+000,1.));
#14 = DIRECTION('',(1.,0.E+000,-0.E+000));
#15 = MANIFOLD_SOLID_BREP('',#16);
#16 = CLOSED_SHELL('',(#17,#50,#138,#238,#247,#273,#282,#308,#334,#360,
#369));
#17 = ADVANCED_FACE('',(#18),#45,.T.);
#18 = FACE_BOUND('',#19,.F.);
#19 = EDGE_LOOP('',(#20,#30,#37,#38));
#20 = ORIENTED_EDGE('',*,*,#21,.T.);
#21 = EDGE_CURVE('',#22,#24,#26,.T.);
#22 = VERTEX_POINT('',#23);
#23 = CARTESIAN_POINT('',(11.5,-1.471951219512,7.78));
#24 = VERTEX_POINT('',#25);
#25 = CARTESIAN_POINT('',(11.5,-1.628048780488,7.78));
#26 = LINE('',#27,#28);
#27 = CARTESIAN_POINT('',(11.5,1.65,7.78));
#28 = VECTOR('',#29,1.);
#29 = DIRECTION('',(0.E+000,-1.,0.E+000));
#30 = ORIENTED_EDGE('',*,*,#31,.T.);
#31 = EDGE_CURVE('',#24,#24,#32,.T.);
#32 = CIRCLE('',#33,7.75);
#33 = AXIS2_PLACEMENT_3D('',#34,#35,#36);
#34 = CARTESIAN_POINT('',(3.75,-1.628048780488,7.78));
#35 = DIRECTION('',(1.09450004193E-033,-1.,7.66150029351E-033));
#36 = DIRECTION('',(1.,1.09450004193E-033,-3.086300668983E-033));
#37 = ORIENTED_EDGE('',*,*,#21,.F.);
#38 = ORIENTED_EDGE('',*,*,#39,.F.);
#39 = EDGE_CURVE('',#22,#22,#40,.T.);
#40 = CIRCLE('',#41,7.75);
#41 = AXIS2_PLACEMENT_3D('',#42,#43,#44);
#42 = CARTESIAN_POINT('',(3.75,-1.471951219512,7.78));
#43 = DIRECTION('',(1.09450004193E-033,-1.,7.66150029351E-033));
#44 = DIRECTION('',(1.,1.09450004193E-033,3.086300668983E-033));
#45 = CYLINDRICAL_SURFACE('',#46,7.75);
#46 = AXIS2_PLACEMENT_3D('',#47,#48,#49);
#47 = CARTESIAN_POINT('',(3.75,1.65,7.78));
#48 = DIRECTION('',(0.E+000,1.,0.E+000));
#49 = DIRECTION('',(1.,0.E+000,0.E+000));
#50 = ADVANCED_FACE('',(#51,#71),#133,.T.);
#51 = FACE_BOUND('',#52,.F.);
#52 = EDGE_LOOP('',(#53,#54,#63,#70));
#53 = ORIENTED_EDGE('',*,*,#39,.T.);
#54 = ORIENTED_EDGE('',*,*,#55,.T.);
#55 = EDGE_CURVE('',#22,#56,#58,.T.);
#56 = VERTEX_POINT('',#57);
#57 = CARTESIAN_POINT('',(8.378048780488,1.65,7.78));
#58 = CIRCLE('',#59,3.121951219512);
#59 = AXIS2_PLACEMENT_3D('',#60,#61,#62);
#60 = CARTESIAN_POINT('',(8.378048780488,-1.471951219512,7.78));
#61 = DIRECTION('',(-3.086300668983E-033,7.66150029351E-033,1.));
#62 = DIRECTION('',(1.,1.09450004193E-033,3.086300668983E-033));
#63 = ORIENTED_EDGE('',*,*,#64,.F.);
#64 = EDGE_CURVE('',#56,#56,#65,.T.);
#65 = CIRCLE('',#66,4.628048780488);
#66 = AXIS2_PLACEMENT_3D('',#67,#68,#69);
#67 = CARTESIAN_POINT('',(3.75,1.65,7.78));
#68 = DIRECTION('',(1.09450004193E-033,-1.,7.66150029351E-033));
#69 = DIRECTION('',(1.,1.09450004193E-033,3.086300668983E-033));
#70 = ORIENTED_EDGE('',*,*,#55,.F.);
#71 = FACE_BOUND('',#72,.F.);
#72 = EDGE_LOOP('',(#73,#92));
#73 = ORIENTED_EDGE('',*,*,#74,.T.);
#74 = EDGE_CURVE('',#75,#77,#79,.T.);
#75 = VERTEX_POINT('',#76);
#76 = CARTESIAN_POINT('',(0.36,0.E+000,1.22330307748));
#77 = VERTEX_POINT('',#78);
#78 = CARTESIAN_POINT('',(8.250011035875E-003,-0.359905456082,
1.227918643313));
#79 = B_SPLINE_CURVE_WITH_KNOTS('',6,(#80,#81,#82,#83,#84,#85,#86,#87,
#88,#89,#90,#91),.UNSPECIFIED.,.F.,.F.,(7,5,7),(0.E+000,
0.439498636751,1.),.UNSPECIFIED.);
#80 = CARTESIAN_POINT('',(0.36,-1.665334536938E-016,1.22330307748));
#81 = CARTESIAN_POINT('',(0.36,-3.839788926975E-002,1.200192498915));
#82 = CARTESIAN_POINT('',(0.355085012598,-7.743947964933E-002,
1.180186627814));
#83 = CARTESIAN_POINT('',(0.344948358701,-0.116387299397,1.163872041384)
);
#84 = CARTESIAN_POINT('',(0.329390320986,-0.154305648158,1.151816160426)
);
#85 = CARTESIAN_POINT('',(0.308533497033,-0.19004239652,1.144424905029)
);
#86 = CARTESIAN_POINT('',(0.250387565416,-0.263980501937,1.138366111084)
);
#87 = CARTESIAN_POINT('',(0.210131194911,-0.300182147804,1.142657924672)
);
#88 = CARTESIAN_POINT('',(0.163452751536,-0.328897623778,1.15480053137)
);
#89 = CARTESIAN_POINT('',(0.112572952408,-0.348556633518,1.173971571954)
);
#90 = CARTESIAN_POINT('',(6.006743859301E-002,-0.358717659838,
1.198848274986));
#91 = CARTESIAN_POINT('',(8.250011035875E-003,-0.359905456082,
1.227918643313));
#92 = ORIENTED_EDGE('',*,*,#93,.T.);
#93 = EDGE_CURVE('',#77,#75,#94,.T.);
#94 = B_SPLINE_CURVE_WITH_KNOTS('',7,(#95,#96,#97,#98,#99,#100,#101,#102
,#103,#104,#105,#106,#107,#108,#109,#110,#111,#112,#113,#114,#115,
#116,#117,#118,#119,#120,#121,#122,#123,#124,#125,#126,#127,#128,
#129,#130,#131,#132),.UNSPECIFIED.,.F.,.F.,(8,6,6,6,6,6,8),(0.E+000,
0.201949568315,0.408121992677,0.548401879544,0.678693124659,
0.825267086542,1.),.UNSPECIFIED.);
#95 = CARTESIAN_POINT('',(8.250011035875E-003,-0.359905456082,
1.227918643313));
#96 = CARTESIAN_POINT('',(-4.342082874705E-002,-0.361089892137,
1.25690677366));
#97 = CARTESIAN_POINT('',(-9.435944168866E-002,-0.35359829512,
1.289911282489));
#98 = CARTESIAN_POINT('',(-0.142805070968,-0.337952197263,1.325728553648
));
#99 = CARTESIAN_POINT('',(-0.187377906211,-0.315109721841,1.363272657589
));
#100 = CARTESIAN_POINT('',(-0.227132681133,-0.286140222463,1.40168714878
));
#101 = CARTESIAN_POINT('',(-0.261417784442,-0.252048636061,
1.440283680344));
#102 = CARTESIAN_POINT('',(-0.318553297906,-0.174606418072,
1.517420583716));
#103 = CARTESIAN_POINT('',(-0.341099639958,-0.131145112423,
1.555875649386));
#104 = CARTESIAN_POINT('',(-0.356769875819,-8.43468407388E-002,
1.593144159144));
#105 = CARTESIAN_POINT('',(-0.365052012408,-3.523883938466E-002,
1.628511955835));
#106 = CARTESIAN_POINT('',(-0.365483303517,1.503551125823E-002,
1.661110979375));
#107 = CARTESIAN_POINT('',(-0.357712062854,6.515120362734E-002,
1.689855230734));
#108 = CARTESIAN_POINT('',(-0.330669518656,0.146500957206,1.729464488446
));
#109 = CARTESIAN_POINT('',(-0.315871661258,0.178636917085,1.743101116038
));
#110 = CARTESIAN_POINT('',(-0.297208451105,0.209447693144,1.753909604951
));
#111 = CARTESIAN_POINT('',(-0.274748588178,0.238322427475,1.761407755446
));
#112 = CARTESIAN_POINT('',(-0.248738663432,0.264588555106,1.765119564971
));
#113 = CARTESIAN_POINT('',(-0.219652873492,0.287600267817,1.764696975979
));
#114 = CARTESIAN_POINT('',(-0.158987474895,0.324803511223,1.755833821158
));
#115 = CARTESIAN_POINT('',(-0.127711565033,0.339519474381,1.747963173159
));
#116 = CARTESIAN_POINT('',(-9.497245267227E-002,0.350626585668,
1.736451477123));
#117 = CARTESIAN_POINT('',(-6.145267360776E-002,0.357939501741,
1.721502554699));
#118 = CARTESIAN_POINT('',(-2.781667123374E-002,0.361475351425,
1.703521903806));
#119 = CARTESIAN_POINT('',(5.348112170373E-003,0.361413403519,
1.683047992014));
#120 = CARTESIAN_POINT('',(7.37724324554E-002,0.354237566517,
1.635464296028));
#121 = CARTESIAN_POINT('',(0.108810284752,0.346239977375,1.607821490275)
);
#122 = CARTESIAN_POINT('',(0.142168674771,0.334413840861,1.578393701675)
);
#123 = CARTESIAN_POINT('',(0.173499264676,0.319151025148,1.547808657461)
);
#124 = CARTESIAN_POINT('',(0.202555116087,0.300809922543,1.516602573077)
);
#125 = CARTESIAN_POINT('',(0.229144548475,0.279688574121,1.485212242511)
);
#126 = CARTESIAN_POINT('',(0.281618664669,0.227817833612,1.416817098999)
);
#127 = CARTESIAN_POINT('',(0.306351321509,0.196033051562,1.379938116924)
);
#128 = CARTESIAN_POINT('',(0.326958261152,0.161114931455,1.344036238602)
);
#129 = CARTESIAN_POINT('',(0.343063271792,0.123484835535,1.309749337327)
);
#130 = CARTESIAN_POINT('',(0.354228794927,8.363507860585E-002,
1.277740897989));
#131 = CARTESIAN_POINT('',(0.36,4.219923022697E-002,1.248701573181));
#132 = CARTESIAN_POINT('',(0.36,-1.665334536938E-016,1.22330307748));
#133 = TOROIDAL_SURFACE('',#134,4.628048780488,3.121951219512);
#134 = AXIS2_PLACEMENT_3D('',#135,#136,#137);
#135 = CARTESIAN_POINT('',(3.75,-1.471951219512,7.78));
#136 = DIRECTION('',(-1.09450004193E-033,1.,-7.66150029351E-033));
#137 = DIRECTION('',(1.,1.09450004193E-033,3.086300668983E-033));
#138 = ADVANCED_FACE('',(#139,#159),#233,.T.);
#139 = FACE_BOUND('',#140,.T.);
#140 = EDGE_LOOP('',(#141,#142,#151,#158));
#141 = ORIENTED_EDGE('',*,*,#31,.T.);
#142 = ORIENTED_EDGE('',*,*,#143,.T.);
#143 = EDGE_CURVE('',#24,#144,#146,.T.);
#144 = VERTEX_POINT('',#145);
#145 = CARTESIAN_POINT('',(8.378048780488,-4.75,7.78));
#146 = CIRCLE('',#147,3.121951219512);
#147 = AXIS2_PLACEMENT_3D('',#148,#149,#150);
#148 = CARTESIAN_POINT('',(8.378048780488,-1.628048780488,7.78));
#149 = DIRECTION('',(-3.086300668983E-033,-7.66150029351E-033,-1.));
#150 = DIRECTION('',(1.,1.09450004193E-033,-3.086300668983E-033));
#151 = ORIENTED_EDGE('',*,*,#152,.F.);
#152 = EDGE_CURVE('',#144,#144,#153,.T.);
#153 = CIRCLE('',#154,4.628048780488);
#154 = AXIS2_PLACEMENT_3D('',#155,#156,#157);
#155 = CARTESIAN_POINT('',(3.75,-4.75,7.78));
#156 = DIRECTION('',(1.09450004193E-033,-1.,7.66150029351E-033));
#157 = DIRECTION('',(1.,1.09450004193E-033,-3.086300668983E-033));
#158 = ORIENTED_EDGE('',*,*,#143,.F.);
#159 = FACE_BOUND('',#160,.T.);
#160 = EDGE_LOOP('',(#161,#174));
#161 = ORIENTED_EDGE('',*,*,#162,.T.);
#162 = EDGE_CURVE('',#163,#165,#167,.T.);
#163 = VERTEX_POINT('',#164);
#164 = CARTESIAN_POINT('',(7.86,-3.1,1.648909188914));
#165 = VERTEX_POINT('',#166);
#166 = CARTESIAN_POINT('',(7.838862033241,-2.978457733986,1.560926318483
));
#167 = B_SPLINE_CURVE_WITH_KNOTS('',5,(#168,#169,#170,#171,#172,#173),
.UNSPECIFIED.,.F.,.F.,(6,6),(0.E+000,1.),.PIECEWISE_BEZIER_KNOTS.);
#168 = CARTESIAN_POINT('',(7.86,-3.1,1.648909188914));
#169 = CARTESIAN_POINT('',(7.86,-3.074943315531,1.63278141485));
#170 = CARTESIAN_POINT('',(7.857819988855,-3.050058908899,1.615760861452
));
#171 = CARTESIAN_POINT('',(7.85352005231,-3.02555796174,1.598017592132)
);
#172 = CARTESIAN_POINT('',(7.84717382132,-3.001631149298,1.579696341611)
);
#173 = CARTESIAN_POINT('',(7.838862033241,-2.978457733986,1.560926318483
));
#174 = ORIENTED_EDGE('',*,*,#175,.T.);
#175 = EDGE_CURVE('',#165,#163,#176,.T.);
#176 = B_SPLINE_CURVE_WITH_KNOTS('',7,(#177,#178,#179,#180,#181,#182,
#183,#184,#185,#186,#187,#188,#189,#190,#191,#192,#193,#194,#195,
#196,#197,#198,#199,#200,#201,#202,#203,#204,#205,#206,#207,#208,
#209,#210,#211,#212,#213,#214,#215,#216,#217,#218,#219,#220,#221,
#222,#223,#224,#225,#226,#227,#228,#229,#230,#231,#232),
.UNSPECIFIED.,.F.,.F.,(8,6,6,6,6,6,6,6,6,8),(0.E+000,
5.235599389385E-002,0.227700547823,0.356935156104,0.440815445106,
0.482254260142,0.607021582576,0.767912877291,0.927110123007,1.),
.UNSPECIFIED.);
#177 = CARTESIAN_POINT('',(7.838862033241,-2.978457733986,1.560926318483
));
#178 = CARTESIAN_POINT('',(7.833725606424,-2.964137283233,1.549327027303
));
#179 = CARTESIAN_POINT('',(7.827888693317,-2.950085604396,1.537567978397
));
#180 = CARTESIAN_POINT('',(7.821366346787,-2.936335968991,1.525673196449
));
#181 = CARTESIAN_POINT('',(7.814174387064,-2.922921124251,1.51366580329)
);
#182 = CARTESIAN_POINT('',(7.806329512734,-2.90987341452,1.501568299339)
);
#183 = CARTESIAN_POINT('',(7.797849411723,-2.897224902656,1.489402845057
));
#184 = CARTESIAN_POINT('',(7.75828780937,-2.844090370723,1.436294879761)
);
#185 = CARTESIAN_POINT('',(7.720945707702,-2.808058296729,1.394933850138
));
#186 = CARTESIAN_POINT('',(7.677390915042,-2.777993153504,1.353844073256
));
#187 = CARTESIAN_POINT('',(7.62842893848,-2.755142929788,1.313879535043)
);
#188 = CARTESIAN_POINT('',(7.575283388172,-2.740846853217,1.276132824373
));
#189 = CARTESIAN_POINT('',(7.519808668295,-2.736247516607,1.242026582748
));
#190 = CARTESIAN_POINT('',(7.423442668723,-2.745842648467,1.19173037953)
);
#191 = CARTESIAN_POINT('',(7.38262749445,-2.755405600115,1.173226622733)
);
#192 = CARTESIAN_POINT('',(7.34294009446,-2.770581786569,1.158208761491)
);
#193 = CARTESIAN_POINT('',(7.305482262222,-2.791186507746,1.147249816168
));
#194 = CARTESIAN_POINT('',(7.271282966797,-2.816710377449,1.1407829463)
);
#195 = CARTESIAN_POINT('',(7.241182601815,-2.846355279682,1.139027197626
));
#196 = CARTESIAN_POINT('',(7.199196313181,-2.900393864104,1.143769848551
));
#197 = CARTESIAN_POINT('',(7.184619398951,-2.922987003571,1.147588494543
));
#198 = CARTESIAN_POINT('',(7.172138077201,-2.946638339531,1.153340925445
));
#199 = CARTESIAN_POINT('',(7.161833267788,-2.971068389168,1.160961034574
));
#200 = CARTESIAN_POINT('',(7.153728688583,-2.99600657619,1.170346467379)
);
#201 = CARTESIAN_POINT('',(7.147803169625,-3.021204712696,1.181370342709
));
#202 = CARTESIAN_POINT('',(7.142130644771,-3.05890886542,1.200079527209)
);
#203 = CARTESIAN_POINT('',(7.140774327352,-3.071386623129,1.206632245908
));
#204 = CARTESIAN_POINT('',(7.139931325272,-3.08384856585,1.213534726417)
);
#205 = CARTESIAN_POINT('',(7.139593948011,-3.096270370029,1.220769918083
));
#206 = CARTESIAN_POINT('',(7.139753292034,-3.108629447652,1.228320429662
));
#207 = CARTESIAN_POINT('',(7.140399637755,-3.120904928507,1.236168780886
));
#208 = CARTESIAN_POINT('',(7.14490469393,-3.169728230127,1.268772720101)
);
#209 = CARTESIAN_POINT('',(7.152608321138,-3.205434103347,1.295782081103
));
#210 = CARTESIAN_POINT('',(7.164352492281,-3.239691901804,1.324862302905
));
#211 = CARTESIAN_POINT('',(7.179831865586,-3.272100478812,1.355548431119
));
#212 = CARTESIAN_POINT('',(7.198757168936,-3.302331154857,1.387389566929
));
#213 = CARTESIAN_POINT('',(7.220873134457,-3.330089699888,1.419943940801
));
#214 = CARTESIAN_POINT('',(7.278296986435,-3.387282965781,1.495062397894
));
#215 = CARTESIAN_POINT('',(7.315489260495,-3.414795397135,1.537689889728
));
#216 = CARTESIAN_POINT('',(7.357114353379,-3.437100529456,1.579790593198
));
#217 = CARTESIAN_POINT('',(7.402734979927,-3.453375905354,1.620241983161
));
#218 = CARTESIAN_POINT('',(7.451613777977,-3.462584854109,1.657476654898
));
#219 = CARTESIAN_POINT('',(7.502400534604,-3.463629145531,1.689551568405
));
#220 = CARTESIAN_POINT('',(7.60334671394,-3.448563111664,1.740005602813)
);
#221 = CARTESIAN_POINT('',(7.653434088608,-3.432644867163,1.758489133462
));
#222 = CARTESIAN_POINT('',(7.700852134997,-3.408004768433,1.768553668994
));
#223 = CARTESIAN_POINT('',(7.743189767888,-3.375558100015,1.769650657136
));
#224 = CARTESIAN_POINT('',(7.77881334263,-3.337063213417,1.762685322634)
);
#225 = CARTESIAN_POINT('',(7.806934580863,-3.294475722356,1.748960786595
));
#226 = CARTESIAN_POINT('',(7.836805281835,-3.229118317484,1.721184755668
));
#227 = CARTESIAN_POINT('',(7.844605200463,-3.208080841875,1.711326776193
));
#228 = CARTESIAN_POINT('',(7.850812857989,-3.186678992596,1.700452074377
));
#229 = CARTESIAN_POINT('',(7.855434293059,-3.165049348505,1.688673067086
));
#230 = CARTESIAN_POINT('',(7.858487927485,-3.143317979451,1.676094658585
));
#231 = CARTESIAN_POINT('',(7.86,-3.121600146139,1.662812156687));
#232 = CARTESIAN_POINT('',(7.86,-3.1,1.648909188914));
#233 = TOROIDAL_SURFACE('',#234,4.628048780488,3.121951219512);
#234 = AXIS2_PLACEMENT_3D('',#235,#236,#237);
#235 = CARTESIAN_POINT('',(3.75,-1.628048780488,7.78));
#236 = DIRECTION('',(1.09450004193E-033,-1.,7.66150029351E-033));
#237 = DIRECTION('',(1.,1.09450004193E-033,-3.086300668983E-033));
#238 = ADVANCED_FACE('',(#239),#242,.F.);
#239 = FACE_BOUND('',#240,.F.);
#240 = EDGE_LOOP('',(#241));
#241 = ORIENTED_EDGE('',*,*,#64,.T.);
#242 = PLANE('',#243);
#243 = AXIS2_PLACEMENT_3D('',#244,#245,#246);
#244 = CARTESIAN_POINT('',(3.75,1.65,7.78));
#245 = DIRECTION('',(1.09450004193E-033,-1.,7.66150029351E-033));
#246 = DIRECTION('',(0.E+000,-7.66150029351E-033,-1.));
#247 = ADVANCED_FACE('',(#248),#268,.T.);
#248 = FACE_BOUND('',#249,.T.);
#249 = EDGE_LOOP('',(#250,#251,#259,#266,#267));
#250 = ORIENTED_EDGE('',*,*,#93,.T.);
#251 = ORIENTED_EDGE('',*,*,#252,.T.);
#252 = EDGE_CURVE('',#75,#253,#255,.T.);
#253 = VERTEX_POINT('',#254);
#254 = CARTESIAN_POINT('',(0.36,0.E+000,-2.856));
#255 = LINE('',#256,#257);
#256 = CARTESIAN_POINT('',(0.36,0.E+000,7.78));
#257 = VECTOR('',#258,1.);
#258 = DIRECTION('',(-0.E+000,-0.E+000,-1.));
#259 = ORIENTED_EDGE('',*,*,#260,.T.);
#260 = EDGE_CURVE('',#253,#253,#261,.T.);
#261 = CIRCLE('',#262,0.36);
#262 = AXIS2_PLACEMENT_3D('',#263,#264,#265);
#263 = CARTESIAN_POINT('',(0.E+000,0.E+000,-2.856));
#264 = DIRECTION('',(0.E+000,0.E+000,1.));
#265 = DIRECTION('',(1.,0.E+000,0.E+000));
#266 = ORIENTED_EDGE('',*,*,#252,.F.);
#267 = ORIENTED_EDGE('',*,*,#74,.T.);
#268 = CYLINDRICAL_SURFACE('',#269,0.36);
#269 = AXIS2_PLACEMENT_3D('',#270,#271,#272);
#270 = CARTESIAN_POINT('',(0.E+000,0.E+000,7.78));
#271 = DIRECTION('',(0.E+000,0.E+000,1.));
#272 = DIRECTION('',(1.,0.E+000,0.E+000));
#273 = ADVANCED_FACE('',(#274),#277,.T.);
#274 = FACE_BOUND('',#275,.T.);
#275 = EDGE_LOOP('',(#276));
#276 = ORIENTED_EDGE('',*,*,#152,.T.);
#277 = PLANE('',#278);
#278 = AXIS2_PLACEMENT_3D('',#279,#280,#281);
#279 = CARTESIAN_POINT('',(3.75,-4.75,7.78));
#280 = DIRECTION('',(1.09450004193E-033,-1.,7.66150029351E-033));
#281 = DIRECTION('',(0.E+000,-7.66150029351E-033,-1.));
#282 = ADVANCED_FACE('',(#283),#303,.T.);
#283 = FACE_BOUND('',#284,.T.);
#284 = EDGE_LOOP('',(#285,#286,#294,#301,#302));
#285 = ORIENTED_EDGE('',*,*,#162,.F.);
#286 = ORIENTED_EDGE('',*,*,#287,.T.);
#287 = EDGE_CURVE('',#163,#288,#290,.T.);
#288 = VERTEX_POINT('',#289);
#289 = CARTESIAN_POINT('',(7.86,-3.1,-2.856));
#290 = LINE('',#291,#292);
#291 = CARTESIAN_POINT('',(7.86,-3.1,7.78));
#292 = VECTOR('',#293,1.);
#293 = DIRECTION('',(-0.E+000,-0.E+000,-1.));
#294 = ORIENTED_EDGE('',*,*,#295,.T.);
#295 = EDGE_CURVE('',#288,#288,#296,.T.);
#296 = CIRCLE('',#297,0.36);
#297 = AXIS2_PLACEMENT_3D('',#298,#299,#300);
#298 = CARTESIAN_POINT('',(7.5,-3.1,-2.856));
#299 = DIRECTION('',(0.E+000,0.E+000,1.));
#300 = DIRECTION('',(1.,0.E+000,0.E+000));
#301 = ORIENTED_EDGE('',*,*,#287,.F.);
#302 = ORIENTED_EDGE('',*,*,#175,.F.);
#303 = CYLINDRICAL_SURFACE('',#304,0.36);
#304 = AXIS2_PLACEMENT_3D('',#305,#306,#307);
#305 = CARTESIAN_POINT('',(7.5,-3.1,7.78));
#306 = DIRECTION('',(0.E+000,0.E+000,1.));
#307 = DIRECTION('',(1.,0.E+000,0.E+000));
#308 = ADVANCED_FACE('',(#309),#329,.T.);
#309 = FACE_BOUND('',#310,.F.);
#310 = EDGE_LOOP('',(#311,#320,#321,#322));
#311 = ORIENTED_EDGE('',*,*,#312,.F.);
#312 = EDGE_CURVE('',#253,#313,#315,.T.);
#313 = VERTEX_POINT('',#314);
#314 = CARTESIAN_POINT('',(0.216,0.E+000,-3.));
#315 = CIRCLE('',#316,0.144);
#316 = AXIS2_PLACEMENT_3D('',#317,#318,#319);
#317 = CARTESIAN_POINT('',(0.216,0.E+000,-2.856));
#318 = DIRECTION('',(-0.E+000,1.,0.E+000));
#319 = DIRECTION('',(1.,0.E+000,0.E+000));
#320 = ORIENTED_EDGE('',*,*,#260,.T.);
#321 = ORIENTED_EDGE('',*,*,#312,.T.);
#322 = ORIENTED_EDGE('',*,*,#323,.F.);
#323 = EDGE_CURVE('',#313,#313,#324,.T.);
#324 = CIRCLE('',#325,0.216);
#325 = AXIS2_PLACEMENT_3D('',#326,#327,#328);
#326 = CARTESIAN_POINT('',(0.E+000,0.E+000,-3.));
#327 = DIRECTION('',(0.E+000,0.E+000,1.));
#328 = DIRECTION('',(1.,0.E+000,0.E+000));
#329 = TOROIDAL_SURFACE('',#330,0.216,0.144);
#330 = AXIS2_PLACEMENT_3D('',#331,#332,#333);
#331 = CARTESIAN_POINT('',(0.E+000,0.E+000,-2.856));
#332 = DIRECTION('',(-0.E+000,-0.E+000,-1.));
#333 = DIRECTION('',(1.,0.E+000,0.E+000));
#334 = ADVANCED_FACE('',(#335),#355,.T.);
#335 = FACE_BOUND('',#336,.F.);
#336 = EDGE_LOOP('',(#337,#346,#347,#348));
#337 = ORIENTED_EDGE('',*,*,#338,.F.);
#338 = EDGE_CURVE('',#288,#339,#341,.T.);
#339 = VERTEX_POINT('',#340);
#340 = CARTESIAN_POINT('',(7.716,-3.1,-3.));
#341 = CIRCLE('',#342,0.144);
#342 = AXIS2_PLACEMENT_3D('',#343,#344,#345);
#343 = CARTESIAN_POINT('',(7.716,-3.1,-2.856));
#344 = DIRECTION('',(-0.E+000,1.,0.E+000));
#345 = DIRECTION('',(1.,0.E+000,0.E+000));
#346 = ORIENTED_EDGE('',*,*,#295,.T.);
#347 = ORIENTED_EDGE('',*,*,#338,.T.);
#348 = ORIENTED_EDGE('',*,*,#349,.F.);
#349 = EDGE_CURVE('',#339,#339,#350,.T.);
#350 = CIRCLE('',#351,0.216);
#351 = AXIS2_PLACEMENT_3D('',#352,#353,#354);
#352 = CARTESIAN_POINT('',(7.5,-3.1,-3.));
#353 = DIRECTION('',(0.E+000,0.E+000,1.));
#354 = DIRECTION('',(1.,0.E+000,0.E+000));
#355 = TOROIDAL_SURFACE('',#356,0.216,0.144);
#356 = AXIS2_PLACEMENT_3D('',#357,#358,#359);
#357 = CARTESIAN_POINT('',(7.5,-3.1,-2.856));
#358 = DIRECTION('',(-0.E+000,-0.E+000,-1.));
#359 = DIRECTION('',(1.,0.E+000,0.E+000));
#360 = ADVANCED_FACE('',(#361),#364,.F.);
#361 = FACE_BOUND('',#362,.F.);
#362 = EDGE_LOOP('',(#363));
#363 = ORIENTED_EDGE('',*,*,#323,.T.);
#364 = PLANE('',#365);
#365 = AXIS2_PLACEMENT_3D('',#366,#367,#368);
#366 = CARTESIAN_POINT('',(-1.483767504926E-017,1.497958850874E-017,-3.)
);
#367 = DIRECTION('',(0.E+000,0.E+000,1.));
#368 = DIRECTION('',(1.,0.E+000,0.E+000));
#369 = ADVANCED_FACE('',(#370),#373,.F.);
#370 = FACE_BOUND('',#371,.F.);
#371 = EDGE_LOOP('',(#372));
#372 = ORIENTED_EDGE('',*,*,#349,.T.);
#373 = PLANE('',#374);
#374 = AXIS2_PLACEMENT_3D('',#375,#376,#377);
#375 = CARTESIAN_POINT('',(7.5,-3.1,-3.));
#376 = DIRECTION('',(0.E+000,0.E+000,1.));
#377 = DIRECTION('',(1.,0.E+000,0.E+000));
#378 = ( GEOMETRIC_REPRESENTATION_CONTEXT(3)
GLOBAL_UNCERTAINTY_ASSIGNED_CONTEXT((#382)) GLOBAL_UNIT_ASSIGNED_CONTEXT
((#379,#380,#381)) REPRESENTATION_CONTEXT('Context #1',
'3D Context with UNIT and UNCERTAINTY') );
#379 = ( LENGTH_UNIT() NAMED_UNIT(*) SI_UNIT(.MILLI.,.METRE.) );
#380 = ( NAMED_UNIT(*) PLANE_ANGLE_UNIT() SI_UNIT($,.RADIAN.) );
#381 = ( NAMED_UNIT(*) SI_UNIT($,.STERADIAN.) SOLID_ANGLE_UNIT() );
#382 = UNCERTAINTY_MEASURE_WITH_UNIT(LENGTH_MEASURE(1.E-007),#379,
'distance_accuracy_value','confusion accuracy');
#383 = PRODUCT_RELATED_PRODUCT_CATEGORY('part',$,(#7));
#384 = MECHANICAL_DESIGN_GEOMETRIC_PRESENTATION_REPRESENTATION('',(#385,
#393,#400,#407,#414,#422,#429,#436,#443,#450,#457),#378);
#385 = STYLED_ITEM('color',(#386),#17);
#386 = PRESENTATION_STYLE_ASSIGNMENT((#387));
#387 = SURFACE_STYLE_USAGE(.BOTH.,#388);
#388 = SURFACE_SIDE_STYLE('',(#389));
#389 = SURFACE_STYLE_FILL_AREA(#390);
#390 = FILL_AREA_STYLE('',(#391));
#391 = FILL_AREA_STYLE_COLOUR('',#392);
#392 = COLOUR_RGB('',0.136999994516,0.402000010014,0.726999998093);
#393 = STYLED_ITEM('color',(#394),#50);
#394 = PRESENTATION_STYLE_ASSIGNMENT((#395));
#395 = SURFACE_STYLE_USAGE(.BOTH.,#396);
#396 = SURFACE_SIDE_STYLE('',(#397));
#397 = SURFACE_STYLE_FILL_AREA(#398);
#398 = FILL_AREA_STYLE('',(#399));
#399 = FILL_AREA_STYLE_COLOUR('',#392);
#400 = STYLED_ITEM('color',(#401),#138);
#401 = PRESENTATION_STYLE_ASSIGNMENT((#402));
#402 = SURFACE_STYLE_USAGE(.BOTH.,#403);
#403 = SURFACE_SIDE_STYLE('',(#404));
#404 = SURFACE_STYLE_FILL_AREA(#405);
#405 = FILL_AREA_STYLE('',(#406));
#406 = FILL_AREA_STYLE_COLOUR('',#392);
#407 = STYLED_ITEM('color',(#408),#238);
#408 = PRESENTATION_STYLE_ASSIGNMENT((#409));
#409 = SURFACE_STYLE_USAGE(.BOTH.,#410);
#410 = SURFACE_SIDE_STYLE('',(#411));
#411 = SURFACE_STYLE_FILL_AREA(#412);
#412 = FILL_AREA_STYLE('',(#413));
#413 = FILL_AREA_STYLE_COLOUR('',#392);
#414 = STYLED_ITEM('color',(#415),#247);
#415 = PRESENTATION_STYLE_ASSIGNMENT((#416));
#416 = SURFACE_STYLE_USAGE(.BOTH.,#417);
#417 = SURFACE_SIDE_STYLE('',(#418));
#418 = SURFACE_STYLE_FILL_AREA(#419);
#419 = FILL_AREA_STYLE('',(#420));
#420 = FILL_AREA_STYLE_COLOUR('',#421);
#421 = COLOUR_RGB('',0.824000000954,0.819999992847,0.78100001812);
#422 = STYLED_ITEM('color',(#423),#273);
#423 = PRESENTATION_STYLE_ASSIGNMENT((#424));
#424 = SURFACE_STYLE_USAGE(.BOTH.,#425);
#425 = SURFACE_SIDE_STYLE('',(#426));
#426 = SURFACE_STYLE_FILL_AREA(#427);
#427 = FILL_AREA_STYLE('',(#428));
#428 = FILL_AREA_STYLE_COLOUR('',#392);
#429 = STYLED_ITEM('color',(#430),#282);
#430 = PRESENTATION_STYLE_ASSIGNMENT((#431));
#431 = SURFACE_STYLE_USAGE(.BOTH.,#432);
#432 = SURFACE_SIDE_STYLE('',(#433));
#433 = SURFACE_STYLE_FILL_AREA(#434);
#434 = FILL_AREA_STYLE('',(#435));
#435 = FILL_AREA_STYLE_COLOUR('',#421);
#436 = STYLED_ITEM('color',(#437),#308);
#437 = PRESENTATION_STYLE_ASSIGNMENT((#438));
#438 = SURFACE_STYLE_USAGE(.BOTH.,#439);
#439 = SURFACE_SIDE_STYLE('',(#440));
#440 = SURFACE_STYLE_FILL_AREA(#441);
#441 = FILL_AREA_STYLE('',(#442));
#442 = FILL_AREA_STYLE_COLOUR('',#421);
#443 = STYLED_ITEM('color',(#444),#334);
#444 = PRESENTATION_STYLE_ASSIGNMENT((#445));
#445 = SURFACE_STYLE_USAGE(.BOTH.,#446);
#446 = SURFACE_SIDE_STYLE('',(#447));
#447 = SURFACE_STYLE_FILL_AREA(#448);
#448 = FILL_AREA_STYLE('',(#449));
#449 = FILL_AREA_STYLE_COLOUR('',#421);
#450 = STYLED_ITEM('color',(#451),#360);
#451 = PRESENTATION_STYLE_ASSIGNMENT((#452));
#452 = SURFACE_STYLE_USAGE(.BOTH.,#453);
#453 = SURFACE_SIDE_STYLE('',(#454));
#454 = SURFACE_STYLE_FILL_AREA(#455);
#455 = FILL_AREA_STYLE('',(#456));
#456 = FILL_AREA_STYLE_COLOUR('',#421);
#457 = STYLED_ITEM('color',(#458),#369);
#458 = PRESENTATION_STYLE_ASSIGNMENT((#459));
#459 = SURFACE_STYLE_USAGE(.BOTH.,#460);
#460 = SURFACE_SIDE_STYLE('',(#461));
#461 = SURFACE_STYLE_FILL_AREA(#462);
#462 = FILL_AREA_STYLE('',(#463));
#463 = FILL_AREA_STYLE_COLOUR('',#421);
ENDSEC;
END-ISO-10303-21;
