ISO-10303-21;
HEADER;
/* RV_Disc_D15.5mm_W5.4mm_P7.5mm.step 3D STEP model for use in ECAD systems
 * Copyright (C) 2018, kicad StepUp
 * 
 * This work is licensed under the [Creative Commons CC-BY-SA 4.0 License](https://creativecommons.org/licenses/by-sa/4.0/legalcode), 
 * with the following exception:
 * To the extent that the creation of electronic designs that use 'Licensed Material' can be considered to be 'Adapted Material', 
 * then the copyright holder waives article 3 of the license with respect to these designs and any generated files which use data provided 
 * as part of the 'Licensed Material'.
 * You are free to use the library data in your own projects without the obligation to share your project files under this or any other license agreement.
 * However, if you wish to redistribute these libraries, or parts thereof (including in modified form) as a collection then the exception above does not apply. 
 * Please refer to https://github.com/KiCad/kicad-packages3D/blob/master/LICENSE.md for further clarification of the exception.
 * Disclaimer of Warranties and Limitation of Liability.
 * These libraries are provided in the hope that they will be useful, but are provided without warranty of any kind, express or implied.
 * *USE 3D CAD DATA AT YOUR OWN RISK*
 * *DO NOT RELY UPON ANY INFORMATION FOUND HERE WITHOUT INDEPENDENT VERIFICATION.*
 * 
 */

FILE_DESCRIPTION(
/* description */ ('model of RV_Disc_D15.5mm_W5.4mm_P7.5mm'),
/* implementation_level */ '2;1');

FILE_NAME(
/* name */ 'RV_Disc_D15.5mm_W5.4mm_P7.5mm.step',
/* time_stamp */ '2018-11-11T20:59:52',
/* author */ ('kicad StepUp','ksu'),
/* organization */ ('FreeCAD'),
/* preprocessor_version */ 'OCC',
/* originating_system */ 'kicad StepUp',
/* authorisation */ '');

FILE_SCHEMA(('AUTOMOTIVE_DESIGN { 1 0 10303 214 1 1 1 1 }'));
ENDSEC;

DATA;
#1 = APPLICATION_PROTOCOL_DEFINITION('international standard',
'automotive_design',2000,#2);
#2 = APPLICATION_CONTEXT(
'core data for automotive mechanical design processes');
#3 = SHAPE_DEFINITION_REPRESENTATION(#4,#10);
#4 = PRODUCT_DEFINITION_SHAPE('','',#5);
#5 = PRODUCT_DEFINITION('design','',#6,#9);
#6 = PRODUCT_DEFINITION_FORMATION('','',#7);
#7 = PRODUCT('RV_Disc_D155mm_W54mm_P75mm','RV_Disc_D155mm_W54mm_P75mm',
'',(#8));
#8 = PRODUCT_CONTEXT('',#2,'mechanical');
#9 = PRODUCT_DEFINITION_CONTEXT('part definition',#2,'design');
#10 = ADVANCED_BREP_SHAPE_REPRESENTATION('',(#11,#15),#382);
#11 = AXIS2_PLACEMENT_3D('',#12,#13,#14);
#12 = CARTESIAN_POINT('',(0.E+000,0.E+000,0.E+000));
#13 = DIRECTION('',(0.E+000,0.E+000,1.));
#14 = DIRECTION('',(1.,0.E+000,-0.E+000));
#15 = MANIFOLD_SOLID_BREP('',#16);
#16 = CLOSED_SHELL('',(#17,#50,#140,#242,#251,#277,#286,#312,#338,#364,
#373));
#17 = ADVANCED_FACE('',(#18),#45,.T.);
#18 = FACE_BOUND('',#19,.F.);
#19 = EDGE_LOOP('',(#20,#30,#37,#38));
#20 = ORIENTED_EDGE('',*,*,#21,.T.);
#21 = EDGE_CURVE('',#22,#24,#26,.T.);
#22 = VERTEX_POINT('',#23);
#23 = CARTESIAN_POINT('',(11.5,-1.134146341463,7.78));
#24 = VERTEX_POINT('',#25);
#25 = CARTESIAN_POINT('',(11.5,-1.265853658537,7.78));
#26 = LINE('',#27,#28);
#27 = CARTESIAN_POINT('',(11.5,1.5,7.78));
#28 = VECTOR('',#29,1.);
#29 = DIRECTION('',(0.E+000,-1.,0.E+000));
#30 = ORIENTED_EDGE('',*,*,#31,.T.);
#31 = EDGE_CURVE('',#24,#24,#32,.T.);
#32 = CIRCLE('',#33,7.75);
#33 = AXIS2_PLACEMENT_3D('',#34,#35,#36);
#34 = CARTESIAN_POINT('',(3.75,-1.265853658537,7.78));
#35 = DIRECTION('',(1.09450004193E-033,-1.,7.66150029351E-033));
#36 = DIRECTION('',(1.,1.09450004193E-033,-2.604066189454E-033));
#37 = ORIENTED_EDGE('',*,*,#21,.F.);
#38 = ORIENTED_EDGE('',*,*,#39,.F.);
#39 = EDGE_CURVE('',#22,#22,#40,.T.);
#40 = CIRCLE('',#41,7.75);
#41 = AXIS2_PLACEMENT_3D('',#42,#43,#44);
#42 = CARTESIAN_POINT('',(3.75,-1.134146341463,7.78));
#43 = DIRECTION('',(1.09450004193E-033,-1.,7.66150029351E-033));
#44 = DIRECTION('',(1.,1.09450004193E-033,2.604066189454E-033));
#45 = CYLINDRICAL_SURFACE('',#46,7.75);
#46 = AXIS2_PLACEMENT_3D('',#47,#48,#49);
#47 = CARTESIAN_POINT('',(3.75,1.5,7.78));
#48 = DIRECTION('',(0.E+000,1.,0.E+000));
#49 = DIRECTION('',(1.,0.E+000,0.E+000));
#50 = ADVANCED_FACE('',(#51,#71),#135,.T.);
#51 = FACE_BOUND('',#52,.F.);
#52 = EDGE_LOOP('',(#53,#54,#63,#70));
#53 = ORIENTED_EDGE('',*,*,#39,.T.);
#54 = ORIENTED_EDGE('',*,*,#55,.T.);
#55 = EDGE_CURVE('',#22,#56,#58,.T.);
#56 = VERTEX_POINT('',#57);
#57 = CARTESIAN_POINT('',(8.865853658537,1.5,7.78));
#58 = CIRCLE('',#59,2.634146341463);
#59 = AXIS2_PLACEMENT_3D('',#60,#61,#62);
#60 = CARTESIAN_POINT('',(8.865853658537,-1.134146341463,7.78));
#61 = DIRECTION('',(-2.604066189454E-033,7.66150029351E-033,1.));
#62 = DIRECTION('',(1.,1.09450004193E-033,2.604066189454E-033));
#63 = ORIENTED_EDGE('',*,*,#64,.F.);
#64 = EDGE_CURVE('',#56,#56,#65,.T.);
#65 = CIRCLE('',#66,5.115853658537);
#66 = AXIS2_PLACEMENT_3D('',#67,#68,#69);
#67 = CARTESIAN_POINT('',(3.75,1.5,7.78));
#68 = DIRECTION('',(1.09450004193E-033,-1.,7.66150029351E-033));
#69 = DIRECTION('',(1.,1.09450004193E-033,2.604066189454E-033));
#70 = ORIENTED_EDGE('',*,*,#55,.F.);
#71 = FACE_BOUND('',#72,.F.);
#72 = EDGE_LOOP('',(#73,#94));
#73 = ORIENTED_EDGE('',*,*,#74,.T.);
#74 = EDGE_CURVE('',#75,#77,#79,.T.);
#75 = VERTEX_POINT('',#76);
#76 = CARTESIAN_POINT('',(0.36,0.E+000,1.097333079433));
#77 = VERTEX_POINT('',#78);
#78 = CARTESIAN_POINT('',(-3.396750254864E-002,-0.358393929595,
1.150743883415));
#79 = B_SPLINE_CURVE_WITH_KNOTS('',7,(#80,#81,#82,#83,#84,#85,#86,#87,
#88,#89,#90,#91,#92,#93),.UNSPECIFIED.,.F.,.F.,(8,6,8),(0.E+000,
0.358064416651,1.),.UNSPECIFIED.);
#80 = CARTESIAN_POINT('',(0.36,-5.551115123126E-017,1.097333079433));
#81 = CARTESIAN_POINT('',(0.36,-2.897123245434E-002,1.08183621909));
#82 = CARTESIAN_POINT('',(0.3572798613,-5.826990020512E-002,
1.068119636655));
#83 = CARTESIAN_POINT('',(0.351729358608,-8.760247695819E-002,
1.056390997464));
#84 = CARTESIAN_POINT('',(0.343270725841,-0.116629158561,1.046841363333)
);
#85 = CARTESIAN_POINT('',(0.331886399401,-0.144963846995,1.039625303698)
);
#86 = CARTESIAN_POINT('',(0.31764385242,-0.17219274033,1.03484100069));
#87 = CARTESIAN_POINT('',(0.270372100052,-0.244020006958,1.028331969257)
);
#88 = CARTESIAN_POINT('',(0.231399355705,-0.285276839333,1.032039669199)
);
#89 = CARTESIAN_POINT('',(0.184789921533,-0.319366065293,1.043762958678)
);
#90 = CARTESIAN_POINT('',(0.132406109214,-0.344379142996,1.062831542541)
);
#91 = CARTESIAN_POINT('',(7.671440666643E-002,-0.359161574383,
1.088020551238));
#92 = CARTESIAN_POINT('',(2.044047483014E-002,-0.363550554632,
1.117858165748));
#93 = CARTESIAN_POINT('',(-3.396750254864E-002,-0.358393929595,
1.150743883415));
#94 = ORIENTED_EDGE('',*,*,#95,.T.);
#95 = EDGE_CURVE('',#77,#75,#96,.T.);
#96 = B_SPLINE_CURVE_WITH_KNOTS('',7,(#97,#98,#99,#100,#101,#102,#103,
#104,#105,#106,#107,#108,#109,#110,#111,#112,#113,#114,#115,#116,
#117,#118,#119,#120,#121,#122,#123,#124,#125,#126,#127,#128,#129,
#130,#131,#132,#133,#134),.UNSPECIFIED.,.F.,.F.,(8,6,6,6,6,6,8),(
0.E+000,0.175149133151,0.397811140545,0.544683263722,0.672736962569,
0.818159941352,1.),.UNSPECIFIED.);
#97 = CARTESIAN_POINT('',(-3.396750254864E-002,-0.358393929595,
1.150743883415));
#98 = CARTESIAN_POINT('',(-7.715748231375E-002,-0.354300512752,
1.176849126598));
#99 = CARTESIAN_POINT('',(-0.119134272991,-0.34419526248,1.204852956823)
);
#100 = CARTESIAN_POINT('',(-0.15892549847,-0.328496056652,1.234099714485
));
#101 = CARTESIAN_POINT('',(-0.19575702489,-0.307793448128,1.26403633561)
);
#102 = CARTESIAN_POINT('',(-0.229051108808,-0.282731823225,
1.294217545029));
#103 = CARTESIAN_POINT('',(-0.258384678802,-0.253937118602,
1.324283802245));
#104 = CARTESIAN_POINT('',(-0.31521885503,-0.181379046282,1.391577467492
));
#105 = CARTESIAN_POINT('',(-0.340017516569,-0.135733082167,1.42848025487
));
#106 = CARTESIAN_POINT('',(-0.357110901473,-8.629127563779E-002,
1.463948155899));
#107 = CARTESIAN_POINT('',(-0.365911535872,-3.431921170199E-002,
1.497278138136));
#108 = CARTESIAN_POINT('',(-0.365941270277,1.878638707661E-002,
1.527627089116));
#109 = CARTESIAN_POINT('',(-0.356885834746,7.145185446995E-002,
1.553885005524));
#110 = CARTESIAN_POINT('',(-0.326768565397,0.155152445955,1.588415644198
));
#111 = CARTESIAN_POINT('',(-0.310846927021,0.187435644132,1.599762616275
));
#112 = CARTESIAN_POINT('',(-0.290991556182,0.218188969214,1.608332864956
));
#113 = CARTESIAN_POINT('',(-0.267312371056,0.246790512391,1.613676821469
));
#114 = CARTESIAN_POINT('',(-0.240094094466,0.272572644934,1.615349396902
));
#115 = CARTESIAN_POINT('',(-0.209837209848,0.294905903519,1.613023822132
));
#116 = CARTESIAN_POINT('',(-0.148851699873,0.329405932303,1.601120357364
));
#117 = CARTESIAN_POINT('',(-0.118666239655,0.342516488959,1.592506932802
));
#118 = CARTESIAN_POINT('',(-8.71970482813E-002,0.352346484337,
1.580798498354));
#119 = CARTESIAN_POINT('',(-5.501599250163E-002,0.358724650451,
1.566138952059));
#120 = CARTESIAN_POINT('',(-2.271021050289E-002,0.361639188835,
1.54884970004));
#121 = CARTESIAN_POINT('',(9.165327445399E-003,0.361228989693,
1.529396014434));
#122 = CARTESIAN_POINT('',(7.527824777383E-002,0.353814460826,
1.484368278748));
#123 = CARTESIAN_POINT('',(0.109280003278,0.345919773399,1.458301285126)
);
#124 = CARTESIAN_POINT('',(0.141672578604,0.33441889528,1.430709706716)
);
#125 = CARTESIAN_POINT('',(0.172136544512,0.319679020748,1.402164459338)
);
#126 = CARTESIAN_POINT('',(0.200448334632,0.302035774399,1.373155830873)
);
#127 = CARTESIAN_POINT('',(0.226437695816,0.281766865555,1.344083321287)
);
#128 = CARTESIAN_POINT('',(0.279332884761,0.230739726822,1.279282254978)
);
#129 = CARTESIAN_POINT('',(0.304801743626,0.198661016278,1.243754879507)
);
#130 = CARTESIAN_POINT('',(0.326018420676,0.163330492713,1.209405728983)
);
#131 = CARTESIAN_POINT('',(0.342594809544,0.125193445597,1.176903777127)
);
#132 = CARTESIAN_POINT('',(0.354077252185,8.47736586417E-002,
1.146936394776));
#133 = CARTESIAN_POINT('',(0.36,4.274969125762E-002,1.120200107827));
#134 = CARTESIAN_POINT('',(0.36,-5.551115123126E-017,1.097333079433));
#135 = TOROIDAL_SURFACE('',#136,5.115853658537,2.634146341463);
#136 = AXIS2_PLACEMENT_3D('',#137,#138,#139);
#137 = CARTESIAN_POINT('',(3.75,-1.134146341463,7.78));
#138 = DIRECTION('',(-1.09450004193E-033,1.,-7.66150029351E-033));
#139 = DIRECTION('',(1.,1.09450004193E-033,2.604066189454E-033));
#140 = ADVANCED_FACE('',(#141,#161),#237,.T.);
#141 = FACE_BOUND('',#142,.T.);
#142 = EDGE_LOOP('',(#143,#144,#153,#160));
#143 = ORIENTED_EDGE('',*,*,#31,.T.);
#144 = ORIENTED_EDGE('',*,*,#145,.T.);
#145 = EDGE_CURVE('',#24,#146,#148,.T.);
#146 = VERTEX_POINT('',#147);
#147 = CARTESIAN_POINT('',(8.865853658537,-3.9,7.78));
#148 = CIRCLE('',#149,2.634146341463);
#149 = AXIS2_PLACEMENT_3D('',#150,#151,#152);
#150 = CARTESIAN_POINT('',(8.865853658537,-1.265853658537,7.78));
#151 = DIRECTION('',(-2.604066189454E-033,-7.66150029351E-033,-1.));
#152 = DIRECTION('',(1.,1.09450004193E-033,-2.604066189454E-033));
#153 = ORIENTED_EDGE('',*,*,#154,.F.);
#154 = EDGE_CURVE('',#146,#146,#155,.T.);
#155 = CIRCLE('',#156,5.115853658537);
#156 = AXIS2_PLACEMENT_3D('',#157,#158,#159);
#157 = CARTESIAN_POINT('',(3.75,-3.9,7.78));
#158 = DIRECTION('',(1.09450004193E-033,-1.,7.66150029351E-033));
#159 = DIRECTION('',(1.,1.09450004193E-033,-2.604066189454E-033));
#160 = ORIENTED_EDGE('',*,*,#145,.F.);
#161 = FACE_BOUND('',#162,.T.);
#162 = EDGE_LOOP('',(#163,#184));
#163 = ORIENTED_EDGE('',*,*,#164,.T.);
#164 = EDGE_CURVE('',#165,#167,#169,.T.);
#165 = VERTEX_POINT('',#166);
#166 = CARTESIAN_POINT('',(7.86,-2.4,1.514376553667));
#167 = VERTEX_POINT('',#168);
#168 = CARTESIAN_POINT('',(7.490372241471,-2.040128764326,1.125527424929
));
#169 = B_SPLINE_CURVE_WITH_KNOTS('',7,(#170,#171,#172,#173,#174,#175,
#176,#177,#178,#179,#180,#181,#182,#183),.UNSPECIFIED.,.F.,.F.,(8,6,
8),(0.E+000,0.425222983906,1.),.UNSPECIFIED.);
#170 = CARTESIAN_POINT('',(7.86,-2.4,1.514376553667));
#171 = CARTESIAN_POINT('',(7.86,-2.365406508109,1.494640665519));
#172 = CARTESIAN_POINT('',(7.856121477435,-2.331065345572,1.473388581259
));
#173 = CARTESIAN_POINT('',(7.848467390215,-2.297414363836,1.450919037184
));
#174 = CARTESIAN_POINT('',(7.837168523943,-2.26486390259,1.427486177001)
);
#175 = CARTESIAN_POINT('',(7.822383484556,-2.233803757624,1.403313894759
));
#176 = CARTESIAN_POINT('',(7.804298690954,-2.204610148693,1.378610177796
));
#177 = CARTESIAN_POINT('',(7.754512286857,-2.141214089815,1.319749934873
));
#178 = CARTESIAN_POINT('',(7.720296324815,-2.108908331388,1.28536875654)
);
#179 = CARTESIAN_POINT('',(7.680988271102,-2.081564914261,1.250891302101
));
#180 = CARTESIAN_POINT('',(7.637215588173,-2.060126015466,1.216857296136
));
#181 = CARTESIAN_POINT('',(7.589904611847,-2.045585921958,1.183972108323
));
#182 = CARTESIAN_POINT('',(7.540401247635,-2.038790321174,1.153175760189
));
#183 = CARTESIAN_POINT('',(7.490372241471,-2.040128764326,1.125527424929
));
#184 = ORIENTED_EDGE('',*,*,#185,.T.);
#185 = EDGE_CURVE('',#167,#165,#186,.T.);
#186 = B_SPLINE_CURVE_WITH_KNOTS('',7,(#187,#188,#189,#190,#191,#192,
#193,#194,#195,#196,#197,#198,#199,#200,#201,#202,#203,#204,#205,
#206,#207,#208,#209,#210,#211,#212,#213,#214,#215,#216,#217,#218,
#219,#220,#221,#222,#223,#224,#225,#226,#227,#228,#229,#230,#231,
#232,#233,#234,#235,#236),.UNSPECIFIED.,.F.,.F.,(8,6,6,6,6,6,6,6,8),
(0.E+000,0.196610300082,0.30044383179,0.35303572524,0.505377089357,
0.6455810585,0.778922499357,0.900313607968,1.),.UNSPECIFIED.);
#187 = CARTESIAN_POINT('',(7.490372241471,-2.040128764326,1.125527424929
));
#188 = CARTESIAN_POINT('',(7.441428566856,-2.04143817123,1.09847889392)
);
#189 = CARTESIAN_POINT('',(7.392144685547,-2.050528024593,1.074532980433
));
#190 = CARTESIAN_POINT('',(7.344273255418,-2.067665560386,1.054748082213
));
#191 = CARTESIAN_POINT('',(7.299635829912,-2.092512277434,1.040079303166
));
#192 = CARTESIAN_POINT('',(7.259858334848,-2.124154303811,1.031297196569
));
#193 = CARTESIAN_POINT('',(7.226175407793,-2.161223603174,1.028806197405
));
#194 = CARTESIAN_POINT('',(7.18507203282,-2.223681807972,1.034467652105)
);
#195 = CARTESIAN_POINT('',(7.172757425776,-2.246330647979,1.038152566496
));
#196 = CARTESIAN_POINT('',(7.162435876121,-2.269804537295,1.043552722548
));
#197 = CARTESIAN_POINT('',(7.154157838838,-2.293859959731,1.050617725675
));
#198 = CARTESIAN_POINT('',(7.147929821716,-2.318263575463,1.059267282225
));
#199 = CARTESIAN_POINT('',(7.143724060257,-2.342801277454,1.06939919522)
);
#200 = CARTESIAN_POINT('',(7.140358370505,-2.379679753242,1.086722064834
));
#201 = CARTESIAN_POINT('',(7.139732536645,-2.392064504892,1.092897190914
));
#202 = CARTESIAN_POINT('',(7.139605898305,-2.404410638848,1.099408613778
));
#203 = CARTESIAN_POINT('',(7.139970522659,-2.416695354444,1.106240929599
));
#204 = CARTESIAN_POINT('',(7.140817446539,-2.4288974472,1.113378252874)
);
#205 = CARTESIAN_POINT('',(7.142137027575,-2.440997272556,1.120804442482
));
#206 = CARTESIAN_POINT('',(7.149081936999,-2.487677186438,1.150804458315
));
#207 = CARTESIAN_POINT('',(7.158125381838,-2.521357610151,1.175387322809
));
#208 = CARTESIAN_POINT('',(7.170804965023,-2.55359276597,1.201865664859)
);
#209 = CARTESIAN_POINT('',(7.186858819786,-2.584038096934,1.2298415769)
);
#210 = CARTESIAN_POINT('',(7.206039715959,-2.612405095497,1.258920131729
));
#211 = CARTESIAN_POINT('',(7.228128451007,-2.638429409348,1.288706850269
));
#212 = CARTESIAN_POINT('',(7.275753234426,-2.683369401063,1.346472524382
));
#213 = CARTESIAN_POINT('',(7.300855706079,-2.702668685876,1.374383841657
));
#214 = CARTESIAN_POINT('',(7.328092331049,-2.719532363785,1.402217019684
));
#215 = CARTESIAN_POINT('',(7.357310781927,-2.733713414484,1.429616013724
));
#216 = CARTESIAN_POINT('',(7.388312693405,-2.744915651369,1.456147794932
));
#217 = CARTESIAN_POINT('',(7.420818562827,-2.752815493466,1.481310465438
));
#218 = CARTESIAN_POINT('',(7.486406293548,-2.761184173352,1.526701524484
));
#219 = CARTESIAN_POINT('',(7.519423730328,-2.762003071539,1.547139791946
));
#220 = CARTESIAN_POINT('',(7.552955103212,-2.759257583737,1.565292062812
));
#221 = CARTESIAN_POINT('',(7.586386986527,-2.752781592633,1.580630330082
));
#222 = CARTESIAN_POINT('',(7.619063480869,-2.742581718843,1.592789281358
));
#223 = CARTESIAN_POINT('',(7.650343025169,-2.728850451332,1.601609008034
));
#224 = CARTESIAN_POINT('',(7.706375155847,-2.696578474507,1.612152038598
));
#225 = CARTESIAN_POINT('',(7.731480499844,-2.678568086354,1.614444127034
));
#226 = CARTESIAN_POINT('',(7.75459269349,-2.658183304866,1.614029078552)
);
#227 = CARTESIAN_POINT('',(7.775412735262,-2.635761749068,1.611063884177
));
#228 = CARTESIAN_POINT('',(7.793742920185,-2.611668969525,1.605773915286
));
#229 = CARTESIAN_POINT('',(7.809473803621,-2.586262176401,1.598405365688
));
#230 = CARTESIAN_POINT('',(7.833296523314,-2.538197442865,1.581629189229
));
#231 = CARTESIAN_POINT('',(7.842252117213,-2.515858485725,1.572820973612
));
#232 = CARTESIAN_POINT('',(7.849396059067,-2.493030678549,1.562898585937
));
#233 = CARTESIAN_POINT('',(7.854724870867,-2.469880903523,1.551984892457
));
#234 = CARTESIAN_POINT('',(7.858251514086,-2.446565076638,1.540193820261
));
#235 = CARTESIAN_POINT('',(7.86,-2.423227464309,1.527628024176));
#236 = CARTESIAN_POINT('',(7.86,-2.4,1.514376553667));
#237 = TOROIDAL_SURFACE('',#238,5.115853658537,2.634146341463);
#238 = AXIS2_PLACEMENT_3D('',#239,#240,#241);
#239 = CARTESIAN_POINT('',(3.75,-1.265853658537,7.78));
#240 = DIRECTION('',(1.09450004193E-033,-1.,7.66150029351E-033));
#241 = DIRECTION('',(1.,1.09450004193E-033,-2.604066189454E-033));
#242 = ADVANCED_FACE('',(#243),#246,.F.);
#243 = FACE_BOUND('',#244,.F.);
#244 = EDGE_LOOP('',(#245));
#245 = ORIENTED_EDGE('',*,*,#64,.T.);
#246 = PLANE('',#247);
#247 = AXIS2_PLACEMENT_3D('',#248,#249,#250);
#248 = CARTESIAN_POINT('',(3.75,1.5,7.78));
#249 = DIRECTION('',(1.09450004193E-033,-1.,7.66150029351E-033));
#250 = DIRECTION('',(0.E+000,-7.66150029351E-033,-1.));
#251 = ADVANCED_FACE('',(#252),#272,.T.);
#252 = FACE_BOUND('',#253,.T.);
#253 = EDGE_LOOP('',(#254,#255,#263,#270,#271));
#254 = ORIENTED_EDGE('',*,*,#95,.T.);
#255 = ORIENTED_EDGE('',*,*,#256,.T.);
#256 = EDGE_CURVE('',#75,#257,#259,.T.);
#257 = VERTEX_POINT('',#258);
#258 = CARTESIAN_POINT('',(0.36,0.E+000,-2.856));
#259 = LINE('',#260,#261);
#260 = CARTESIAN_POINT('',(0.36,0.E+000,7.78));
#261 = VECTOR('',#262,1.);
#262 = DIRECTION('',(-0.E+000,-0.E+000,-1.));
#263 = ORIENTED_EDGE('',*,*,#264,.T.);
#264 = EDGE_CURVE('',#257,#257,#265,.T.);
#265 = CIRCLE('',#266,0.36);
#266 = AXIS2_PLACEMENT_3D('',#267,#268,#269);
#267 = CARTESIAN_POINT('',(0.E+000,0.E+000,-2.856));
#268 = DIRECTION('',(0.E+000,0.E+000,1.));
#269 = DIRECTION('',(1.,0.E+000,0.E+000));
#270 = ORIENTED_EDGE('',*,*,#256,.F.);
#271 = ORIENTED_EDGE('',*,*,#74,.T.);
#272 = CYLINDRICAL_SURFACE('',#273,0.36);
#273 = AXIS2_PLACEMENT_3D('',#274,#275,#276);
#274 = CARTESIAN_POINT('',(0.E+000,0.E+000,7.78));
#275 = DIRECTION('',(0.E+000,0.E+000,1.));
#276 = DIRECTION('',(1.,0.E+000,0.E+000));
#277 = ADVANCED_FACE('',(#278),#281,.T.);
#278 = FACE_BOUND('',#279,.T.);
#279 = EDGE_LOOP('',(#280));
#280 = ORIENTED_EDGE('',*,*,#154,.T.);
#281 = PLANE('',#282);
#282 = AXIS2_PLACEMENT_3D('',#283,#284,#285);
#283 = CARTESIAN_POINT('',(3.75,-3.9,7.78));
#284 = DIRECTION('',(1.09450004193E-033,-1.,7.66150029351E-033));
#285 = DIRECTION('',(0.E+000,-7.66150029351E-033,-1.));
#286 = ADVANCED_FACE('',(#287),#307,.T.);
#287 = FACE_BOUND('',#288,.T.);
#288 = EDGE_LOOP('',(#289,#290,#298,#305,#306));
#289 = ORIENTED_EDGE('',*,*,#164,.F.);
#290 = ORIENTED_EDGE('',*,*,#291,.T.);
#291 = EDGE_CURVE('',#165,#292,#294,.T.);
#292 = VERTEX_POINT('',#293);
#293 = CARTESIAN_POINT('',(7.86,-2.4,-2.856));
#294 = LINE('',#295,#296);
#295 = CARTESIAN_POINT('',(7.86,-2.4,7.78));
#296 = VECTOR('',#297,1.);
#297 = DIRECTION('',(-0.E+000,-0.E+000,-1.));
#298 = ORIENTED_EDGE('',*,*,#299,.T.);
#299 = EDGE_CURVE('',#292,#292,#300,.T.);
#300 = CIRCLE('',#301,0.36);
#301 = AXIS2_PLACEMENT_3D('',#302,#303,#304);
#302 = CARTESIAN_POINT('',(7.5,-2.4,-2.856));
#303 = DIRECTION('',(0.E+000,0.E+000,1.));
#304 = DIRECTION('',(1.,0.E+000,0.E+000));
#305 = ORIENTED_EDGE('',*,*,#291,.F.);
#306 = ORIENTED_EDGE('',*,*,#185,.F.);
#307 = CYLINDRICAL_SURFACE('',#308,0.36);
#308 = AXIS2_PLACEMENT_3D('',#309,#310,#311);
#309 = CARTESIAN_POINT('',(7.5,-2.4,7.78));
#310 = DIRECTION('',(0.E+000,0.E+000,1.));
#311 = DIRECTION('',(1.,0.E+000,0.E+000));
#312 = ADVANCED_FACE('',(#313),#333,.T.);
#313 = FACE_BOUND('',#314,.F.);
#314 = EDGE_LOOP('',(#315,#324,#325,#326));
#315 = ORIENTED_EDGE('',*,*,#316,.F.);
#316 = EDGE_CURVE('',#257,#317,#319,.T.);
#317 = VERTEX_POINT('',#318);
#318 = CARTESIAN_POINT('',(0.216,0.E+000,-3.));
#319 = CIRCLE('',#320,0.144);
#320 = AXIS2_PLACEMENT_3D('',#321,#322,#323);
#321 = CARTESIAN_POINT('',(0.216,0.E+000,-2.856));
#322 = DIRECTION('',(-0.E+000,1.,0.E+000));
#323 = DIRECTION('',(1.,0.E+000,0.E+000));
#324 = ORIENTED_EDGE('',*,*,#264,.T.);
#325 = ORIENTED_EDGE('',*,*,#316,.T.);
#326 = ORIENTED_EDGE('',*,*,#327,.F.);
#327 = EDGE_CURVE('',#317,#317,#328,.T.);
#328 = CIRCLE('',#329,0.216);
#329 = AXIS2_PLACEMENT_3D('',#330,#331,#332);
#330 = CARTESIAN_POINT('',(0.E+000,0.E+000,-3.));
#331 = DIRECTION('',(0.E+000,0.E+000,1.));
#332 = DIRECTION('',(1.,0.E+000,0.E+000));
#333 = TOROIDAL_SURFACE('',#334,0.216,0.144);
#334 = AXIS2_PLACEMENT_3D('',#335,#336,#337);
#335 = CARTESIAN_POINT('',(0.E+000,0.E+000,-2.856));
#336 = DIRECTION('',(-0.E+000,-0.E+000,-1.));
#337 = DIRECTION('',(1.,0.E+000,0.E+000));
#338 = ADVANCED_FACE('',(#339),#359,.T.);
#339 = FACE_BOUND('',#340,.F.);
#340 = EDGE_LOOP('',(#341,#350,#351,#352));
#341 = ORIENTED_EDGE('',*,*,#342,.F.);
#342 = EDGE_CURVE('',#292,#343,#345,.T.);
#343 = VERTEX_POINT('',#344);
#344 = CARTESIAN_POINT('',(7.716,-2.4,-3.));
#345 = CIRCLE('',#346,0.144);
#346 = AXIS2_PLACEMENT_3D('',#347,#348,#349);
#347 = CARTESIAN_POINT('',(7.716,-2.4,-2.856));
#348 = DIRECTION('',(-0.E+000,1.,0.E+000));
#349 = DIRECTION('',(1.,0.E+000,0.E+000));
#350 = ORIENTED_EDGE('',*,*,#299,.T.);
#351 = ORIENTED_EDGE('',*,*,#342,.T.);
#352 = ORIENTED_EDGE('',*,*,#353,.F.);
#353 = EDGE_CURVE('',#343,#343,#354,.T.);
#354 = CIRCLE('',#355,0.216);
#355 = AXIS2_PLACEMENT_3D('',#356,#357,#358);
#356 = CARTESIAN_POINT('',(7.5,-2.4,-3.));
#357 = DIRECTION('',(0.E+000,0.E+000,1.));
#358 = DIRECTION('',(1.,0.E+000,0.E+000));
#359 = TOROIDAL_SURFACE('',#360,0.216,0.144);
#360 = AXIS2_PLACEMENT_3D('',#361,#362,#363);
#361 = CARTESIAN_POINT('',(7.5,-2.4,-2.856));
#362 = DIRECTION('',(-0.E+000,-0.E+000,-1.));
#363 = DIRECTION('',(1.,0.E+000,0.E+000));
#364 = ADVANCED_FACE('',(#365),#368,.F.);
#365 = FACE_BOUND('',#366,.F.);
#366 = EDGE_LOOP('',(#367));
#367 = ORIENTED_EDGE('',*,*,#327,.T.);
#368 = PLANE('',#369);
#369 = AXIS2_PLACEMENT_3D('',#370,#371,#372);
#370 = CARTESIAN_POINT('',(-1.483767504926E-017,1.497958850874E-017,-3.)
);
#371 = DIRECTION('',(0.E+000,0.E+000,1.));
#372 = DIRECTION('',(1.,0.E+000,0.E+000));
#373 = ADVANCED_FACE('',(#374),#377,.F.);
#374 = FACE_BOUND('',#375,.F.);
#375 = EDGE_LOOP('',(#376));
#376 = ORIENTED_EDGE('',*,*,#353,.T.);
#377 = PLANE('',#378);
#378 = AXIS2_PLACEMENT_3D('',#379,#380,#381);
#379 = CARTESIAN_POINT('',(7.5,-2.4,-3.));
#380 = DIRECTION('',(0.E+000,0.E+000,1.));
#381 = DIRECTION('',(1.,0.E+000,0.E+000));
#382 = ( GEOMETRIC_REPRESENTATION_CONTEXT(3)
GLOBAL_UNCERTAINTY_ASSIGNED_CONTEXT((#386)) GLOBAL_UNIT_ASSIGNED_CONTEXT
((#383,#384,#385)) REPRESENTATION_CONTEXT('Context #1',
'3D Context with UNIT and UNCERTAINTY') );
#383 = ( LENGTH_UNIT() NAMED_UNIT(*) SI_UNIT(.MILLI.,.METRE.) );
#384 = ( NAMED_UNIT(*) PLANE_ANGLE_UNIT() SI_UNIT($,.RADIAN.) );
#385 = ( NAMED_UNIT(*) SI_UNIT($,.STERADIAN.) SOLID_ANGLE_UNIT() );
#386 = UNCERTAINTY_MEASURE_WITH_UNIT(LENGTH_MEASURE(1.E-007),#383,
'distance_accuracy_value','confusion accuracy');
#387 = PRODUCT_RELATED_PRODUCT_CATEGORY('part',$,(#7));
#388 = MECHANICAL_DESIGN_GEOMETRIC_PRESENTATION_REPRESENTATION('',(#389,
#397,#404,#411,#418,#426,#433,#440,#447,#454,#461),#382);
#389 = STYLED_ITEM('color',(#390),#17);
#390 = PRESENTATION_STYLE_ASSIGNMENT((#391));
#391 = SURFACE_STYLE_USAGE(.BOTH.,#392);
#392 = SURFACE_SIDE_STYLE('',(#393));
#393 = SURFACE_STYLE_FILL_AREA(#394);
#394 = FILL_AREA_STYLE('',(#395));
#395 = FILL_AREA_STYLE_COLOUR('',#396);
#396 = COLOUR_RGB('',0.136999994516,0.402000010014,0.726999998093);
#397 = STYLED_ITEM('color',(#398),#50);
#398 = PRESENTATION_STYLE_ASSIGNMENT((#399));
#399 = SURFACE_STYLE_USAGE(.BOTH.,#400);
#400 = SURFACE_SIDE_STYLE('',(#401));
#401 = SURFACE_STYLE_FILL_AREA(#402);
#402 = FILL_AREA_STYLE('',(#403));
#403 = FILL_AREA_STYLE_COLOUR('',#396);
#404 = STYLED_ITEM('color',(#405),#140);
#405 = PRESENTATION_STYLE_ASSIGNMENT((#406));
#406 = SURFACE_STYLE_USAGE(.BOTH.,#407);
#407 = SURFACE_SIDE_STYLE('',(#408));
#408 = SURFACE_STYLE_FILL_AREA(#409);
#409 = FILL_AREA_STYLE('',(#410));
#410 = FILL_AREA_STYLE_COLOUR('',#396);
#411 = STYLED_ITEM('color',(#412),#242);
#412 = PRESENTATION_STYLE_ASSIGNMENT((#413));
#413 = SURFACE_STYLE_USAGE(.BOTH.,#414);
#414 = SURFACE_SIDE_STYLE('',(#415));
#415 = SURFACE_STYLE_FILL_AREA(#416);
#416 = FILL_AREA_STYLE('',(#417));
#417 = FILL_AREA_STYLE_COLOUR('',#396);
#418 = STYLED_ITEM('color',(#419),#251);
#419 = PRESENTATION_STYLE_ASSIGNMENT((#420));
#420 = SURFACE_STYLE_USAGE(.BOTH.,#421);
#421 = SURFACE_SIDE_STYLE('',(#422));
#422 = SURFACE_STYLE_FILL_AREA(#423);
#423 = FILL_AREA_STYLE('',(#424));
#424 = FILL_AREA_STYLE_COLOUR('',#425);
#425 = COLOUR_RGB('',0.824000000954,0.819999992847,0.78100001812);
#426 = STYLED_ITEM('color',(#427),#277);
#427 = PRESENTATION_STYLE_ASSIGNMENT((#428));
#428 = SURFACE_STYLE_USAGE(.BOTH.,#429);
#429 = SURFACE_SIDE_STYLE('',(#430));
#430 = SURFACE_STYLE_FILL_AREA(#431);
#431 = FILL_AREA_STYLE('',(#432));
#432 = FILL_AREA_STYLE_COLOUR('',#396);
#433 = STYLED_ITEM('color',(#434),#286);
#434 = PRESENTATION_STYLE_ASSIGNMENT((#435));
#435 = SURFACE_STYLE_USAGE(.BOTH.,#436);
#436 = SURFACE_SIDE_STYLE('',(#437));
#437 = SURFACE_STYLE_FILL_AREA(#438);
#438 = FILL_AREA_STYLE('',(#439));
#439 = FILL_AREA_STYLE_COLOUR('',#425);
#440 = STYLED_ITEM('color',(#441),#312);
#441 = PRESENTATION_STYLE_ASSIGNMENT((#442));
#442 = SURFACE_STYLE_USAGE(.BOTH.,#443);
#443 = SURFACE_SIDE_STYLE('',(#444));
#444 = SURFACE_STYLE_FILL_AREA(#445);
#445 = FILL_AREA_STYLE('',(#446));
#446 = FILL_AREA_STYLE_COLOUR('',#425);
#447 = STYLED_ITEM('color',(#448),#338);
#448 = PRESENTATION_STYLE_ASSIGNMENT((#449));
#449 = SURFACE_STYLE_USAGE(.BOTH.,#450);
#450 = SURFACE_SIDE_STYLE('',(#451));
#451 = SURFACE_STYLE_FILL_AREA(#452);
#452 = FILL_AREA_STYLE('',(#453));
#453 = FILL_AREA_STYLE_COLOUR('',#425);
#454 = STYLED_ITEM('color',(#455),#364);
#455 = PRESENTATION_STYLE_ASSIGNMENT((#456));
#456 = SURFACE_STYLE_USAGE(.BOTH.,#457);
#457 = SURFACE_SIDE_STYLE('',(#458));
#458 = SURFACE_STYLE_FILL_AREA(#459);
#459 = FILL_AREA_STYLE('',(#460));
#460 = FILL_AREA_STYLE_COLOUR('',#425);
#461 = STYLED_ITEM('color',(#462),#373);
#462 = PRESENTATION_STYLE_ASSIGNMENT((#463));
#463 = SURFACE_STYLE_USAGE(.BOTH.,#464);
#464 = SURFACE_SIDE_STYLE('',(#465));
#465 = SURFACE_STYLE_FILL_AREA(#466);
#466 = FILL_AREA_STYLE('',(#467));
#467 = FILL_AREA_STYLE_COLOUR('',#425);
ENDSEC;
END-ISO-10303-21;
