ISO-10303-21;
HEADER;
FILE_DESCRIPTION(('FreeCAD Model'),'2;1');
FILE_NAME('/home/adrien/Battery_CR1225.step','2017-12-07T22:25:40',(
    'kicad StepUp'),('ksu MCAD'),'Open CASCADE STEP processor 6.7',
  'FreeCAD','Unknown');
FILE_SCHEMA(('AUTOMOTIVE_DESIGN { 1 0 10303 214 1 1 1 1 }'));
ENDSEC;
DATA;
#1 = APPLICATION_PROTOCOL_DEFINITION('international standard',
  'automotive_design',2000,#2);
#2 = APPLICATION_CONTEXT(
  'core data for automotive mechanical design processes');
#3 = SHAPE_DEFINITION_REPRESENTATION(#4,#10);
#4 = PRODUCT_DEFINITION_SHAPE('','',#5);
#5 = PRODUCT_DEFINITION('design','',#6,#9);
#6 = PRODUCT_DEFINITION_FORMATION('','',#7);
#7 = PRODUCT('Battery_CR1225','Battery_CR1225','',(#8));
#8 = PRODUCT_CONTEXT('',#2,'mechanical');
#9 = PRODUCT_DEFINITION_CONTEXT('part definition',#2,'design');
#10 = ADVANCED_BREP_SHAPE_REPRESENTATION('',(#11,#15),#188);
#11 = AXIS2_PLACEMENT_3D('',#12,#13,#14);
#12 = CARTESIAN_POINT('',(0.,0.,0.));
#13 = DIRECTION('',(0.,0.,1.));
#14 = DIRECTION('',(1.,0.,-0.));
#15 = MANIFOLD_SOLID_BREP('',#16);
#16 = CLOSED_SHELL('',(#17,#50,#70,#95,#120,#145,#154,#171));
#17 = ADVANCED_FACE('',(#18),#45,.T.);
#18 = FACE_BOUND('',#19,.T.);
#19 = EDGE_LOOP('',(#20,#29,#37,#44));
#20 = ORIENTED_EDGE('',*,*,#21,.T.);
#21 = EDGE_CURVE('',#22,#22,#24,.T.);
#22 = VERTEX_POINT('',#23);
#23 = CARTESIAN_POINT('',(4.5,-5.107025913276E-16,0.2));
#24 = CIRCLE('',#25,4.5);
#25 = AXIS2_PLACEMENT_3D('',#26,#27,#28);
#26 = CARTESIAN_POINT('',(0.,-5.107025913276E-16,0.2));
#27 = DIRECTION('',(0.,-2.22044604925E-16,-1.));
#28 = DIRECTION('',(1.,0.,0.));
#29 = ORIENTED_EDGE('',*,*,#30,.T.);
#30 = EDGE_CURVE('',#22,#31,#33,.T.);
#31 = VERTEX_POINT('',#32);
#32 = CARTESIAN_POINT('',(4.441421356237,-5.421044405012E-16,
    5.857864376269E-02));
#33 = LINE('',#34,#35);
#34 = CARTESIAN_POINT('',(4.5,-5.107025913276E-16,0.2));
#35 = VECTOR('',#36,1.);
#36 = DIRECTION('',(-0.382683432365,-2.051424657948E-16,-0.923879532511)
  );
#37 = ORIENTED_EDGE('',*,*,#38,.F.);
#38 = EDGE_CURVE('',#31,#31,#39,.T.);
#39 = CIRCLE('',#40,4.441421356237);
#40 = AXIS2_PLACEMENT_3D('',#41,#42,#43);
#41 = CARTESIAN_POINT('',(0.,-5.421044405012E-16,5.857864376269E-02));
#42 = DIRECTION('',(0.,-2.22044604925E-16,-1.));
#43 = DIRECTION('',(1.,0.,0.));
#44 = ORIENTED_EDGE('',*,*,#30,.F.);
#45 = CONICAL_SURFACE('',#46,4.5,0.392699081699);
#46 = AXIS2_PLACEMENT_3D('',#47,#48,#49);
#47 = CARTESIAN_POINT('',(0.,-5.107025913276E-16,0.2));
#48 = DIRECTION('',(0.,2.22044604925E-16,1.));
#49 = DIRECTION('',(1.,0.,0.));
#50 = ADVANCED_FACE('',(#51,#54),#65,.T.);
#51 = FACE_BOUND('',#52,.F.);
#52 = EDGE_LOOP('',(#53));
#53 = ORIENTED_EDGE('',*,*,#21,.T.);
#54 = FACE_BOUND('',#55,.F.);
#55 = EDGE_LOOP('',(#56));
#56 = ORIENTED_EDGE('',*,*,#57,.F.);
#57 = EDGE_CURVE('',#58,#58,#60,.T.);
#58 = VERTEX_POINT('',#59);
#59 = CARTESIAN_POINT('',(5.1,-5.107025913276E-16,0.2));
#60 = CIRCLE('',#61,5.1);
#61 = AXIS2_PLACEMENT_3D('',#62,#63,#64);
#62 = CARTESIAN_POINT('',(0.,-5.107025913276E-16,0.2));
#63 = DIRECTION('',(0.,-2.22044604925E-16,-1.));
#64 = DIRECTION('',(1.,0.,0.));
#65 = PLANE('',#66);
#66 = AXIS2_PLACEMENT_3D('',#67,#68,#69);
#67 = CARTESIAN_POINT('',(0.,-5.107025913276E-16,0.2));
#68 = DIRECTION('',(0.,-2.22044604925E-16,-1.));
#69 = DIRECTION('',(1.,0.,0.));
#70 = ADVANCED_FACE('',(#71),#90,.T.);
#71 = FACE_BOUND('',#72,.T.);
#72 = EDGE_LOOP('',(#73,#82,#88,#89));
#73 = ORIENTED_EDGE('',*,*,#74,.T.);
#74 = EDGE_CURVE('',#75,#75,#77,.T.);
#75 = VERTEX_POINT('',#76);
#76 = CARTESIAN_POINT('',(5.913172798365,-4.359119284124E-16,
    0.536827201635));
#77 = CIRCLE('',#78,5.913172798365);
#78 = AXIS2_PLACEMENT_3D('',#79,#80,#81);
#79 = CARTESIAN_POINT('',(0.,-4.359119284124E-16,0.536827201635));
#80 = DIRECTION('',(0.,-2.22044604925E-16,-1.));
#81 = DIRECTION('',(1.,0.,0.));
#82 = ORIENTED_EDGE('',*,*,#83,.T.);
#83 = EDGE_CURVE('',#75,#58,#84,.T.);
#84 = LINE('',#85,#86);
#85 = CARTESIAN_POINT('',(5.913172798365,-4.359119284124E-16,
    0.536827201635));
#86 = VECTOR('',#87,1.);
#87 = DIRECTION('',(-0.923879532511,-8.497279155086E-17,-0.382683432365)
  );
#88 = ORIENTED_EDGE('',*,*,#57,.F.);
#89 = ORIENTED_EDGE('',*,*,#83,.F.);
#90 = CONICAL_SURFACE('',#91,5.913172798365,1.178097245096);
#91 = AXIS2_PLACEMENT_3D('',#92,#93,#94);
#92 = CARTESIAN_POINT('',(0.,-4.359119284124E-16,0.536827201635));
#93 = DIRECTION('',(0.,2.22044604925E-16,1.));
#94 = DIRECTION('',(1.,0.,0.));
#95 = ADVANCED_FACE('',(#96),#115,.T.);
#96 = FACE_BOUND('',#97,.T.);
#97 = EDGE_LOOP('',(#98,#107,#113,#114));
#98 = ORIENTED_EDGE('',*,*,#99,.T.);
#99 = EDGE_CURVE('',#100,#100,#102,.T.);
#100 = VERTEX_POINT('',#101);
#101 = CARTESIAN_POINT('',(6.25,-2.553512956638E-16,1.35));
#102 = CIRCLE('',#103,6.25);
#103 = AXIS2_PLACEMENT_3D('',#104,#105,#106);
#104 = CARTESIAN_POINT('',(0.,-2.553512956638E-16,1.35));
#105 = DIRECTION('',(0.,-2.22044604925E-16,-1.));
#106 = DIRECTION('',(1.,0.,0.));
#107 = ORIENTED_EDGE('',*,*,#108,.T.);
#108 = EDGE_CURVE('',#100,#75,#109,.T.);
#109 = LINE('',#110,#111);
#110 = CARTESIAN_POINT('',(6.25,-2.553512956638E-16,1.35));
#111 = VECTOR('',#112,1.);
#112 = DIRECTION('',(-0.382683432365,-2.051424657948E-16,-0.923879532511
    ));
#113 = ORIENTED_EDGE('',*,*,#74,.F.);
#114 = ORIENTED_EDGE('',*,*,#108,.F.);
#115 = CONICAL_SURFACE('',#116,6.25,0.392699081699);
#116 = AXIS2_PLACEMENT_3D('',#117,#118,#119);
#117 = CARTESIAN_POINT('',(0.,-2.553512956638E-16,1.35));
#118 = DIRECTION('',(0.,2.22044604925E-16,1.));
#119 = DIRECTION('',(1.,0.,0.));
#120 = ADVANCED_FACE('',(#121),#140,.T.);
#121 = FACE_BOUND('',#122,.T.);
#122 = EDGE_LOOP('',(#123,#132,#138,#139));
#123 = ORIENTED_EDGE('',*,*,#124,.T.);
#124 = EDGE_CURVE('',#125,#125,#127,.T.);
#125 = VERTEX_POINT('',#126);
#126 = CARTESIAN_POINT('',(6.25,0.,2.5));
#127 = CIRCLE('',#128,6.25);
#128 = AXIS2_PLACEMENT_3D('',#129,#130,#131);
#129 = CARTESIAN_POINT('',(0.,0.,2.5));
#130 = DIRECTION('',(0.,-2.22044604925E-16,-1.));
#131 = DIRECTION('',(1.,0.,0.));
#132 = ORIENTED_EDGE('',*,*,#133,.T.);
#133 = EDGE_CURVE('',#125,#100,#134,.T.);
#134 = LINE('',#135,#136);
#135 = CARTESIAN_POINT('',(6.25,0.,2.5));
#136 = VECTOR('',#137,1.);
#137 = DIRECTION('',(0.,-2.22044604925E-16,-1.));
#138 = ORIENTED_EDGE('',*,*,#99,.F.);
#139 = ORIENTED_EDGE('',*,*,#133,.F.);
#140 = CYLINDRICAL_SURFACE('',#141,6.25);
#141 = AXIS2_PLACEMENT_3D('',#142,#143,#144);
#142 = CARTESIAN_POINT('',(0.,0.,2.5));
#143 = DIRECTION('',(0.,-2.22044604925E-16,-1.));
#144 = DIRECTION('',(1.,0.,0.));
#145 = ADVANCED_FACE('',(#146),#149,.F.);
#146 = FACE_BOUND('',#147,.T.);
#147 = EDGE_LOOP('',(#148));
#148 = ORIENTED_EDGE('',*,*,#124,.F.);
#149 = PLANE('',#150);
#150 = AXIS2_PLACEMENT_3D('',#151,#152,#153);
#151 = CARTESIAN_POINT('',(0.,0.,2.5));
#152 = DIRECTION('',(0.,-2.22044604925E-16,-1.));
#153 = DIRECTION('',(1.,0.,0.));
#154 = ADVANCED_FACE('',(#155),#166,.T.);
#155 = FACE_BOUND('',#156,.F.);
#156 = EDGE_LOOP('',(#157));
#157 = ORIENTED_EDGE('',*,*,#158,.F.);
#158 = EDGE_CURVE('',#159,#159,#161,.T.);
#159 = VERTEX_POINT('',#160);
#160 = CARTESIAN_POINT('',(4.3,-5.551115123126E-16,0.));
#161 = CIRCLE('',#162,4.3);
#162 = AXIS2_PLACEMENT_3D('',#163,#164,#165);
#163 = CARTESIAN_POINT('',(0.,-5.551115123126E-16,0.));
#164 = DIRECTION('',(0.,-2.22044604925E-16,-1.));
#165 = DIRECTION('',(1.,0.,0.));
#166 = PLANE('',#167);
#167 = AXIS2_PLACEMENT_3D('',#168,#169,#170);
#168 = CARTESIAN_POINT('',(0.,-5.551115123126E-16,0.));
#169 = DIRECTION('',(0.,-2.22044604925E-16,-1.));
#170 = DIRECTION('',(1.,0.,0.));
#171 = ADVANCED_FACE('',(#172),#183,.T.);
#172 = FACE_BOUND('',#173,.T.);
#173 = EDGE_LOOP('',(#174,#175,#181,#182));
#174 = ORIENTED_EDGE('',*,*,#38,.T.);
#175 = ORIENTED_EDGE('',*,*,#176,.T.);
#176 = EDGE_CURVE('',#31,#159,#177,.T.);
#177 = LINE('',#178,#179);
#178 = CARTESIAN_POINT('',(4.441421356237,-5.421044405012E-16,
    5.857864376269E-02));
#179 = VECTOR('',#180,1.);
#180 = DIRECTION('',(-0.923879532511,-8.497279155086E-17,-0.382683432365
    ));
#181 = ORIENTED_EDGE('',*,*,#158,.F.);
#182 = ORIENTED_EDGE('',*,*,#176,.F.);
#183 = CONICAL_SURFACE('',#184,4.441421356237,1.178097245096);
#184 = AXIS2_PLACEMENT_3D('',#185,#186,#187);
#185 = CARTESIAN_POINT('',(0.,-5.421044405012E-16,5.857864376269E-02));
#186 = DIRECTION('',(0.,2.22044604925E-16,1.));
#187 = DIRECTION('',(1.,0.,0.));
#188 = ( GEOMETRIC_REPRESENTATION_CONTEXT(3) 
GLOBAL_UNCERTAINTY_ASSIGNED_CONTEXT((#192)) GLOBAL_UNIT_ASSIGNED_CONTEXT
((#189,#190,#191)) REPRESENTATION_CONTEXT('Context #1',
  '3D Context with UNIT and UNCERTAINTY') );
#189 = ( LENGTH_UNIT() NAMED_UNIT(*) SI_UNIT(.MILLI.,.METRE.) );
#190 = ( NAMED_UNIT(*) PLANE_ANGLE_UNIT() SI_UNIT($,.RADIAN.) );
#191 = ( NAMED_UNIT(*) SI_UNIT($,.STERADIAN.) SOLID_ANGLE_UNIT() );
#192 = UNCERTAINTY_MEASURE_WITH_UNIT(LENGTH_MEASURE(1.E-07),#189,
  'distance_accuracy_value','confusion accuracy');
#193 = PRODUCT_RELATED_PRODUCT_CATEGORY('part',$,(#7));
#194 = MECHANICAL_DESIGN_GEOMETRIC_PRESENTATION_REPRESENTATION('',(#195)
  ,#188);
#195 = STYLED_ITEM('color',(#196),#15);
#196 = PRESENTATION_STYLE_ASSIGNMENT((#197,#203));
#197 = SURFACE_STYLE_USAGE(.BOTH.,#198);
#198 = SURFACE_SIDE_STYLE('',(#199));
#199 = SURFACE_STYLE_FILL_AREA(#200);
#200 = FILL_AREA_STYLE('',(#201));
#201 = FILL_AREA_STYLE_COLOUR('',#202);
#202 = COLOUR_RGB('',0.298000007868,0.298000007868,0.298000007868);
#203 = CURVE_STYLE('',#204,POSITIVE_LENGTH_MEASURE(0.1),#202);
#204 = DRAUGHTING_PRE_DEFINED_CURVE_FONT('continuous');
ENDSEC;
END-ISO-10303-21;
