ISO-10303-21;
HEADER;
FILE_DESCRIPTION(('FreeCAD Model'),'2;1');
FILE_NAME(
'D:/KiCAD/packages3D-source/Package_TO_SOT_THT.3dshapes\\TO-92S-2.step',
  '2017-11-28T22:23:10',('kicad StepUp'),('ksu MCAD'),
  'Open CASCADE STEP processor 6.8','FreeCAD','Unknown');
FILE_SCHEMA(('AUTOMOTIVE_DESIGN_CC2 { 1 2 10303 214 -1 1 5 4 }'));
ENDSEC;
DATA;
#1 = APPLICATION_PROTOCOL_DEFINITION('committee draft',
  'automotive_design',1997,#2);
#2 = APPLICATION_CONTEXT(
  'core data for automotive mechanical design processes');
#3 = SHAPE_DEFINITION_REPRESENTATION(#4,#10);
#4 = PRODUCT_DEFINITION_SHAPE('','',#5);
#5 = PRODUCT_DEFINITION('design','',#6,#9);
#6 = PRODUCT_DEFINITION_FORMATION('','',#7);
#7 = PRODUCT('TO-92S-2','TO-92S-2','',(#8));
#8 = MECHANICAL_CONTEXT('',#2,'mechanical');
#9 = PRODUCT_DEFINITION_CONTEXT('part definition',#2,'design');
#10 = ADVANCED_BREP_SHAPE_REPRESENTATION('',(#11,#15),#515);
#11 = AXIS2_PLACEMENT_3D('',#12,#13,#14);
#12 = CARTESIAN_POINT('',(0.E+000,0.E+000,0.E+000));
#13 = DIRECTION('',(0.E+000,0.E+000,1.));
#14 = DIRECTION('',(1.,0.E+000,-0.E+000));
#15 = MANIFOLD_SOLID_BREP('',#16);
#16 = CLOSED_SHELL('',(#17,#57,#88,#119,#220,#253,#270,#287,#299,#330,
    #354,#378,#395,#426,#450,#474,#491,#503));
#17 = ADVANCED_FACE('',(#18),#52,.T.);
#18 = FACE_BOUND('',#19,.T.);
#19 = EDGE_LOOP('',(#20,#30,#38,#46));
#20 = ORIENTED_EDGE('',*,*,#21,.T.);
#21 = EDGE_CURVE('',#22,#24,#26,.T.);
#22 = VERTEX_POINT('',#23);
#23 = CARTESIAN_POINT('',(-0.16,1.54,2.5));
#24 = VERTEX_POINT('',#25);
#25 = CARTESIAN_POINT('',(-0.16,1.54,6.2));
#26 = LINE('',#27,#28);
#27 = CARTESIAN_POINT('',(-0.16,1.54,2.5));
#28 = VECTOR('',#29,1.);
#29 = DIRECTION('',(0.E+000,0.E+000,1.));
#30 = ORIENTED_EDGE('',*,*,#31,.T.);
#31 = EDGE_CURVE('',#24,#32,#34,.T.);
#32 = VERTEX_POINT('',#33);
#33 = CARTESIAN_POINT('',(2.7,1.54,6.2));
#34 = LINE('',#35,#36);
#35 = CARTESIAN_POINT('',(-0.16,1.54,6.2));
#36 = VECTOR('',#37,1.);
#37 = DIRECTION('',(1.,0.E+000,0.E+000));
#38 = ORIENTED_EDGE('',*,*,#39,.F.);
#39 = EDGE_CURVE('',#40,#32,#42,.T.);
#40 = VERTEX_POINT('',#41);
#41 = CARTESIAN_POINT('',(2.7,1.54,2.5));
#42 = LINE('',#43,#44);
#43 = CARTESIAN_POINT('',(2.7,1.54,2.5));
#44 = VECTOR('',#45,1.);
#45 = DIRECTION('',(0.E+000,0.E+000,1.));
#46 = ORIENTED_EDGE('',*,*,#47,.F.);
#47 = EDGE_CURVE('',#22,#40,#48,.T.);
#48 = LINE('',#49,#50);
#49 = CARTESIAN_POINT('',(-0.16,1.54,2.5));
#50 = VECTOR('',#51,1.);
#51 = DIRECTION('',(1.,0.E+000,0.E+000));
#52 = PLANE('',#53);
#53 = AXIS2_PLACEMENT_3D('',#54,#55,#56);
#54 = CARTESIAN_POINT('',(-0.16,1.54,2.5));
#55 = DIRECTION('',(0.E+000,1.,0.E+000));
#56 = DIRECTION('',(1.,0.E+000,0.E+000));
#57 = ADVANCED_FACE('',(#58),#83,.T.);
#58 = FACE_BOUND('',#59,.T.);
#59 = EDGE_LOOP('',(#60,#70,#76,#77));
#60 = ORIENTED_EDGE('',*,*,#61,.T.);
#61 = EDGE_CURVE('',#62,#64,#66,.T.);
#62 = VERTEX_POINT('',#63);
#63 = CARTESIAN_POINT('',(-0.73,0.E+000,2.5));
#64 = VERTEX_POINT('',#65);
#65 = CARTESIAN_POINT('',(-0.73,0.E+000,6.2));
#66 = LINE('',#67,#68);
#67 = CARTESIAN_POINT('',(-0.73,0.E+000,2.5));
#68 = VECTOR('',#69,1.);
#69 = DIRECTION('',(0.E+000,0.E+000,1.));
#70 = ORIENTED_EDGE('',*,*,#71,.T.);
#71 = EDGE_CURVE('',#64,#24,#72,.T.);
#72 = LINE('',#73,#74);
#73 = CARTESIAN_POINT('',(-0.73,0.E+000,6.2));
#74 = VECTOR('',#75,1.);
#75 = DIRECTION('',(0.347116008643,0.93782219879,0.E+000));
#76 = ORIENTED_EDGE('',*,*,#21,.F.);
#77 = ORIENTED_EDGE('',*,*,#78,.F.);
#78 = EDGE_CURVE('',#62,#22,#79,.T.);
#79 = LINE('',#80,#81);
#80 = CARTESIAN_POINT('',(-0.73,0.E+000,2.5));
#81 = VECTOR('',#82,1.);
#82 = DIRECTION('',(0.347116008643,0.93782219879,0.E+000));
#83 = PLANE('',#84);
#84 = AXIS2_PLACEMENT_3D('',#85,#86,#87);
#85 = CARTESIAN_POINT('',(-0.73,0.E+000,2.5));
#86 = DIRECTION('',(-0.93782219879,0.347116008643,0.E+000));
#87 = DIRECTION('',(0.347116008643,0.93782219879,0.E+000));
#88 = ADVANCED_FACE('',(#89),#114,.T.);
#89 = FACE_BOUND('',#90,.T.);
#90 = EDGE_LOOP('',(#91,#92,#100,#108));
#91 = ORIENTED_EDGE('',*,*,#39,.T.);
#92 = ORIENTED_EDGE('',*,*,#93,.T.);
#93 = EDGE_CURVE('',#32,#94,#96,.T.);
#94 = VERTEX_POINT('',#95);
#95 = CARTESIAN_POINT('',(3.27,0.E+000,6.2));
#96 = LINE('',#97,#98);
#97 = CARTESIAN_POINT('',(2.7,1.54,6.2));
#98 = VECTOR('',#99,1.);
#99 = DIRECTION('',(0.347116008643,-0.93782219879,0.E+000));
#100 = ORIENTED_EDGE('',*,*,#101,.F.);
#101 = EDGE_CURVE('',#102,#94,#104,.T.);
#102 = VERTEX_POINT('',#103);
#103 = CARTESIAN_POINT('',(3.27,0.E+000,2.5));
#104 = LINE('',#105,#106);
#105 = CARTESIAN_POINT('',(3.27,0.E+000,2.5));
#106 = VECTOR('',#107,1.);
#107 = DIRECTION('',(0.E+000,0.E+000,1.));
#108 = ORIENTED_EDGE('',*,*,#109,.F.);
#109 = EDGE_CURVE('',#40,#102,#110,.T.);
#110 = LINE('',#111,#112);
#111 = CARTESIAN_POINT('',(2.7,1.54,2.5));
#112 = VECTOR('',#113,1.);
#113 = DIRECTION('',(0.347116008643,-0.93782219879,0.E+000));
#114 = PLANE('',#115);
#115 = AXIS2_PLACEMENT_3D('',#116,#117,#118);
#116 = CARTESIAN_POINT('',(2.7,1.54,2.5));
#117 = DIRECTION('',(0.93782219879,0.347116008643,0.E+000));
#118 = DIRECTION('',(0.347116008643,-0.93782219879,0.E+000));
#119 = ADVANCED_FACE('',(#120,#147,#181),#215,.F.);
#120 = FACE_BOUND('',#121,.F.);
#121 = EDGE_LOOP('',(#122,#123,#124,#132,#140,#146));
#122 = ORIENTED_EDGE('',*,*,#47,.F.);
#123 = ORIENTED_EDGE('',*,*,#78,.F.);
#124 = ORIENTED_EDGE('',*,*,#125,.F.);
#125 = EDGE_CURVE('',#126,#62,#128,.T.);
#126 = VERTEX_POINT('',#127);
#127 = CARTESIAN_POINT('',(-0.59,-0.77,2.5));
#128 = LINE('',#129,#130);
#129 = CARTESIAN_POINT('',(-0.59,-0.77,2.5));
#130 = VECTOR('',#131,1.);
#131 = DIRECTION('',(-0.1788854382,0.9838699101,0.E+000));
#132 = ORIENTED_EDGE('',*,*,#133,.F.);
#133 = EDGE_CURVE('',#134,#126,#136,.T.);
#134 = VERTEX_POINT('',#135);
#135 = CARTESIAN_POINT('',(3.13,-0.77,2.5));
#136 = LINE('',#137,#138);
#137 = CARTESIAN_POINT('',(3.13,-0.77,2.5));
#138 = VECTOR('',#139,1.);
#139 = DIRECTION('',(-1.,0.E+000,0.E+000));
#140 = ORIENTED_EDGE('',*,*,#141,.F.);
#141 = EDGE_CURVE('',#102,#134,#142,.T.);
#142 = LINE('',#143,#144);
#143 = CARTESIAN_POINT('',(3.27,0.E+000,2.5));
#144 = VECTOR('',#145,1.);
#145 = DIRECTION('',(-0.1788854382,-0.9838699101,0.E+000));
#146 = ORIENTED_EDGE('',*,*,#109,.F.);
#147 = FACE_BOUND('',#148,.F.);
#148 = EDGE_LOOP('',(#149,#159,#167,#175));
#149 = ORIENTED_EDGE('',*,*,#150,.T.);
#150 = EDGE_CURVE('',#151,#153,#155,.T.);
#151 = VERTEX_POINT('',#152);
#152 = CARTESIAN_POINT('',(-0.25,-0.175,2.5));
#153 = VERTEX_POINT('',#154);
#154 = CARTESIAN_POINT('',(-0.25,0.175,2.5));
#155 = LINE('',#156,#157);
#156 = CARTESIAN_POINT('',(-0.25,-0.175,2.5));
#157 = VECTOR('',#158,1.);
#158 = DIRECTION('',(0.E+000,1.,0.E+000));
#159 = ORIENTED_EDGE('',*,*,#160,.T.);
#160 = EDGE_CURVE('',#153,#161,#163,.T.);
#161 = VERTEX_POINT('',#162);
#162 = CARTESIAN_POINT('',(0.25,0.175,2.5));
#163 = LINE('',#164,#165);
#164 = CARTESIAN_POINT('',(-0.25,0.175,2.5));
#165 = VECTOR('',#166,1.);
#166 = DIRECTION('',(1.,0.E+000,0.E+000));
#167 = ORIENTED_EDGE('',*,*,#168,.T.);
#168 = EDGE_CURVE('',#161,#169,#171,.T.);
#169 = VERTEX_POINT('',#170);
#170 = CARTESIAN_POINT('',(0.25,-0.175,2.5));
#171 = LINE('',#172,#173);
#172 = CARTESIAN_POINT('',(0.25,0.175,2.5));
#173 = VECTOR('',#174,1.);
#174 = DIRECTION('',(0.E+000,-1.,0.E+000));
#175 = ORIENTED_EDGE('',*,*,#176,.T.);
#176 = EDGE_CURVE('',#169,#151,#177,.T.);
#177 = LINE('',#178,#179);
#178 = CARTESIAN_POINT('',(0.25,-0.175,2.5));
#179 = VECTOR('',#180,1.);
#180 = DIRECTION('',(-1.,0.E+000,0.E+000));
#181 = FACE_BOUND('',#182,.F.);
#182 = EDGE_LOOP('',(#183,#193,#201,#209));
#183 = ORIENTED_EDGE('',*,*,#184,.T.);
#184 = EDGE_CURVE('',#185,#187,#189,.T.);
#185 = VERTEX_POINT('',#186);
#186 = CARTESIAN_POINT('',(2.29,-0.175,2.5));
#187 = VERTEX_POINT('',#188);
#188 = CARTESIAN_POINT('',(2.29,0.175,2.5));
#189 = LINE('',#190,#191);
#190 = CARTESIAN_POINT('',(2.29,-0.175,2.5));
#191 = VECTOR('',#192,1.);
#192 = DIRECTION('',(0.E+000,1.,0.E+000));
#193 = ORIENTED_EDGE('',*,*,#194,.T.);
#194 = EDGE_CURVE('',#187,#195,#197,.T.);
#195 = VERTEX_POINT('',#196);
#196 = CARTESIAN_POINT('',(2.79,0.175,2.5));
#197 = LINE('',#198,#199);
#198 = CARTESIAN_POINT('',(2.29,0.175,2.5));
#199 = VECTOR('',#200,1.);
#200 = DIRECTION('',(1.,0.E+000,0.E+000));
#201 = ORIENTED_EDGE('',*,*,#202,.T.);
#202 = EDGE_CURVE('',#195,#203,#205,.T.);
#203 = VERTEX_POINT('',#204);
#204 = CARTESIAN_POINT('',(2.79,-0.175,2.5));
#205 = LINE('',#206,#207);
#206 = CARTESIAN_POINT('',(2.79,0.175,2.5));
#207 = VECTOR('',#208,1.);
#208 = DIRECTION('',(0.E+000,-1.,0.E+000));
#209 = ORIENTED_EDGE('',*,*,#210,.T.);
#210 = EDGE_CURVE('',#203,#185,#211,.T.);
#211 = LINE('',#212,#213);
#212 = CARTESIAN_POINT('',(2.79,-0.175,2.5));
#213 = VECTOR('',#214,1.);
#214 = DIRECTION('',(-1.,0.E+000,0.E+000));
#215 = PLANE('',#216);
#216 = AXIS2_PLACEMENT_3D('',#217,#218,#219);
#217 = CARTESIAN_POINT('',(-0.16,1.54,2.5));
#218 = DIRECTION('',(0.E+000,0.E+000,1.));
#219 = DIRECTION('',(1.,0.E+000,0.E+000));
#220 = ADVANCED_FACE('',(#221),#248,.T.);
#221 = FACE_BOUND('',#222,.F.);
#222 = EDGE_LOOP('',(#223,#224,#225,#233,#241,#247));
#223 = ORIENTED_EDGE('',*,*,#31,.T.);
#224 = ORIENTED_EDGE('',*,*,#93,.T.);
#225 = ORIENTED_EDGE('',*,*,#226,.T.);
#226 = EDGE_CURVE('',#94,#227,#229,.T.);
#227 = VERTEX_POINT('',#228);
#228 = CARTESIAN_POINT('',(3.13,-0.77,6.2));
#229 = LINE('',#230,#231);
#230 = CARTESIAN_POINT('',(3.27,0.E+000,6.2));
#231 = VECTOR('',#232,1.);
#232 = DIRECTION('',(-0.1788854382,-0.9838699101,0.E+000));
#233 = ORIENTED_EDGE('',*,*,#234,.T.);
#234 = EDGE_CURVE('',#227,#235,#237,.T.);
#235 = VERTEX_POINT('',#236);
#236 = CARTESIAN_POINT('',(-0.59,-0.77,6.2));
#237 = LINE('',#238,#239);
#238 = CARTESIAN_POINT('',(3.13,-0.77,6.2));
#239 = VECTOR('',#240,1.);
#240 = DIRECTION('',(-1.,0.E+000,0.E+000));
#241 = ORIENTED_EDGE('',*,*,#242,.T.);
#242 = EDGE_CURVE('',#235,#64,#243,.T.);
#243 = LINE('',#244,#245);
#244 = CARTESIAN_POINT('',(-0.59,-0.77,6.2));
#245 = VECTOR('',#246,1.);
#246 = DIRECTION('',(-0.1788854382,0.9838699101,0.E+000));
#247 = ORIENTED_EDGE('',*,*,#71,.T.);
#248 = PLANE('',#249);
#249 = AXIS2_PLACEMENT_3D('',#250,#251,#252);
#250 = CARTESIAN_POINT('',(-0.16,1.54,6.2));
#251 = DIRECTION('',(0.E+000,0.E+000,1.));
#252 = DIRECTION('',(1.,0.E+000,0.E+000));
#253 = ADVANCED_FACE('',(#254),#265,.T.);
#254 = FACE_BOUND('',#255,.T.);
#255 = EDGE_LOOP('',(#256,#262,#263,#264));
#256 = ORIENTED_EDGE('',*,*,#257,.T.);
#257 = EDGE_CURVE('',#126,#235,#258,.T.);
#258 = LINE('',#259,#260);
#259 = CARTESIAN_POINT('',(-0.59,-0.77,2.5));
#260 = VECTOR('',#261,1.);
#261 = DIRECTION('',(0.E+000,0.E+000,1.));
#262 = ORIENTED_EDGE('',*,*,#242,.T.);
#263 = ORIENTED_EDGE('',*,*,#61,.F.);
#264 = ORIENTED_EDGE('',*,*,#125,.F.);
#265 = PLANE('',#266);
#266 = AXIS2_PLACEMENT_3D('',#267,#268,#269);
#267 = CARTESIAN_POINT('',(-0.59,-0.77,2.5));
#268 = DIRECTION('',(-0.9838699101,-0.1788854382,0.E+000));
#269 = DIRECTION('',(-0.1788854382,0.9838699101,0.E+000));
#270 = ADVANCED_FACE('',(#271),#282,.T.);
#271 = FACE_BOUND('',#272,.T.);
#272 = EDGE_LOOP('',(#273,#274,#275,#281));
#273 = ORIENTED_EDGE('',*,*,#101,.T.);
#274 = ORIENTED_EDGE('',*,*,#226,.T.);
#275 = ORIENTED_EDGE('',*,*,#276,.F.);
#276 = EDGE_CURVE('',#134,#227,#277,.T.);
#277 = LINE('',#278,#279);
#278 = CARTESIAN_POINT('',(3.13,-0.77,2.5));
#279 = VECTOR('',#280,1.);
#280 = DIRECTION('',(0.E+000,0.E+000,1.));
#281 = ORIENTED_EDGE('',*,*,#141,.F.);
#282 = PLANE('',#283);
#283 = AXIS2_PLACEMENT_3D('',#284,#285,#286);
#284 = CARTESIAN_POINT('',(3.27,0.E+000,2.5));
#285 = DIRECTION('',(0.9838699101,-0.1788854382,0.E+000));
#286 = DIRECTION('',(-0.1788854382,-0.9838699101,0.E+000));
#287 = ADVANCED_FACE('',(#288),#294,.T.);
#288 = FACE_BOUND('',#289,.T.);
#289 = EDGE_LOOP('',(#290,#291,#292,#293));
#290 = ORIENTED_EDGE('',*,*,#276,.T.);
#291 = ORIENTED_EDGE('',*,*,#234,.T.);
#292 = ORIENTED_EDGE('',*,*,#257,.F.);
#293 = ORIENTED_EDGE('',*,*,#133,.F.);
#294 = PLANE('',#295);
#295 = AXIS2_PLACEMENT_3D('',#296,#297,#298);
#296 = CARTESIAN_POINT('',(3.13,-0.77,2.5));
#297 = DIRECTION('',(0.E+000,-1.,0.E+000));
#298 = DIRECTION('',(-1.,0.E+000,0.E+000));
#299 = ADVANCED_FACE('',(#300),#325,.F.);
#300 = FACE_BOUND('',#301,.F.);
#301 = EDGE_LOOP('',(#302,#310,#318,#324));
#302 = ORIENTED_EDGE('',*,*,#303,.T.);
#303 = EDGE_CURVE('',#151,#304,#306,.T.);
#304 = VERTEX_POINT('',#305);
#305 = CARTESIAN_POINT('',(-0.25,-0.175,-2.5));
#306 = LINE('',#307,#308);
#307 = CARTESIAN_POINT('',(-0.25,-0.175,2.5));
#308 = VECTOR('',#309,1.);
#309 = DIRECTION('',(-0.E+000,-0.E+000,-1.));
#310 = ORIENTED_EDGE('',*,*,#311,.T.);
#311 = EDGE_CURVE('',#304,#312,#314,.T.);
#312 = VERTEX_POINT('',#313);
#313 = CARTESIAN_POINT('',(-0.25,0.175,-2.5));
#314 = LINE('',#315,#316);
#315 = CARTESIAN_POINT('',(-0.25,-0.175,-2.5));
#316 = VECTOR('',#317,1.);
#317 = DIRECTION('',(0.E+000,1.,0.E+000));
#318 = ORIENTED_EDGE('',*,*,#319,.F.);
#319 = EDGE_CURVE('',#153,#312,#320,.T.);
#320 = LINE('',#321,#322);
#321 = CARTESIAN_POINT('',(-0.25,0.175,2.5));
#322 = VECTOR('',#323,1.);
#323 = DIRECTION('',(-0.E+000,-0.E+000,-1.));
#324 = ORIENTED_EDGE('',*,*,#150,.F.);
#325 = PLANE('',#326);
#326 = AXIS2_PLACEMENT_3D('',#327,#328,#329);
#327 = CARTESIAN_POINT('',(-0.25,-0.175,2.5));
#328 = DIRECTION('',(1.,0.E+000,0.E+000));
#329 = DIRECTION('',(0.E+000,1.,0.E+000));
#330 = ADVANCED_FACE('',(#331),#349,.F.);
#331 = FACE_BOUND('',#332,.F.);
#332 = EDGE_LOOP('',(#333,#341,#347,#348));
#333 = ORIENTED_EDGE('',*,*,#334,.T.);
#334 = EDGE_CURVE('',#169,#335,#337,.T.);
#335 = VERTEX_POINT('',#336);
#336 = CARTESIAN_POINT('',(0.25,-0.175,-2.5));
#337 = LINE('',#338,#339);
#338 = CARTESIAN_POINT('',(0.25,-0.175,2.5));
#339 = VECTOR('',#340,1.);
#340 = DIRECTION('',(-0.E+000,-0.E+000,-1.));
#341 = ORIENTED_EDGE('',*,*,#342,.T.);
#342 = EDGE_CURVE('',#335,#304,#343,.T.);
#343 = LINE('',#344,#345);
#344 = CARTESIAN_POINT('',(0.25,-0.175,-2.5));
#345 = VECTOR('',#346,1.);
#346 = DIRECTION('',(-1.,0.E+000,0.E+000));
#347 = ORIENTED_EDGE('',*,*,#303,.F.);
#348 = ORIENTED_EDGE('',*,*,#176,.F.);
#349 = PLANE('',#350);
#350 = AXIS2_PLACEMENT_3D('',#351,#352,#353);
#351 = CARTESIAN_POINT('',(0.25,-0.175,2.5));
#352 = DIRECTION('',(0.E+000,1.,0.E+000));
#353 = DIRECTION('',(-1.,0.E+000,0.E+000));
#354 = ADVANCED_FACE('',(#355),#373,.F.);
#355 = FACE_BOUND('',#356,.F.);
#356 = EDGE_LOOP('',(#357,#365,#371,#372));
#357 = ORIENTED_EDGE('',*,*,#358,.T.);
#358 = EDGE_CURVE('',#161,#359,#361,.T.);
#359 = VERTEX_POINT('',#360);
#360 = CARTESIAN_POINT('',(0.25,0.175,-2.5));
#361 = LINE('',#362,#363);
#362 = CARTESIAN_POINT('',(0.25,0.175,2.5));
#363 = VECTOR('',#364,1.);
#364 = DIRECTION('',(-0.E+000,-0.E+000,-1.));
#365 = ORIENTED_EDGE('',*,*,#366,.T.);
#366 = EDGE_CURVE('',#359,#335,#367,.T.);
#367 = LINE('',#368,#369);
#368 = CARTESIAN_POINT('',(0.25,0.175,-2.5));
#369 = VECTOR('',#370,1.);
#370 = DIRECTION('',(0.E+000,-1.,0.E+000));
#371 = ORIENTED_EDGE('',*,*,#334,.F.);
#372 = ORIENTED_EDGE('',*,*,#168,.F.);
#373 = PLANE('',#374);
#374 = AXIS2_PLACEMENT_3D('',#375,#376,#377);
#375 = CARTESIAN_POINT('',(0.25,0.175,2.5));
#376 = DIRECTION('',(-1.,0.E+000,0.E+000));
#377 = DIRECTION('',(0.E+000,-1.,0.E+000));
#378 = ADVANCED_FACE('',(#379),#390,.F.);
#379 = FACE_BOUND('',#380,.F.);
#380 = EDGE_LOOP('',(#381,#382,#388,#389));
#381 = ORIENTED_EDGE('',*,*,#319,.T.);
#382 = ORIENTED_EDGE('',*,*,#383,.T.);
#383 = EDGE_CURVE('',#312,#359,#384,.T.);
#384 = LINE('',#385,#386);
#385 = CARTESIAN_POINT('',(-0.25,0.175,-2.5));
#386 = VECTOR('',#387,1.);
#387 = DIRECTION('',(1.,0.E+000,0.E+000));
#388 = ORIENTED_EDGE('',*,*,#358,.F.);
#389 = ORIENTED_EDGE('',*,*,#160,.F.);
#390 = PLANE('',#391);
#391 = AXIS2_PLACEMENT_3D('',#392,#393,#394);
#392 = CARTESIAN_POINT('',(-0.25,0.175,2.5));
#393 = DIRECTION('',(0.E+000,-1.,0.E+000));
#394 = DIRECTION('',(1.,0.E+000,0.E+000));
#395 = ADVANCED_FACE('',(#396),#421,.F.);
#396 = FACE_BOUND('',#397,.F.);
#397 = EDGE_LOOP('',(#398,#406,#414,#420));
#398 = ORIENTED_EDGE('',*,*,#399,.T.);
#399 = EDGE_CURVE('',#185,#400,#402,.T.);
#400 = VERTEX_POINT('',#401);
#401 = CARTESIAN_POINT('',(2.29,-0.175,-2.5));
#402 = LINE('',#403,#404);
#403 = CARTESIAN_POINT('',(2.29,-0.175,2.5));
#404 = VECTOR('',#405,1.);
#405 = DIRECTION('',(-0.E+000,-0.E+000,-1.));
#406 = ORIENTED_EDGE('',*,*,#407,.T.);
#407 = EDGE_CURVE('',#400,#408,#410,.T.);
#408 = VERTEX_POINT('',#409);
#409 = CARTESIAN_POINT('',(2.29,0.175,-2.5));
#410 = LINE('',#411,#412);
#411 = CARTESIAN_POINT('',(2.29,-0.175,-2.5));
#412 = VECTOR('',#413,1.);
#413 = DIRECTION('',(0.E+000,1.,0.E+000));
#414 = ORIENTED_EDGE('',*,*,#415,.F.);
#415 = EDGE_CURVE('',#187,#408,#416,.T.);
#416 = LINE('',#417,#418);
#417 = CARTESIAN_POINT('',(2.29,0.175,2.5));
#418 = VECTOR('',#419,1.);
#419 = DIRECTION('',(-0.E+000,-0.E+000,-1.));
#420 = ORIENTED_EDGE('',*,*,#184,.F.);
#421 = PLANE('',#422);
#422 = AXIS2_PLACEMENT_3D('',#423,#424,#425);
#423 = CARTESIAN_POINT('',(2.29,-0.175,2.5));
#424 = DIRECTION('',(1.,0.E+000,0.E+000));
#425 = DIRECTION('',(0.E+000,1.,0.E+000));
#426 = ADVANCED_FACE('',(#427),#445,.F.);
#427 = FACE_BOUND('',#428,.F.);
#428 = EDGE_LOOP('',(#429,#437,#443,#444));
#429 = ORIENTED_EDGE('',*,*,#430,.T.);
#430 = EDGE_CURVE('',#203,#431,#433,.T.);
#431 = VERTEX_POINT('',#432);
#432 = CARTESIAN_POINT('',(2.79,-0.175,-2.5));
#433 = LINE('',#434,#435);
#434 = CARTESIAN_POINT('',(2.79,-0.175,2.5));
#435 = VECTOR('',#436,1.);
#436 = DIRECTION('',(-0.E+000,-0.E+000,-1.));
#437 = ORIENTED_EDGE('',*,*,#438,.T.);
#438 = EDGE_CURVE('',#431,#400,#439,.T.);
#439 = LINE('',#440,#441);
#440 = CARTESIAN_POINT('',(2.79,-0.175,-2.5));
#441 = VECTOR('',#442,1.);
#442 = DIRECTION('',(-1.,0.E+000,0.E+000));
#443 = ORIENTED_EDGE('',*,*,#399,.F.);
#444 = ORIENTED_EDGE('',*,*,#210,.F.);
#445 = PLANE('',#446);
#446 = AXIS2_PLACEMENT_3D('',#447,#448,#449);
#447 = CARTESIAN_POINT('',(2.79,-0.175,2.5));
#448 = DIRECTION('',(0.E+000,1.,0.E+000));
#449 = DIRECTION('',(-1.,0.E+000,0.E+000));
#450 = ADVANCED_FACE('',(#451),#469,.F.);
#451 = FACE_BOUND('',#452,.F.);
#452 = EDGE_LOOP('',(#453,#461,#467,#468));
#453 = ORIENTED_EDGE('',*,*,#454,.T.);
#454 = EDGE_CURVE('',#195,#455,#457,.T.);
#455 = VERTEX_POINT('',#456);
#456 = CARTESIAN_POINT('',(2.79,0.175,-2.5));
#457 = LINE('',#458,#459);
#458 = CARTESIAN_POINT('',(2.79,0.175,2.5));
#459 = VECTOR('',#460,1.);
#460 = DIRECTION('',(-0.E+000,-0.E+000,-1.));
#461 = ORIENTED_EDGE('',*,*,#462,.T.);
#462 = EDGE_CURVE('',#455,#431,#463,.T.);
#463 = LINE('',#464,#465);
#464 = CARTESIAN_POINT('',(2.79,0.175,-2.5));
#465 = VECTOR('',#466,1.);
#466 = DIRECTION('',(0.E+000,-1.,0.E+000));
#467 = ORIENTED_EDGE('',*,*,#430,.F.);
#468 = ORIENTED_EDGE('',*,*,#202,.F.);
#469 = PLANE('',#470);
#470 = AXIS2_PLACEMENT_3D('',#471,#472,#473);
#471 = CARTESIAN_POINT('',(2.79,0.175,2.5));
#472 = DIRECTION('',(-1.,0.E+000,0.E+000));
#473 = DIRECTION('',(0.E+000,-1.,0.E+000));
#474 = ADVANCED_FACE('',(#475),#486,.F.);
#475 = FACE_BOUND('',#476,.F.);
#476 = EDGE_LOOP('',(#477,#478,#484,#485));
#477 = ORIENTED_EDGE('',*,*,#415,.T.);
#478 = ORIENTED_EDGE('',*,*,#479,.T.);
#479 = EDGE_CURVE('',#408,#455,#480,.T.);
#480 = LINE('',#481,#482);
#481 = CARTESIAN_POINT('',(2.29,0.175,-2.5));
#482 = VECTOR('',#483,1.);
#483 = DIRECTION('',(1.,0.E+000,0.E+000));
#484 = ORIENTED_EDGE('',*,*,#454,.F.);
#485 = ORIENTED_EDGE('',*,*,#194,.F.);
#486 = PLANE('',#487);
#487 = AXIS2_PLACEMENT_3D('',#488,#489,#490);
#488 = CARTESIAN_POINT('',(2.29,0.175,2.5));
#489 = DIRECTION('',(0.E+000,-1.,0.E+000));
#490 = DIRECTION('',(1.,0.E+000,0.E+000));
#491 = ADVANCED_FACE('',(#492),#498,.F.);
#492 = FACE_BOUND('',#493,.T.);
#493 = EDGE_LOOP('',(#494,#495,#496,#497));
#494 = ORIENTED_EDGE('',*,*,#383,.T.);
#495 = ORIENTED_EDGE('',*,*,#366,.T.);
#496 = ORIENTED_EDGE('',*,*,#342,.T.);
#497 = ORIENTED_EDGE('',*,*,#311,.T.);
#498 = PLANE('',#499);
#499 = AXIS2_PLACEMENT_3D('',#500,#501,#502);
#500 = CARTESIAN_POINT('',(-0.25,0.175,-2.5));
#501 = DIRECTION('',(0.E+000,0.E+000,1.));
#502 = DIRECTION('',(1.,0.E+000,0.E+000));
#503 = ADVANCED_FACE('',(#504),#510,.F.);
#504 = FACE_BOUND('',#505,.T.);
#505 = EDGE_LOOP('',(#506,#507,#508,#509));
#506 = ORIENTED_EDGE('',*,*,#479,.T.);
#507 = ORIENTED_EDGE('',*,*,#462,.T.);
#508 = ORIENTED_EDGE('',*,*,#438,.T.);
#509 = ORIENTED_EDGE('',*,*,#407,.T.);
#510 = PLANE('',#511);
#511 = AXIS2_PLACEMENT_3D('',#512,#513,#514);
#512 = CARTESIAN_POINT('',(2.29,0.175,-2.5));
#513 = DIRECTION('',(0.E+000,0.E+000,1.));
#514 = DIRECTION('',(1.,0.E+000,0.E+000));
#515 = ( GEOMETRIC_REPRESENTATION_CONTEXT(3) 
GLOBAL_UNCERTAINTY_ASSIGNED_CONTEXT((#519)) GLOBAL_UNIT_ASSIGNED_CONTEXT
((#516,#517,#518)) REPRESENTATION_CONTEXT('Context #1',
  '3D Context with UNIT and UNCERTAINTY') );
#516 = ( LENGTH_UNIT() NAMED_UNIT(*) SI_UNIT(.MILLI.,.METRE.) );
#517 = ( NAMED_UNIT(*) PLANE_ANGLE_UNIT() SI_UNIT($,.RADIAN.) );
#518 = ( NAMED_UNIT(*) SI_UNIT($,.STERADIAN.) SOLID_ANGLE_UNIT() );
#519 = UNCERTAINTY_MEASURE_WITH_UNIT(LENGTH_MEASURE(1.E-007),#516,
  'distance_accuracy_value','confusion accuracy');
#520 = PRODUCT_TYPE('part',$,(#7));
#521 = MECHANICAL_DESIGN_GEOMETRIC_PRESENTATION_REPRESENTATION('',(#522,
    #530,#537,#544,#551,#558,#565,#572,#579,#587,#594,#601,#608,#615,
    #622,#629,#636,#643),#515);
#522 = STYLED_ITEM('color',(#523),#17);
#523 = PRESENTATION_STYLE_ASSIGNMENT((#524));
#524 = SURFACE_STYLE_USAGE(.BOTH.,#525);
#525 = SURFACE_SIDE_STYLE('',(#526));
#526 = SURFACE_STYLE_FILL_AREA(#527);
#527 = FILL_AREA_STYLE('',(#528));
#528 = FILL_AREA_STYLE_COLOUR('',#529);
#529 = COLOUR_RGB('',0.148000001907,0.144999995828,0.144999995828);
#530 = STYLED_ITEM('color',(#531),#57);
#531 = PRESENTATION_STYLE_ASSIGNMENT((#532));
#532 = SURFACE_STYLE_USAGE(.BOTH.,#533);
#533 = SURFACE_SIDE_STYLE('',(#534));
#534 = SURFACE_STYLE_FILL_AREA(#535);
#535 = FILL_AREA_STYLE('',(#536));
#536 = FILL_AREA_STYLE_COLOUR('',#529);
#537 = STYLED_ITEM('color',(#538),#88);
#538 = PRESENTATION_STYLE_ASSIGNMENT((#539));
#539 = SURFACE_STYLE_USAGE(.BOTH.,#540);
#540 = SURFACE_SIDE_STYLE('',(#541));
#541 = SURFACE_STYLE_FILL_AREA(#542);
#542 = FILL_AREA_STYLE('',(#543));
#543 = FILL_AREA_STYLE_COLOUR('',#529);
#544 = STYLED_ITEM('color',(#545),#119);
#545 = PRESENTATION_STYLE_ASSIGNMENT((#546));
#546 = SURFACE_STYLE_USAGE(.BOTH.,#547);
#547 = SURFACE_SIDE_STYLE('',(#548));
#548 = SURFACE_STYLE_FILL_AREA(#549);
#549 = FILL_AREA_STYLE('',(#550));
#550 = FILL_AREA_STYLE_COLOUR('',#529);
#551 = STYLED_ITEM('color',(#552),#220);
#552 = PRESENTATION_STYLE_ASSIGNMENT((#553));
#553 = SURFACE_STYLE_USAGE(.BOTH.,#554);
#554 = SURFACE_SIDE_STYLE('',(#555));
#555 = SURFACE_STYLE_FILL_AREA(#556);
#556 = FILL_AREA_STYLE('',(#557));
#557 = FILL_AREA_STYLE_COLOUR('',#529);
#558 = STYLED_ITEM('color',(#559),#253);
#559 = PRESENTATION_STYLE_ASSIGNMENT((#560));
#560 = SURFACE_STYLE_USAGE(.BOTH.,#561);
#561 = SURFACE_SIDE_STYLE('',(#562));
#562 = SURFACE_STYLE_FILL_AREA(#563);
#563 = FILL_AREA_STYLE('',(#564));
#564 = FILL_AREA_STYLE_COLOUR('',#529);
#565 = STYLED_ITEM('color',(#566),#270);
#566 = PRESENTATION_STYLE_ASSIGNMENT((#567));
#567 = SURFACE_STYLE_USAGE(.BOTH.,#568);
#568 = SURFACE_SIDE_STYLE('',(#569));
#569 = SURFACE_STYLE_FILL_AREA(#570);
#570 = FILL_AREA_STYLE('',(#571));
#571 = FILL_AREA_STYLE_COLOUR('',#529);
#572 = STYLED_ITEM('color',(#573),#287);
#573 = PRESENTATION_STYLE_ASSIGNMENT((#574));
#574 = SURFACE_STYLE_USAGE(.BOTH.,#575);
#575 = SURFACE_SIDE_STYLE('',(#576));
#576 = SURFACE_STYLE_FILL_AREA(#577);
#577 = FILL_AREA_STYLE('',(#578));
#578 = FILL_AREA_STYLE_COLOUR('',#529);
#579 = STYLED_ITEM('color',(#580),#299);
#580 = PRESENTATION_STYLE_ASSIGNMENT((#581));
#581 = SURFACE_STYLE_USAGE(.BOTH.,#582);
#582 = SURFACE_SIDE_STYLE('',(#583));
#583 = SURFACE_STYLE_FILL_AREA(#584);
#584 = FILL_AREA_STYLE('',(#585));
#585 = FILL_AREA_STYLE_COLOUR('',#586);
#586 = COLOUR_RGB('',0.824000000954,0.819999992847,0.78100001812);
#587 = STYLED_ITEM('color',(#588),#330);
#588 = PRESENTATION_STYLE_ASSIGNMENT((#589));
#589 = SURFACE_STYLE_USAGE(.BOTH.,#590);
#590 = SURFACE_SIDE_STYLE('',(#591));
#591 = SURFACE_STYLE_FILL_AREA(#592);
#592 = FILL_AREA_STYLE('',(#593));
#593 = FILL_AREA_STYLE_COLOUR('',#586);
#594 = STYLED_ITEM('color',(#595),#354);
#595 = PRESENTATION_STYLE_ASSIGNMENT((#596));
#596 = SURFACE_STYLE_USAGE(.BOTH.,#597);
#597 = SURFACE_SIDE_STYLE('',(#598));
#598 = SURFACE_STYLE_FILL_AREA(#599);
#599 = FILL_AREA_STYLE('',(#600));
#600 = FILL_AREA_STYLE_COLOUR('',#586);
#601 = STYLED_ITEM('color',(#602),#378);
#602 = PRESENTATION_STYLE_ASSIGNMENT((#603));
#603 = SURFACE_STYLE_USAGE(.BOTH.,#604);
#604 = SURFACE_SIDE_STYLE('',(#605));
#605 = SURFACE_STYLE_FILL_AREA(#606);
#606 = FILL_AREA_STYLE('',(#607));
#607 = FILL_AREA_STYLE_COLOUR('',#586);
#608 = STYLED_ITEM('color',(#609),#395);
#609 = PRESENTATION_STYLE_ASSIGNMENT((#610));
#610 = SURFACE_STYLE_USAGE(.BOTH.,#611);
#611 = SURFACE_SIDE_STYLE('',(#612));
#612 = SURFACE_STYLE_FILL_AREA(#613);
#613 = FILL_AREA_STYLE('',(#614));
#614 = FILL_AREA_STYLE_COLOUR('',#586);
#615 = STYLED_ITEM('color',(#616),#426);
#616 = PRESENTATION_STYLE_ASSIGNMENT((#617));
#617 = SURFACE_STYLE_USAGE(.BOTH.,#618);
#618 = SURFACE_SIDE_STYLE('',(#619));
#619 = SURFACE_STYLE_FILL_AREA(#620);
#620 = FILL_AREA_STYLE('',(#621));
#621 = FILL_AREA_STYLE_COLOUR('',#586);
#622 = STYLED_ITEM('color',(#623),#450);
#623 = PRESENTATION_STYLE_ASSIGNMENT((#624));
#624 = SURFACE_STYLE_USAGE(.BOTH.,#625);
#625 = SURFACE_SIDE_STYLE('',(#626));
#626 = SURFACE_STYLE_FILL_AREA(#627);
#627 = FILL_AREA_STYLE('',(#628));
#628 = FILL_AREA_STYLE_COLOUR('',#586);
#629 = STYLED_ITEM('color',(#630),#474);
#630 = PRESENTATION_STYLE_ASSIGNMENT((#631));
#631 = SURFACE_STYLE_USAGE(.BOTH.,#632);
#632 = SURFACE_SIDE_STYLE('',(#633));
#633 = SURFACE_STYLE_FILL_AREA(#634);
#634 = FILL_AREA_STYLE('',(#635));
#635 = FILL_AREA_STYLE_COLOUR('',#586);
#636 = STYLED_ITEM('color',(#637),#491);
#637 = PRESENTATION_STYLE_ASSIGNMENT((#638));
#638 = SURFACE_STYLE_USAGE(.BOTH.,#639);
#639 = SURFACE_SIDE_STYLE('',(#640));
#640 = SURFACE_STYLE_FILL_AREA(#641);
#641 = FILL_AREA_STYLE('',(#642));
#642 = FILL_AREA_STYLE_COLOUR('',#586);
#643 = STYLED_ITEM('color',(#644),#503);
#644 = PRESENTATION_STYLE_ASSIGNMENT((#645));
#645 = SURFACE_STYLE_USAGE(.BOTH.,#646);
#646 = SURFACE_SIDE_STYLE('',(#647));
#647 = SURFACE_STYLE_FILL_AREA(#648);
#648 = FILL_AREA_STYLE('',(#649));
#649 = FILL_AREA_STYLE_COLOUR('',#586);
ENDSEC;
END-ISO-10303-21;
