ISO-10303-21;
HEADER;
/* RV_Disc_D9mm_W4mm_P5mm.step 3D STEP model for use in ECAD systems
 * Copyright (C) 2018, kicad StepUp
 * 
 * This work is licensed under the [Creative Commons CC-BY-SA 4.0 License](https://creativecommons.org/licenses/by-sa/4.0/legalcode), 
 * with the following exception:
 * To the extent that the creation of electronic designs that use 'Licensed Material' can be considered to be 'Adapted Material', 
 * then the copyright holder waives article 3 of the license with respect to these designs and any generated files which use data provided 
 * as part of the 'Licensed Material'.
 * You are free to use the library data in your own projects without the obligation to share your project files under this or any other license agreement.
 * However, if you wish to redistribute these libraries, or parts thereof (including in modified form) as a collection then the exception above does not apply. 
 * Please refer to https://github.com/KiCad/kicad-packages3D/blob/master/LICENSE.md for further clarification of the exception.
 * Disclaimer of Warranties and Limitation of Liability.
 * These libraries are provided in the hope that they will be useful, but are provided without warranty of any kind, express or implied.
 * *USE 3D CAD DATA AT YOUR OWN RISK*
 * *DO NOT RELY UPON ANY INFORMATION FOUND HERE WITHOUT INDEPENDENT VERIFICATION.*
 * 
 */

FILE_DESCRIPTION(
/* description */ ('model of RV_Disc_D9mm_W4mm_P5mm'),
/* implementation_level */ '2;1');

FILE_NAME(
/* name */ 'RV_Disc_D9mm_W4mm_P5mm.step',
/* time_stamp */ '2018-11-11T21:12:27',
/* author */ ('kicad StepUp','ksu'),
/* organization */ ('FreeCAD'),
/* preprocessor_version */ 'OCC',
/* originating_system */ 'kicad StepUp',
/* authorisation */ '');

FILE_SCHEMA(('AUTOMOTIVE_DESIGN { 1 0 10303 214 1 1 1 1 }'));
ENDSEC;

DATA;
#1 = APPLICATION_PROTOCOL_DEFINITION('international standard',
'automotive_design',2000,#2);
#2 = APPLICATION_CONTEXT(
'core data for automotive mechanical design processes');
#3 = SHAPE_DEFINITION_REPRESENTATION(#4,#10);
#4 = PRODUCT_DEFINITION_SHAPE('','',#5);
#5 = PRODUCT_DEFINITION('design','',#6,#9);
#6 = PRODUCT_DEFINITION_FORMATION('','',#7);
#7 = PRODUCT('RV_Disc_D9mm_W4mm_P5mm','RV_Disc_D9mm_W4mm_P5mm','',(#8));
#8 = PRODUCT_CONTEXT('',#2,'mechanical');
#9 = PRODUCT_DEFINITION_CONTEXT('part definition',#2,'design');
#10 = ADVANCED_BREP_SHAPE_REPRESENTATION('',(#11,#15),#385);
#11 = AXIS2_PLACEMENT_3D('',#12,#13,#14);
#12 = CARTESIAN_POINT('',(0.E+000,0.E+000,0.E+000));
#13 = DIRECTION('',(0.E+000,0.E+000,1.));
#14 = DIRECTION('',(1.,0.E+000,-0.E+000));
#15 = MANIFOLD_SOLID_BREP('',#16);
#16 = CLOSED_SHELL('',(#17,#50,#143,#245,#254,#280,#289,#315,#341,#367,
#376));
#17 = ADVANCED_FACE('',(#18),#45,.T.);
#18 = FACE_BOUND('',#19,.F.);
#19 = EDGE_LOOP('',(#20,#30,#37,#38));
#20 = ORIENTED_EDGE('',*,*,#21,.T.);
#21 = EDGE_CURVE('',#22,#24,#26,.T.);
#22 = VERTEX_POINT('',#23);
#23 = CARTESIAN_POINT('',(7.,-0.901219512195,4.53));
#24 = VERTEX_POINT('',#25);
#25 = CARTESIAN_POINT('',(7.,-0.998780487805,4.53));
#26 = LINE('',#27,#28);
#27 = CARTESIAN_POINT('',(7.,1.05,4.53));
#28 = VECTOR('',#29,1.);
#29 = DIRECTION('',(0.E+000,-1.,0.E+000));
#30 = ORIENTED_EDGE('',*,*,#31,.T.);
#31 = EDGE_CURVE('',#24,#24,#32,.T.);
#32 = CIRCLE('',#33,4.5);
#33 = AXIS2_PLACEMENT_3D('',#34,#35,#36);
#34 = CARTESIAN_POINT('',(2.5,-0.998780487805,4.53));
#35 = DIRECTION('',(0.E+000,-1.,0.E+000));
#36 = DIRECTION('',(1.,0.E+000,0.E+000));
#37 = ORIENTED_EDGE('',*,*,#21,.F.);
#38 = ORIENTED_EDGE('',*,*,#39,.F.);
#39 = EDGE_CURVE('',#22,#22,#40,.T.);
#40 = CIRCLE('',#41,4.5);
#41 = AXIS2_PLACEMENT_3D('',#42,#43,#44);
#42 = CARTESIAN_POINT('',(2.5,-0.901219512195,4.53));
#43 = DIRECTION('',(0.E+000,-1.,0.E+000));
#44 = DIRECTION('',(1.,0.E+000,0.E+000));
#45 = CYLINDRICAL_SURFACE('',#46,4.5);
#46 = AXIS2_PLACEMENT_3D('',#47,#48,#49);
#47 = CARTESIAN_POINT('',(2.5,1.05,4.53));
#48 = DIRECTION('',(0.E+000,1.,0.E+000));
#49 = DIRECTION('',(1.,0.E+000,0.E+000));
#50 = ADVANCED_FACE('',(#51,#71),#138,.T.);
#51 = FACE_BOUND('',#52,.F.);
#52 = EDGE_LOOP('',(#53,#54,#63,#70));
#53 = ORIENTED_EDGE('',*,*,#39,.T.);
#54 = ORIENTED_EDGE('',*,*,#55,.T.);
#55 = EDGE_CURVE('',#22,#56,#58,.T.);
#56 = VERTEX_POINT('',#57);
#57 = CARTESIAN_POINT('',(5.048780487805,1.05,4.53));
#58 = CIRCLE('',#59,1.951219512195);
#59 = AXIS2_PLACEMENT_3D('',#60,#61,#62);
#60 = CARTESIAN_POINT('',(5.048780487805,-0.901219512195,4.53));
#61 = DIRECTION('',(0.E+000,0.E+000,1.));
#62 = DIRECTION('',(1.,0.E+000,0.E+000));
#63 = ORIENTED_EDGE('',*,*,#64,.F.);
#64 = EDGE_CURVE('',#56,#56,#65,.T.);
#65 = CIRCLE('',#66,2.548780487805);
#66 = AXIS2_PLACEMENT_3D('',#67,#68,#69);
#67 = CARTESIAN_POINT('',(2.5,1.05,4.53));
#68 = DIRECTION('',(0.E+000,-1.,0.E+000));
#69 = DIRECTION('',(1.,0.E+000,0.E+000));
#70 = ORIENTED_EDGE('',*,*,#55,.F.);
#71 = FACE_BOUND('',#72,.F.);
#72 = EDGE_LOOP('',(#73,#97));
#73 = ORIENTED_EDGE('',*,*,#74,.T.);
#74 = EDGE_CURVE('',#75,#77,#79,.T.);
#75 = VERTEX_POINT('',#76);
#76 = CARTESIAN_POINT('',(0.27,0.E+000,0.877547865653));
#77 = VERTEX_POINT('',#78);
#78 = CARTESIAN_POINT('',(-0.146780708649,-0.226617350546,1.040574183128
));
#79 = B_SPLINE_CURVE_WITH_KNOTS('',6,(#80,#81,#82,#83,#84,#85,#86,#87,
#88,#89,#90,#91,#92,#93,#94,#95,#96),.UNSPECIFIED.,.F.,.F.,(7,5,5,7)
,(0.E+000,0.273964729221,0.655026955945,1.),.UNSPECIFIED.);
#80 = CARTESIAN_POINT('',(0.27,-5.551115123126E-017,0.877547865653));
#81 = CARTESIAN_POINT('',(0.27,-2.53062364751E-002,0.862107621491));
#82 = CARTESIAN_POINT('',(0.267153644839,-5.096103292759E-002,
0.848875197434));
#83 = CARTESIAN_POINT('',(0.261314668689,-7.658261894653E-002,
0.83814839492));
#84 = CARTESIAN_POINT('',(0.252391281589,-0.101703279837,0.83020137758)
);
#85 = CARTESIAN_POINT('',(0.240427647539,-0.125770031216,0.825223247699)
);
#86 = CARTESIAN_POINT('',(0.205114605026,-0.179521095426,0.820511467713)
);
#87 = CARTESIAN_POINT('',(0.179130510912,-0.207742009774,0.823586846005)
);
#88 = CARTESIAN_POINT('',(0.148333536525,-0.231456366536,0.832601523545)
);
#89 = CARTESIAN_POINT('',(0.113957746375,-0.249488614416,0.847065963144)
);
#90 = CARTESIAN_POINT('',(7.757630944134E-002,-0.261291067174,
0.866099041951));
#91 = CARTESIAN_POINT('',(7.325797436396E-003,-0.272004450901,
0.909101077306));
#92 = CARTESIAN_POINT('',(-2.646391045931E-002,-0.272032072882,
0.932437317545));
#93 = CARTESIAN_POINT('',(-5.956037017321E-002,-0.267030614575,
0.957925885162));
#94 = CARTESIAN_POINT('',(-9.102589347247E-002,-0.257438388058,
0.984804996258));
#95 = CARTESIAN_POINT('',(-0.12024917903,-0.243801898462,1.012502492738)
);
#96 = CARTESIAN_POINT('',(-0.146780708649,-0.226617350546,1.040574183128
));
#97 = ORIENTED_EDGE('',*,*,#98,.T.);
#98 = EDGE_CURVE('',#77,#75,#99,.T.);
#99 = B_SPLINE_CURVE_WITH_KNOTS('',7,(#100,#101,#102,#103,#104,#105,#106
,#107,#108,#109,#110,#111,#112,#113,#114,#115,#116,#117,#118,#119,
#120,#121,#122,#123,#124,#125,#126,#127,#128,#129,#130,#131,#132,
#133,#134,#135,#136,#137),.UNSPECIFIED.,.F.,.F.,(8,6,6,6,6,6,8),(
0.E+000,7.843447669154E-002,0.312402824371,0.479123712172,
0.627051229022,0.787904167193,1.),.UNSPECIFIED.);
#100 = CARTESIAN_POINT('',(-0.146780708649,-0.226617350546,
1.040574183128));
#101 = CARTESIAN_POINT('',(-0.157206919813,-0.219864263637,
1.051605638001));
#102 = CARTESIAN_POINT('',(-0.167227273231,-0.212579629718,
1.062691447987));
#103 = CARTESIAN_POINT('',(-0.176815937909,-0.204792103091,
1.073805691916));
#104 = CARTESIAN_POINT('',(-0.185949433146,-0.196530617705,
1.084923694838));
#105 = CARTESIAN_POINT('',(-0.194606331422,-0.187824254287,
1.096021721021));
#106 = CARTESIAN_POINT('',(-0.202766961294,-0.17870210748,1.107076666949
));
#107 = CARTESIAN_POINT('',(-0.233221407406,-0.140828147358,
1.150845964316));
#108 = CARTESIAN_POINT('',(-0.251436265984,-0.109040668914,
1.183018206021));
#109 = CARTESIAN_POINT('',(-0.264606208622,-7.458282193158E-002,
1.214007109947));
#110 = CARTESIAN_POINT('',(-0.272338096259,-3.82213361302E-002,
1.243218036488));
#111 = CARTESIAN_POINT('',(-0.2742818029,-7.978755608537E-004,
1.269937981734));
#112 = CARTESIAN_POINT('',(-0.270165460952,3.67237939542E-002,
1.293281103285));
#113 = CARTESIAN_POINT('',(-0.252552985644,9.923289480631E-002,
1.32564501148));
#114 = CARTESIAN_POINT('',(-0.2420961469,0.124711891538,1.336848503297)
);
#115 = CARTESIAN_POINT('',(-0.228483118444,0.149234088366,1.345395319308
));
#116 = CARTESIAN_POINT('',(-0.211758736559,0.172293288433,1.350842240939
));
#117 = CARTESIAN_POINT('',(-0.192108396555,0.193319192539,1.352739216623
));
#118 = CARTESIAN_POINT('',(-0.169930811554,0.211765621045,1.35079238211)
);
#119 = CARTESIAN_POINT('',(-0.124413939702,0.24097227393,1.339898247958)
);
#120 = CARTESIAN_POINT('',(-0.101472632401,0.252374199795,1.331761484453
));
#121 = CARTESIAN_POINT('',(-7.741770443958E-002,0.261151717312,
1.320617467115));
#122 = CARTESIAN_POINT('',(-5.273709570098E-002,0.267167406609,
1.306673088903));
#123 = CARTESIAN_POINT('',(-2.790308500527E-002,0.270426916041,
1.290294123204));
#124 = CARTESIAN_POINT('',(-3.329530732595E-003,0.271047528478,
1.271941676538));
#125 = CARTESIAN_POINT('',(4.670102341026E-002,0.267212004942,
1.230493981308));
#126 = CARTESIAN_POINT('',(7.20641919437E-002,0.262306512679,
1.207111217468));
#127 = CARTESIAN_POINT('',(9.639367327792E-002,0.254713554533,
1.182449516142));
#128 = CARTESIAN_POINT('',(0.119441882873,0.244672922149,1.156993232541)
);
#129 = CARTESIAN_POINT('',(0.14102443059,0.232409256642,1.131159353174)
);
#130 = CARTESIAN_POINT('',(0.160993575335,0.218114963205,1.10529142832)
);
#131 = CARTESIAN_POINT('',(0.203226857435,0.180637673074,1.045925016737)
);
#132 = CARTESIAN_POINT('',(0.22416814324,0.156097750641,1.012659306352)
);
#133 = CARTESIAN_POINT('',(0.24170603183,0.128728347971,0.980590816308)
);
#134 = CARTESIAN_POINT('',(0.255473766495,9.890501955183E-002,
0.950376179907));
#135 = CARTESIAN_POINT('',(0.26504869163,6.7079839152E-002,
0.922685975817));
#136 = CARTESIAN_POINT('',(0.27,3.385043861816E-002,0.898201234548));
#137 = CARTESIAN_POINT('',(0.27,-2.775557561563E-017,0.877547865653));
#138 = TOROIDAL_SURFACE('',#139,2.548780487805,1.951219512195);
#139 = AXIS2_PLACEMENT_3D('',#140,#141,#142);
#140 = CARTESIAN_POINT('',(2.5,-0.901219512195,4.53));
#141 = DIRECTION('',(0.E+000,1.,0.E+000));
#142 = DIRECTION('',(1.,0.E+000,0.E+000));
#143 = ADVANCED_FACE('',(#144,#164),#240,.T.);
#144 = FACE_BOUND('',#145,.T.);
#145 = EDGE_LOOP('',(#146,#147,#156,#163));
#146 = ORIENTED_EDGE('',*,*,#31,.T.);
#147 = ORIENTED_EDGE('',*,*,#148,.T.);
#148 = EDGE_CURVE('',#24,#149,#151,.T.);
#149 = VERTEX_POINT('',#150);
#150 = CARTESIAN_POINT('',(5.048780487805,-2.95,4.53));
#151 = CIRCLE('',#152,1.951219512195);
#152 = AXIS2_PLACEMENT_3D('',#153,#154,#155);
#153 = CARTESIAN_POINT('',(5.048780487805,-0.998780487805,4.53));
#154 = DIRECTION('',(0.E+000,0.E+000,-1.));
#155 = DIRECTION('',(1.,0.E+000,0.E+000));
#156 = ORIENTED_EDGE('',*,*,#157,.F.);
#157 = EDGE_CURVE('',#149,#149,#158,.T.);
#158 = CIRCLE('',#159,2.548780487805);
#159 = AXIS2_PLACEMENT_3D('',#160,#161,#162);
#160 = CARTESIAN_POINT('',(2.5,-2.95,4.53));
#161 = DIRECTION('',(0.E+000,-1.,0.E+000));
#162 = DIRECTION('',(1.,0.E+000,0.E+000));
#163 = ORIENTED_EDGE('',*,*,#148,.F.);
#164 = FACE_BOUND('',#165,.T.);
#165 = EDGE_LOOP('',(#166,#187));
#166 = ORIENTED_EDGE('',*,*,#167,.T.);
#167 = EDGE_CURVE('',#168,#170,#172,.T.);
#168 = VERTEX_POINT('',#169);
#169 = CARTESIAN_POINT('',(5.27,-1.9,1.268036389888));
#170 = VERTEX_POINT('',#171);
#171 = CARTESIAN_POINT('',(4.982192892109,-1.630587849367,0.903200652779
));
#172 = B_SPLINE_CURVE_WITH_KNOTS('',7,(#173,#174,#175,#176,#177,#178,
#179,#180,#181,#182,#183,#184,#185,#186),.UNSPECIFIED.,.F.,.F.,(8,6,
8),(0.E+000,0.419871535792,1.),.UNSPECIFIED.);
#173 = CARTESIAN_POINT('',(5.27,-1.9,1.268036389888));
#174 = CARTESIAN_POINT('',(5.27,-1.873616088083,1.250011558473));
#175 = CARTESIAN_POINT('',(5.266992106468,-1.847466543134,1.230423854486
));
#176 = CARTESIAN_POINT('',(5.26107255072,-1.821893429488,1.209586621018)
);
#177 = CARTESIAN_POINT('',(5.252359001855,-1.797210152122,1.187769411249
));
#178 = CARTESIAN_POINT('',(5.240985454056,-1.773710837831,1.165209977784
));
#179 = CARTESIAN_POINT('',(5.227102171903,-1.751678215756,1.142127757401
));
#180 = CARTESIAN_POINT('',(5.188467787775,-1.703358154113,1.086422847176
));
#181 = CARTESIAN_POINT('',(5.161616552572,-1.678688139198,1.053557999133
));
#182 = CARTESIAN_POINT('',(5.130766583305,-1.658060865979,1.020671717838
));
#183 = CARTESIAN_POINT('',(5.096454859978,-1.642232715075,0.988357940901
));
#184 = CARTESIAN_POINT('',(5.059459774405,-1.632001369263,0.9573644856)
);
#185 = CARTESIAN_POINT('',(5.020912644836,-1.6280286225,0.928639214988)
);
#186 = CARTESIAN_POINT('',(4.982192892109,-1.630587849367,0.903200652779
));
#187 = ORIENTED_EDGE('',*,*,#188,.T.);
#188 = EDGE_CURVE('',#170,#168,#189,.T.);
#189 = B_SPLINE_CURVE_WITH_KNOTS('',7,(#190,#191,#192,#193,#194,#195,
#196,#197,#198,#199,#200,#201,#202,#203,#204,#205,#206,#207,#208,
#209,#210,#211,#212,#213,#214,#215,#216,#217,#218,#219,#220,#221,
#222,#223,#224,#225,#226,#227,#228,#229,#230,#231,#232,#233,#234,
#235,#236,#237,#238,#239),.UNSPECIFIED.,.F.,.F.,(8,6,6,6,6,6,6,6,8),
(0.E+000,0.190441400621,0.299155873571,0.354884734288,0.508257787721,
0.64857087683,0.787148693967,0.910991169395,1.),.UNSPECIFIED.);
#190 = CARTESIAN_POINT('',(4.982192892109,-1.630587849367,0.903200652779
));
#191 = CARTESIAN_POINT('',(4.947130636644,-1.63290532972,0.880165036485)
);
#192 = CARTESIAN_POINT('',(4.911960960238,-1.640576809536,0.859846760479
));
#193 = CARTESIAN_POINT('',(4.877834851829,-1.653778391905,0.843075629014
));
#194 = CARTESIAN_POINT('',(4.845978940777,-1.67231373303,0.830602787745)
);
#195 = CARTESIAN_POINT('',(4.817533993536,-1.69557892474,0.823020628486)
);
#196 = CARTESIAN_POINT('',(4.793368563378,-1.722625382712,0.820620093584
));
#197 = CARTESIAN_POINT('',(4.762890858352,-1.769273927097,0.824835424447
));
#198 = CARTESIAN_POINT('',(4.753363950426,-1.787094986702,0.828024521478
));
#199 = CARTESIAN_POINT('',(4.745475350309,-1.805579145499,0.83285511621)
);
#200 = CARTESIAN_POINT('',(4.739266750281,-1.824515204483,0.839273492154
));
#201 = CARTESIAN_POINT('',(4.734739414193,-1.843702373193,0.847197202399
));
#202 = CARTESIAN_POINT('',(4.73186392283,-1.862959239959,0.856524485119)
);
#203 = CARTESIAN_POINT('',(4.729940433901,-1.891950888745,0.872587498216
));
#204 = CARTESIAN_POINT('',(4.72970999724,-1.901752689179,0.8783709189));
#205 = CARTESIAN_POINT('',(4.729894524618,-1.911509977416,0.884479303647
));
#206 = CARTESIAN_POINT('',(4.730486353101,-1.921203046036,0.890897250267
));
#207 = CARTESIAN_POINT('',(4.731476937105,-1.930813654985,0.897608971081
));
#208 = CARTESIAN_POINT('',(4.732857170508,-1.940324989832,0.904598511909
));
#209 = CARTESIAN_POINT('',(4.739462938401,-1.975582365156,0.93180692728)
);
#210 = CARTESIAN_POINT('',(4.747187547345,-2.0005683038,0.953743062245)
);
#211 = CARTESIAN_POINT('',(4.757595549735,-2.024366316356,0.977331354098
));
#212 = CARTESIAN_POINT('',(4.770478844063,-2.046722987388,1.002237648017
));
#213 = CARTESIAN_POINT('',(4.785639400639,-2.067426147531,1.02812897955)
);
#214 = CARTESIAN_POINT('',(4.802897206813,-2.086282428689,1.054668809344
));
#215 = CARTESIAN_POINT('',(4.839636949123,-2.118467973523,1.106044880507
));
#216 = CARTESIAN_POINT('',(4.858793691753,-2.132121855329,1.130818906406
));
#217 = CARTESIAN_POINT('',(4.879429746973,-2.143909005539,1.155557174032
));
#218 = CARTESIAN_POINT('',(4.90141387339,-2.153660304881,1.179956463654)
);
#219 = CARTESIAN_POINT('',(4.924585124549,-2.161180360259,1.203653679155
));
#220 = CARTESIAN_POINT('',(4.948731574131,-2.166260208598,1.226229708584
));
#221 = CARTESIAN_POINT('',(4.998102598963,-2.171116279655,1.267986230124
));
#222 = CARTESIAN_POINT('',(5.023330492734,-2.170959032075,1.287221868547
));
#223 = CARTESIAN_POINT('',(5.048893868881,-2.168028101779,1.30443777656)
);
#224 = CARTESIAN_POINT('',(5.074352775071,-2.162183215148,1.319124720732
));
#225 = CARTESIAN_POINT('',(5.099195794306,-2.153404660532,1.330870928721
));
#226 = CARTESIAN_POINT('',(5.122887948349,-2.141832440524,1.339438084465
));
#227 = CARTESIAN_POINT('',(5.1646822516,-2.115235517331,1.349617594173)
);
#228 = CARTESIAN_POINT('',(5.183127761402,-2.100697978856,1.351876594119
));
#229 = CARTESIAN_POINT('',(5.199971657242,-2.084384872083,1.351574779068
));
#230 = CARTESIAN_POINT('',(5.214975578757,-2.066577894266,1.348839155241
));
#231 = CARTESIAN_POINT('',(5.227991545875,-2.047580746302,1.343877019928
));
#232 = CARTESIAN_POINT('',(5.23894950161,-2.027685240189,1.336925207809)
);
#233 = CARTESIAN_POINT('',(5.25420755834,-1.992395886101,1.32194814071)
);
#234 = CARTESIAN_POINT('',(5.259514049887,-1.977308393599,1.314774168424
));
#235 = CARTESIAN_POINT('',(5.26373945313,-1.961984879306,1.306772953249)
);
#236 = CARTESIAN_POINT('',(5.266887228934,-1.946513654216,1.298025437364
));
#237 = CARTESIAN_POINT('',(5.268968634848,-1.930976682111,1.288608051424
));
#238 = CARTESIAN_POINT('',(5.27,-1.915449310242,1.278590973812));
#239 = CARTESIAN_POINT('',(5.27,-1.9,1.268036389888));
#240 = TOROIDAL_SURFACE('',#241,2.548780487805,1.951219512195);
#241 = AXIS2_PLACEMENT_3D('',#242,#243,#244);
#242 = CARTESIAN_POINT('',(2.5,-0.998780487805,4.53));
#243 = DIRECTION('',(0.E+000,-1.,0.E+000));
#244 = DIRECTION('',(1.,0.E+000,0.E+000));
#245 = ADVANCED_FACE('',(#246),#249,.F.);
#246 = FACE_BOUND('',#247,.F.);
#247 = EDGE_LOOP('',(#248));
#248 = ORIENTED_EDGE('',*,*,#64,.T.);
#249 = PLANE('',#250);
#250 = AXIS2_PLACEMENT_3D('',#251,#252,#253);
#251 = CARTESIAN_POINT('',(2.5,1.05,4.53));
#252 = DIRECTION('',(-0.E+000,-1.,-0.E+000));
#253 = DIRECTION('',(0.E+000,0.E+000,-1.));
#254 = ADVANCED_FACE('',(#255),#275,.T.);
#255 = FACE_BOUND('',#256,.T.);
#256 = EDGE_LOOP('',(#257,#258,#266,#273,#274));
#257 = ORIENTED_EDGE('',*,*,#98,.T.);
#258 = ORIENTED_EDGE('',*,*,#259,.T.);
#259 = EDGE_CURVE('',#75,#260,#262,.T.);
#260 = VERTEX_POINT('',#261);
#261 = CARTESIAN_POINT('',(0.27,0.E+000,-2.892));
#262 = LINE('',#263,#264);
#263 = CARTESIAN_POINT('',(0.27,0.E+000,4.53));
#264 = VECTOR('',#265,1.);
#265 = DIRECTION('',(-0.E+000,-0.E+000,-1.));
#266 = ORIENTED_EDGE('',*,*,#267,.T.);
#267 = EDGE_CURVE('',#260,#260,#268,.T.);
#268 = CIRCLE('',#269,0.27);
#269 = AXIS2_PLACEMENT_3D('',#270,#271,#272);
#270 = CARTESIAN_POINT('',(0.E+000,0.E+000,-2.892));
#271 = DIRECTION('',(0.E+000,0.E+000,1.));
#272 = DIRECTION('',(1.,0.E+000,0.E+000));
#273 = ORIENTED_EDGE('',*,*,#259,.F.);
#274 = ORIENTED_EDGE('',*,*,#74,.T.);
#275 = CYLINDRICAL_SURFACE('',#276,0.27);
#276 = AXIS2_PLACEMENT_3D('',#277,#278,#279);
#277 = CARTESIAN_POINT('',(0.E+000,0.E+000,4.53));
#278 = DIRECTION('',(0.E+000,0.E+000,1.));
#279 = DIRECTION('',(1.,0.E+000,0.E+000));
#280 = ADVANCED_FACE('',(#281),#284,.T.);
#281 = FACE_BOUND('',#282,.T.);
#282 = EDGE_LOOP('',(#283));
#283 = ORIENTED_EDGE('',*,*,#157,.T.);
#284 = PLANE('',#285);
#285 = AXIS2_PLACEMENT_3D('',#286,#287,#288);
#286 = CARTESIAN_POINT('',(2.5,-2.95,4.53));
#287 = DIRECTION('',(-0.E+000,-1.,-0.E+000));
#288 = DIRECTION('',(0.E+000,0.E+000,-1.));
#289 = ADVANCED_FACE('',(#290),#310,.T.);
#290 = FACE_BOUND('',#291,.T.);
#291 = EDGE_LOOP('',(#292,#293,#301,#308,#309));
#292 = ORIENTED_EDGE('',*,*,#167,.F.);
#293 = ORIENTED_EDGE('',*,*,#294,.T.);
#294 = EDGE_CURVE('',#168,#295,#297,.T.);
#295 = VERTEX_POINT('',#296);
#296 = CARTESIAN_POINT('',(5.27,-1.9,-2.892));
#297 = LINE('',#298,#299);
#298 = CARTESIAN_POINT('',(5.27,-1.9,4.53));
#299 = VECTOR('',#300,1.);
#300 = DIRECTION('',(-0.E+000,-0.E+000,-1.));
#301 = ORIENTED_EDGE('',*,*,#302,.T.);
#302 = EDGE_CURVE('',#295,#295,#303,.T.);
#303 = CIRCLE('',#304,0.27);
#304 = AXIS2_PLACEMENT_3D('',#305,#306,#307);
#305 = CARTESIAN_POINT('',(5.,-1.9,-2.892));
#306 = DIRECTION('',(0.E+000,0.E+000,1.));
#307 = DIRECTION('',(1.,0.E+000,0.E+000));
#308 = ORIENTED_EDGE('',*,*,#294,.F.);
#309 = ORIENTED_EDGE('',*,*,#188,.F.);
#310 = CYLINDRICAL_SURFACE('',#311,0.27);
#311 = AXIS2_PLACEMENT_3D('',#312,#313,#314);
#312 = CARTESIAN_POINT('',(5.,-1.9,4.53));
#313 = DIRECTION('',(0.E+000,0.E+000,1.));
#314 = DIRECTION('',(1.,0.E+000,0.E+000));
#315 = ADVANCED_FACE('',(#316),#336,.T.);
#316 = FACE_BOUND('',#317,.F.);
#317 = EDGE_LOOP('',(#318,#327,#328,#329));
#318 = ORIENTED_EDGE('',*,*,#319,.F.);
#319 = EDGE_CURVE('',#260,#320,#322,.T.);
#320 = VERTEX_POINT('',#321);
#321 = CARTESIAN_POINT('',(0.162,0.E+000,-3.));
#322 = CIRCLE('',#323,0.108);
#323 = AXIS2_PLACEMENT_3D('',#324,#325,#326);
#324 = CARTESIAN_POINT('',(0.162,0.E+000,-2.892));
#325 = DIRECTION('',(-0.E+000,1.,0.E+000));
#326 = DIRECTION('',(1.,0.E+000,0.E+000));
#327 = ORIENTED_EDGE('',*,*,#267,.T.);
#328 = ORIENTED_EDGE('',*,*,#319,.T.);
#329 = ORIENTED_EDGE('',*,*,#330,.F.);
#330 = EDGE_CURVE('',#320,#320,#331,.T.);
#331 = CIRCLE('',#332,0.162);
#332 = AXIS2_PLACEMENT_3D('',#333,#334,#335);
#333 = CARTESIAN_POINT('',(0.E+000,0.E+000,-3.));
#334 = DIRECTION('',(0.E+000,0.E+000,1.));
#335 = DIRECTION('',(1.,0.E+000,0.E+000));
#336 = TOROIDAL_SURFACE('',#337,0.162,0.108);
#337 = AXIS2_PLACEMENT_3D('',#338,#339,#340);
#338 = CARTESIAN_POINT('',(0.E+000,0.E+000,-2.892));
#339 = DIRECTION('',(-0.E+000,-0.E+000,-1.));
#340 = DIRECTION('',(1.,0.E+000,0.E+000));
#341 = ADVANCED_FACE('',(#342),#362,.T.);
#342 = FACE_BOUND('',#343,.F.);
#343 = EDGE_LOOP('',(#344,#353,#354,#355));
#344 = ORIENTED_EDGE('',*,*,#345,.F.);
#345 = EDGE_CURVE('',#295,#346,#348,.T.);
#346 = VERTEX_POINT('',#347);
#347 = CARTESIAN_POINT('',(5.162,-1.9,-3.));
#348 = CIRCLE('',#349,0.108);
#349 = AXIS2_PLACEMENT_3D('',#350,#351,#352);
#350 = CARTESIAN_POINT('',(5.162,-1.9,-2.892));
#351 = DIRECTION('',(-0.E+000,1.,0.E+000));
#352 = DIRECTION('',(1.,0.E+000,0.E+000));
#353 = ORIENTED_EDGE('',*,*,#302,.T.);
#354 = ORIENTED_EDGE('',*,*,#345,.T.);
#355 = ORIENTED_EDGE('',*,*,#356,.F.);
#356 = EDGE_CURVE('',#346,#346,#357,.T.);
#357 = CIRCLE('',#358,0.162);
#358 = AXIS2_PLACEMENT_3D('',#359,#360,#361);
#359 = CARTESIAN_POINT('',(5.,-1.9,-3.));
#360 = DIRECTION('',(0.E+000,0.E+000,1.));
#361 = DIRECTION('',(1.,0.E+000,0.E+000));
#362 = TOROIDAL_SURFACE('',#363,0.162,0.108);
#363 = AXIS2_PLACEMENT_3D('',#364,#365,#366);
#364 = CARTESIAN_POINT('',(5.,-1.9,-2.892));
#365 = DIRECTION('',(-0.E+000,-0.E+000,-1.));
#366 = DIRECTION('',(1.,0.E+000,0.E+000));
#367 = ADVANCED_FACE('',(#368),#371,.F.);
#368 = FACE_BOUND('',#369,.F.);
#369 = EDGE_LOOP('',(#370));
#370 = ORIENTED_EDGE('',*,*,#330,.T.);
#371 = PLANE('',#372);
#372 = AXIS2_PLACEMENT_3D('',#373,#374,#375);
#373 = CARTESIAN_POINT('',(-1.978356673234E-017,2.854531227236E-017,-3.)
);
#374 = DIRECTION('',(0.E+000,0.E+000,1.));
#375 = DIRECTION('',(1.,0.E+000,0.E+000));
#376 = ADVANCED_FACE('',(#377),#380,.F.);
#377 = FACE_BOUND('',#378,.F.);
#378 = EDGE_LOOP('',(#379));
#379 = ORIENTED_EDGE('',*,*,#356,.T.);
#380 = PLANE('',#381);
#381 = AXIS2_PLACEMENT_3D('',#382,#383,#384);
#382 = CARTESIAN_POINT('',(5.,-1.9,-3.));
#383 = DIRECTION('',(0.E+000,0.E+000,1.));
#384 = DIRECTION('',(1.,0.E+000,0.E+000));
#385 = ( GEOMETRIC_REPRESENTATION_CONTEXT(3)
GLOBAL_UNCERTAINTY_ASSIGNED_CONTEXT((#389)) GLOBAL_UNIT_ASSIGNED_CONTEXT
((#386,#387,#388)) REPRESENTATION_CONTEXT('Context #1',
'3D Context with UNIT and UNCERTAINTY') );
#386 = ( LENGTH_UNIT() NAMED_UNIT(*) SI_UNIT(.MILLI.,.METRE.) );
#387 = ( NAMED_UNIT(*) PLANE_ANGLE_UNIT() SI_UNIT($,.RADIAN.) );
#388 = ( NAMED_UNIT(*) SI_UNIT($,.STERADIAN.) SOLID_ANGLE_UNIT() );
#389 = UNCERTAINTY_MEASURE_WITH_UNIT(LENGTH_MEASURE(1.E-007),#386,
'distance_accuracy_value','confusion accuracy');
#390 = PRODUCT_RELATED_PRODUCT_CATEGORY('part',$,(#7));
#391 = MECHANICAL_DESIGN_GEOMETRIC_PRESENTATION_REPRESENTATION('',(#392,
#400,#407,#414,#421,#429,#436,#443,#450,#457,#464),#385);
#392 = STYLED_ITEM('color',(#393),#17);
#393 = PRESENTATION_STYLE_ASSIGNMENT((#394));
#394 = SURFACE_STYLE_USAGE(.BOTH.,#395);
#395 = SURFACE_SIDE_STYLE('',(#396));
#396 = SURFACE_STYLE_FILL_AREA(#397);
#397 = FILL_AREA_STYLE('',(#398));
#398 = FILL_AREA_STYLE_COLOUR('',#399);
#399 = COLOUR_RGB('',0.136999994516,0.402000010014,0.726999998093);
#400 = STYLED_ITEM('color',(#401),#50);
#401 = PRESENTATION_STYLE_ASSIGNMENT((#402));
#402 = SURFACE_STYLE_USAGE(.BOTH.,#403);
#403 = SURFACE_SIDE_STYLE('',(#404));
#404 = SURFACE_STYLE_FILL_AREA(#405);
#405 = FILL_AREA_STYLE('',(#406));
#406 = FILL_AREA_STYLE_COLOUR('',#399);
#407 = STYLED_ITEM('color',(#408),#143);
#408 = PRESENTATION_STYLE_ASSIGNMENT((#409));
#409 = SURFACE_STYLE_USAGE(.BOTH.,#410);
#410 = SURFACE_SIDE_STYLE('',(#411));
#411 = SURFACE_STYLE_FILL_AREA(#412);
#412 = FILL_AREA_STYLE('',(#413));
#413 = FILL_AREA_STYLE_COLOUR('',#399);
#414 = STYLED_ITEM('color',(#415),#245);
#415 = PRESENTATION_STYLE_ASSIGNMENT((#416));
#416 = SURFACE_STYLE_USAGE(.BOTH.,#417);
#417 = SURFACE_SIDE_STYLE('',(#418));
#418 = SURFACE_STYLE_FILL_AREA(#419);
#419 = FILL_AREA_STYLE('',(#420));
#420 = FILL_AREA_STYLE_COLOUR('',#399);
#421 = STYLED_ITEM('color',(#422),#254);
#422 = PRESENTATION_STYLE_ASSIGNMENT((#423));
#423 = SURFACE_STYLE_USAGE(.BOTH.,#424);
#424 = SURFACE_SIDE_STYLE('',(#425));
#425 = SURFACE_STYLE_FILL_AREA(#426);
#426 = FILL_AREA_STYLE('',(#427));
#427 = FILL_AREA_STYLE_COLOUR('',#428);
#428 = COLOUR_RGB('',0.824000000954,0.819999992847,0.78100001812);
#429 = STYLED_ITEM('color',(#430),#280);
#430 = PRESENTATION_STYLE_ASSIGNMENT((#431));
#431 = SURFACE_STYLE_USAGE(.BOTH.,#432);
#432 = SURFACE_SIDE_STYLE('',(#433));
#433 = SURFACE_STYLE_FILL_AREA(#434);
#434 = FILL_AREA_STYLE('',(#435));
#435 = FILL_AREA_STYLE_COLOUR('',#399);
#436 = STYLED_ITEM('color',(#437),#289);
#437 = PRESENTATION_STYLE_ASSIGNMENT((#438));
#438 = SURFACE_STYLE_USAGE(.BOTH.,#439);
#439 = SURFACE_SIDE_STYLE('',(#440));
#440 = SURFACE_STYLE_FILL_AREA(#441);
#441 = FILL_AREA_STYLE('',(#442));
#442 = FILL_AREA_STYLE_COLOUR('',#428);
#443 = STYLED_ITEM('color',(#444),#315);
#444 = PRESENTATION_STYLE_ASSIGNMENT((#445));
#445 = SURFACE_STYLE_USAGE(.BOTH.,#446);
#446 = SURFACE_SIDE_STYLE('',(#447));
#447 = SURFACE_STYLE_FILL_AREA(#448);
#448 = FILL_AREA_STYLE('',(#449));
#449 = FILL_AREA_STYLE_COLOUR('',#428);
#450 = STYLED_ITEM('color',(#451),#341);
#451 = PRESENTATION_STYLE_ASSIGNMENT((#452));
#452 = SURFACE_STYLE_USAGE(.BOTH.,#453);
#453 = SURFACE_SIDE_STYLE('',(#454));
#454 = SURFACE_STYLE_FILL_AREA(#455);
#455 = FILL_AREA_STYLE('',(#456));
#456 = FILL_AREA_STYLE_COLOUR('',#428);
#457 = STYLED_ITEM('color',(#458),#367);
#458 = PRESENTATION_STYLE_ASSIGNMENT((#459));
#459 = SURFACE_STYLE_USAGE(.BOTH.,#460);
#460 = SURFACE_SIDE_STYLE('',(#461));
#461 = SURFACE_STYLE_FILL_AREA(#462);
#462 = FILL_AREA_STYLE('',(#463));
#463 = FILL_AREA_STYLE_COLOUR('',#428);
#464 = STYLED_ITEM('color',(#465),#376);
#465 = PRESENTATION_STYLE_ASSIGNMENT((#466));
#466 = SURFACE_STYLE_USAGE(.BOTH.,#467);
#467 = SURFACE_SIDE_STYLE('',(#468));
#468 = SURFACE_STYLE_FILL_AREA(#469);
#469 = FILL_AREA_STYLE('',(#470));
#470 = FILL_AREA_STYLE_COLOUR('',#428);
ENDSEC;
END-ISO-10303-21;
