ISO-10303-21;
HEADER;
/* RV_Disc_D9mm_W4.8mm_P5mm.step 3D STEP model for use in ECAD systems
 * Copyright (C) 2018, kicad StepUp
 * 
 * This work is licensed under the [Creative Commons CC-BY-SA 4.0 License](https://creativecommons.org/licenses/by-sa/4.0/legalcode), 
 * with the following exception:
 * To the extent that the creation of electronic designs that use 'Licensed Material' can be considered to be 'Adapted Material', 
 * then the copyright holder waives article 3 of the license with respect to these designs and any generated files which use data provided 
 * as part of the 'Licensed Material'.
 * You are free to use the library data in your own projects without the obligation to share your project files under this or any other license agreement.
 * However, if you wish to redistribute these libraries, or parts thereof (including in modified form) as a collection then the exception above does not apply. 
 * Please refer to https://github.com/KiCad/kicad-packages3D/blob/master/LICENSE.md for further clarification of the exception.
 * Disclaimer of Warranties and Limitation of Liability.
 * These libraries are provided in the hope that they will be useful, but are provided without warranty of any kind, express or implied.
 * *USE 3D CAD DATA AT YOUR OWN RISK*
 * *DO NOT RELY UPON ANY INFORMATION FOUND HERE WITHOUT INDEPENDENT VERIFICATION.*
 * 
 */

FILE_DESCRIPTION(
/* description */ ('model of RV_Disc_D9mm_W4.8mm_P5mm'),
/* implementation_level */ '2;1');

FILE_NAME(
/* name */ 'RV_Disc_D9mm_W4.8mm_P5mm.step',
/* time_stamp */ '2018-11-11T21:12:01',
/* author */ ('kicad StepUp','ksu'),
/* organization */ ('FreeCAD'),
/* preprocessor_version */ 'OCC',
/* originating_system */ 'kicad StepUp',
/* authorisation */ '');

FILE_SCHEMA(('AUTOMOTIVE_DESIGN { 1 0 10303 214 1 1 1 1 }'));
ENDSEC;

DATA;
#1 = APPLICATION_PROTOCOL_DEFINITION('international standard',
'automotive_design',2000,#2);
#2 = APPLICATION_CONTEXT(
'core data for automotive mechanical design processes');
#3 = SHAPE_DEFINITION_REPRESENTATION(#4,#10);
#4 = PRODUCT_DEFINITION_SHAPE('','',#5);
#5 = PRODUCT_DEFINITION('design','',#6,#9);
#6 = PRODUCT_DEFINITION_FORMATION('','',#7);
#7 = PRODUCT('RV_Disc_D9mm_W48mm_P5mm','RV_Disc_D9mm_W48mm_P5mm','',(#8)
);
#8 = PRODUCT_CONTEXT('',#2,'mechanical');
#9 = PRODUCT_DEFINITION_CONTEXT('part definition',#2,'design');
#10 = ADVANCED_BREP_SHAPE_REPRESENTATION('',(#11,#15),#400);
#11 = AXIS2_PLACEMENT_3D('',#12,#13,#14);
#12 = CARTESIAN_POINT('',(0.E+000,0.E+000,0.E+000));
#13 = DIRECTION('',(0.E+000,0.E+000,1.));
#14 = DIRECTION('',(1.,0.E+000,-0.E+000));
#15 = MANIFOLD_SOLID_BREP('',#16);
#16 = CLOSED_SHELL('',(#17,#50,#154,#260,#269,#295,#304,#330,#356,#382,
#391));
#17 = ADVANCED_FACE('',(#18),#45,.T.);
#18 = FACE_BOUND('',#19,.F.);
#19 = EDGE_LOOP('',(#20,#30,#37,#38));
#20 = ORIENTED_EDGE('',*,*,#21,.T.);
#21 = EDGE_CURVE('',#22,#24,#26,.T.);
#22 = VERTEX_POINT('',#23);
#23 = CARTESIAN_POINT('',(7.,-1.091463414634,4.53));
#24 = VERTEX_POINT('',#25);
#25 = CARTESIAN_POINT('',(7.,-1.208536585366,4.53));
#26 = LINE('',#27,#28);
#27 = CARTESIAN_POINT('',(7.,1.25,4.53));
#28 = VECTOR('',#29,1.);
#29 = DIRECTION('',(0.E+000,-1.,0.E+000));
#30 = ORIENTED_EDGE('',*,*,#31,.T.);
#31 = EDGE_CURVE('',#24,#24,#32,.T.);
#32 = CIRCLE('',#33,4.5);
#33 = AXIS2_PLACEMENT_3D('',#34,#35,#36);
#34 = CARTESIAN_POINT('',(2.5,-1.208536585366,4.53));
#35 = DIRECTION('',(0.E+000,-1.,0.E+000));
#36 = DIRECTION('',(1.,0.E+000,0.E+000));
#37 = ORIENTED_EDGE('',*,*,#21,.F.);
#38 = ORIENTED_EDGE('',*,*,#39,.F.);
#39 = EDGE_CURVE('',#22,#22,#40,.T.);
#40 = CIRCLE('',#41,4.5);
#41 = AXIS2_PLACEMENT_3D('',#42,#43,#44);
#42 = CARTESIAN_POINT('',(2.5,-1.091463414634,4.53));
#43 = DIRECTION('',(0.E+000,-1.,0.E+000));
#44 = DIRECTION('',(1.,0.E+000,0.E+000));
#45 = CYLINDRICAL_SURFACE('',#46,4.5);
#46 = AXIS2_PLACEMENT_3D('',#47,#48,#49);
#47 = CARTESIAN_POINT('',(2.5,1.25,4.53));
#48 = DIRECTION('',(0.E+000,1.,0.E+000));
#49 = DIRECTION('',(1.,0.E+000,0.E+000));
#50 = ADVANCED_FACE('',(#51,#71),#137,.T.);
#51 = FACE_BOUND('',#52,.F.);
#52 = EDGE_LOOP('',(#53,#54,#63,#70));
#53 = ORIENTED_EDGE('',*,*,#39,.T.);
#54 = ORIENTED_EDGE('',*,*,#55,.T.);
#55 = EDGE_CURVE('',#22,#56,#58,.T.);
#56 = VERTEX_POINT('',#57);
#57 = CARTESIAN_POINT('',(4.658536585366,1.25,4.53));
#58 = CIRCLE('',#59,2.341463414634);
#59 = AXIS2_PLACEMENT_3D('',#60,#61,#62);
#60 = CARTESIAN_POINT('',(4.658536585366,-1.091463414634,4.53));
#61 = DIRECTION('',(0.E+000,0.E+000,1.));
#62 = DIRECTION('',(1.,0.E+000,0.E+000));
#63 = ORIENTED_EDGE('',*,*,#64,.F.);
#64 = EDGE_CURVE('',#56,#56,#65,.T.);
#65 = CIRCLE('',#66,2.158536585366);
#66 = AXIS2_PLACEMENT_3D('',#67,#68,#69);
#67 = CARTESIAN_POINT('',(2.5,1.25,4.53));
#68 = DIRECTION('',(0.E+000,-1.,0.E+000));
#69 = DIRECTION('',(1.,0.E+000,0.E+000));
#70 = ORIENTED_EDGE('',*,*,#55,.F.);
#71 = FACE_BOUND('',#72,.F.);
#72 = EDGE_LOOP('',(#73,#96));
#73 = ORIENTED_EDGE('',*,*,#74,.T.);
#74 = EDGE_CURVE('',#75,#77,#79,.T.);
#75 = VERTEX_POINT('',#76);
#76 = CARTESIAN_POINT('',(0.27,0.E+000,0.935503647051));
#77 = VERTEX_POINT('',#78);
#78 = CARTESIAN_POINT('',(-0.122737206475,-0.240490287011,1.072272320016
));
#79 = B_SPLINE_CURVE_WITH_KNOTS('',8,(#80,#81,#82,#83,#84,#85,#86,#87,
#88,#89,#90,#91,#92,#93,#94,#95),.UNSPECIFIED.,.F.,.F.,(9,7,9),(
0.E+000,0.300898842105,1.),.UNSPECIFIED.);
#80 = CARTESIAN_POINT('',(0.27,-5.551115123126E-017,0.935503647051));
#81 = CARTESIAN_POINT('',(0.27,-1.997775307099E-002,0.923116372391));
#82 = CARTESIAN_POINT('',(0.268310554304,-4.016121534282E-002,
0.911994289732));
#83 = CARTESIAN_POINT('',(0.264871186484,-6.038998660176E-002,
0.902264135202));
#84 = CARTESIAN_POINT('',(0.259636210625,-8.048077920056E-002,
0.894048696793));
#85 = CARTESIAN_POINT('',(0.252586590916,-0.100227811165,0.887458156747)
);
#86 = CARTESIAN_POINT('',(0.243740075,-0.119408459352,0.882580965314));
#87 = CARTESIAN_POINT('',(0.233159601072,-0.137794172654,0.879474245855)
);
#88 = CARTESIAN_POINT('',(0.192615668573,-0.195529431722,0.875085679465)
);
#89 = CARTESIAN_POINT('',(0.155464327501,-0.230517490045,0.881652259698)
);
#90 = CARTESIAN_POINT('',(0.111015249827,-0.257134030671,0.898154305287)
);
#91 = CARTESIAN_POINT('',(6.211710361525E-002,-0.273414375244,
0.923352587514));
#92 = CARTESIAN_POINT('',(1.195328881927E-002,-0.2789793885,
0.95523816222));
#93 = CARTESIAN_POINT('',(-3.68251766966E-002,-0.274490107424,
0.991858015754));
#94 = CARTESIAN_POINT('',(-8.219290670474E-002,-0.26118257423,
1.03138707816));
#95 = CARTESIAN_POINT('',(-0.122737206475,-0.240490287011,1.072272320016
));
#96 = ORIENTED_EDGE('',*,*,#97,.T.);
#97 = EDGE_CURVE('',#77,#75,#98,.T.);
#98 = B_SPLINE_CURVE_WITH_KNOTS('',7,(#99,#100,#101,#102,#103,#104,#105,
#106,#107,#108,#109,#110,#111,#112,#113,#114,#115,#116,#117,#118,
#119,#120,#121,#122,#123,#124,#125,#126,#127,#128,#129,#130,#131,
#132,#133,#134,#135,#136),.UNSPECIFIED.,.F.,.F.,(8,6,6,6,6,6,8),(
0.E+000,9.056734950643E-002,0.308596172255,0.471899976576,
0.632150538827,0.784770763328,1.),.UNSPECIFIED.);
#99 = CARTESIAN_POINT('',(-0.122737206475,-0.240490287011,1.072272320016
));
#100 = CARTESIAN_POINT('',(-0.135809428166,-0.233818716227,
1.085454467653));
#101 = CARTESIAN_POINT('',(-0.148392947464,-0.22635162822,1.098803870994
));
#102 = CARTESIAN_POINT('',(-0.160440452153,-0.21813212378,1.112272352743
));
#103 = CARTESIAN_POINT('',(-0.171909333063,-0.209204263687,
1.125814069875));
#104 = CARTESIAN_POINT('',(-0.182760986512,-0.199612692033,
1.139384929621));
#105 = CARTESIAN_POINT('',(-0.192960116744,-0.189402259545,
1.152942005453));
#106 = CARTESIAN_POINT('',(-0.225377536627,-0.152655129399,
1.198944684989));
#107 = CARTESIAN_POINT('',(-0.244295273599,-0.123381811686,
1.231100483341));
#108 = CARTESIAN_POINT('',(-0.258798693599,-9.140857473862E-002,
1.262344795013));
#109 = CARTESIAN_POINT('',(-0.268496425962,-5.736380769017E-002,
1.292088206312));
#110 = CARTESIAN_POINT('',(-0.273019851132,-2.194632931333E-002,
1.319640185476));
#111 = CARTESIAN_POINT('',(-0.272052706761,1.403024433132E-002,
1.344172872988));
#112 = CARTESIAN_POINT('',(-0.260425395514,7.624473119328E-002,
1.380120172012));
#113 = CARTESIAN_POINT('',(-0.252261100345,0.102650358785,1.393276322457
));
#114 = CARTESIAN_POINT('',(-0.240840690617,0.12839099091,1.403781204502)
);
#115 = CARTESIAN_POINT('',(-0.22615963197,0.152949223113,1.411172972257)
);
#116 = CARTESIAN_POINT('',(-0.208352308883,0.175726368674,1.414987740318
));
#117 = CARTESIAN_POINT('',(-0.187779179153,0.196128561869,1.414924890142
));
#118 = CARTESIAN_POINT('',(-0.142668923915,0.230959649654,1.4071402856)
);
#119 = CARTESIAN_POINT('',(-0.11819711815,0.245505437099,1.399558873823)
);
#120 = CARTESIAN_POINT('',(-9.215222572166E-002,0.256897823593,
1.388255599525));
#121 = CARTESIAN_POINT('',(-6.51910763758E-002,0.264924890996,
1.373523459853));
#122 = CARTESIAN_POINT('',(-3.793179020291E-002,0.269602402201,
1.355876559297));
#123 = CARTESIAN_POINT('',(-1.088886318047E-002,0.271074770546,
1.335885855778));
#124 = CARTESIAN_POINT('',(4.068453572384E-002,0.268104054294,
1.29336066537));
#125 = CARTESIAN_POINT('',(6.528920064996E-002,0.263938278979,
1.270979451593));
#126 = CARTESIAN_POINT('',(8.903967171004E-002,0.25722904361,
1.247390172372));
#127 = CARTESIAN_POINT('',(0.111698997308,0.248168126814,1.222996696983)
);
#128 = CARTESIAN_POINT('',(0.133078373107,0.236941450143,1.198155092644)
);
#129 = CARTESIAN_POINT('',(0.153018759489,0.223716832961,1.17317086406)
);
#130 = CARTESIAN_POINT('',(0.197249584665,0.187387769721,1.113264976509)
);
#131 = CARTESIAN_POINT('',(0.219942283458,0.162477464818,1.078507201566)
);
#132 = CARTESIAN_POINT('',(0.239033797074,0.134350938402,1.044809835035)
);
#133 = CARTESIAN_POINT('',(0.254076403444,0.103432136252,1.012900640256)
);
#134 = CARTESIAN_POINT('',(0.264566769029,7.023879349857E-002,
0.983534280882));
#135 = CARTESIAN_POINT('',(0.27,3.54594871315E-002,0.957490424285));
#136 = CARTESIAN_POINT('',(0.27,-2.775557561563E-017,0.935503647051));
#137 = SURFACE_OF_REVOLUTION('',#138,#151);
#138 = B_SPLINE_CURVE_WITH_KNOTS('',6,(#139,#140,#141,#142,#143,#144,
#145,#146,#147,#148,#149,#150),.UNSPECIFIED.,.F.,.F.,(7,5,7),(
0.E+000,0.785398163397,1.570796326795),.UNSPECIFIED.);
#139 = CARTESIAN_POINT('',(7.,-1.091463414634,4.53));
#140 = CARTESIAN_POINT('',(7.,-0.784966570381,4.53));
#141 = CARTESIAN_POINT('',(6.951855777136,-0.478470238063,4.53));
#142 = CARTESIAN_POINT('',(6.855566077167,-0.181424002196,4.53));
#143 = CARTESIAN_POINT('',(6.713609769267,9.670650531705E-002,4.53));
#144 = CARTESIAN_POINT('',(6.530927240737,0.347475246771,4.53));
#145 = CARTESIAN_POINT('',(6.097475246771,0.780927240737,4.53));
#146 = CARTESIAN_POINT('',(5.846706505317,0.963609769267,4.53));
#147 = CARTESIAN_POINT('',(5.568575997804,1.105566077167,4.53));
#148 = CARTESIAN_POINT('',(5.271529761937,1.201855777136,4.53));
#149 = CARTESIAN_POINT('',(4.965033429619,1.25,4.53));
#150 = CARTESIAN_POINT('',(4.658536585366,1.25,4.53));
#151 = AXIS1_PLACEMENT('',#152,#153);
#152 = CARTESIAN_POINT('',(2.5,-1.091463414634,4.53));
#153 = DIRECTION('',(0.E+000,1.,0.E+000));
#154 = ADVANCED_FACE('',(#155,#175),#243,.T.);
#155 = FACE_BOUND('',#156,.T.);
#156 = EDGE_LOOP('',(#157,#158,#167,#174));
#157 = ORIENTED_EDGE('',*,*,#31,.T.);
#158 = ORIENTED_EDGE('',*,*,#159,.T.);
#159 = EDGE_CURVE('',#24,#160,#162,.T.);
#160 = VERTEX_POINT('',#161);
#161 = CARTESIAN_POINT('',(4.658536585366,-3.55,4.53));
#162 = CIRCLE('',#163,2.341463414634);
#163 = AXIS2_PLACEMENT_3D('',#164,#165,#166);
#164 = CARTESIAN_POINT('',(4.658536585366,-1.208536585366,4.53));
#165 = DIRECTION('',(0.E+000,0.E+000,-1.));
#166 = DIRECTION('',(1.,0.E+000,0.E+000));
#167 = ORIENTED_EDGE('',*,*,#168,.F.);
#168 = EDGE_CURVE('',#160,#160,#169,.T.);
#169 = CIRCLE('',#170,2.158536585366);
#170 = AXIS2_PLACEMENT_3D('',#171,#172,#173);
#171 = CARTESIAN_POINT('',(2.5,-3.55,4.53));
#172 = DIRECTION('',(0.E+000,-1.,0.E+000));
#173 = DIRECTION('',(1.,0.E+000,0.E+000));
#174 = ORIENTED_EDGE('',*,*,#159,.F.);
#175 = FACE_BOUND('',#176,.T.);
#176 = EDGE_LOOP('',(#177,#196));
#177 = ORIENTED_EDGE('',*,*,#178,.T.);
#178 = EDGE_CURVE('',#179,#181,#183,.T.);
#179 = VERTEX_POINT('',#180);
#180 = CARTESIAN_POINT('',(5.27,-2.3,1.333063336354));
#181 = VERTEX_POINT('',#182);
#182 = CARTESIAN_POINT('',(5.005625461496,-2.030058609726,0.972705355841
));
#183 = B_SPLINE_CURVE_WITH_KNOTS('',6,(#184,#185,#186,#187,#188,#189,
#190,#191,#192,#193,#194,#195),.UNSPECIFIED.,.F.,.F.,(7,5,7),(
0.E+000,0.468669921415,1.),.UNSPECIFIED.);
#184 = CARTESIAN_POINT('',(5.27,-2.3,1.333063336354));
#185 = CARTESIAN_POINT('',(5.27,-2.26700599221,1.310061197861));
#186 = CARTESIAN_POINT('',(5.265161728492,-2.234464975659,1.284333888664
));
#187 = CARTESIAN_POINT('',(5.255734501791,-2.203117217206,1.256632492212
));
#188 = CARTESIAN_POINT('',(5.242034311624,-2.173590196341,1.227579137472
));
#189 = CARTESIAN_POINT('',(5.22440304926,-2.146450432767,1.197704425337)
);
#190 = CARTESIAN_POINT('',(5.179228384955,-2.094801533481,1.133299333778
));
#191 = CARTESIAN_POINT('',(5.150693020978,-2.071150280323,1.098706538758
));
#192 = CARTESIAN_POINT('',(5.118197052751,-2.052062539359,1.064471903043
));
#193 = CARTESIAN_POINT('',(5.082433690427,-2.038361549832,1.03137932337)
);
#194 = CARTESIAN_POINT('',(5.044446165783,-2.030867616366,1.00041997027)
);
#195 = CARTESIAN_POINT('',(5.005625461496,-2.030058609726,0.972705355841
));
#196 = ORIENTED_EDGE('',*,*,#197,.T.);
#197 = EDGE_CURVE('',#181,#179,#198,.T.);
#198 = B_SPLINE_CURVE_WITH_KNOTS('',7,(#199,#200,#201,#202,#203,#204,
#205,#206,#207,#208,#209,#210,#211,#212,#213,#214,#215,#216,#217,
#218,#219,#220,#221,#222,#223,#224,#225,#226,#227,#228,#229,#230,
#231,#232,#233,#234,#235,#236,#237,#238,#239,#240,#241,#242),
.UNSPECIFIED.,.F.,.F.,(8,6,6,6,6,6,6,8),(0.E+000,0.197695663175,
0.364348396538,0.521429493509,0.669984830603,0.808771284305,
0.924927552817,1.),.UNSPECIFIED.);
#199 = CARTESIAN_POINT('',(5.005625461496,-2.030058609726,0.972705355841
));
#200 = CARTESIAN_POINT('',(4.969218291761,-2.029299900099,0.946713795662
));
#201 = CARTESIAN_POINT('',(4.932062604161,-2.034256716543,0.923470954745
));
#202 = CARTESIAN_POINT('',(4.895349937502,-2.045310344738,0.903928478463
));
#203 = CARTESIAN_POINT('',(4.86046593283,-2.062489991413,0.889012512253)
);
#204 = CARTESIAN_POINT('',(4.828866710351,-2.085337386464,0.879526676321
));
#205 = CARTESIAN_POINT('',(4.80177784972,-2.112830760477,0.875914936273)
);
#206 = CARTESIAN_POINT('',(4.761486044162,-2.16952684161,0.879874414491)
);
#207 = CARTESIAN_POINT('',(4.746756019203,-2.197803737635,0.88578021883)
);
#208 = CARTESIAN_POINT('',(4.736142224879,-2.227640877258,0.895727552836
));
#209 = CARTESIAN_POINT('',(4.729760803241,-2.25819161595,0.909422439508)
);
#210 = CARTESIAN_POINT('',(4.727478644322,-2.288719183986,0.926424140869
));
#211 = CARTESIAN_POINT('',(4.729053610695,-2.318640698325,0.946256948894
));
#212 = CARTESIAN_POINT('',(4.739072114759,-2.374700563077,0.989385147938
));
#213 = CARTESIAN_POINT('',(4.747115763122,-2.400956013296,1.012415088444
));
#214 = CARTESIAN_POINT('',(4.75811355513,-2.425895333483,1.037170225074)
);
#215 = CARTESIAN_POINT('',(4.77181734423,-2.449220729371,1.06326952349)
);
#216 = CARTESIAN_POINT('',(4.78798622313,-2.470685938608,1.090338380139)
);
#217 = CARTESIAN_POINT('',(4.806396254875,-2.490071293696,1.118003549335
));
#218 = CARTESIAN_POINT('',(4.846160336577,-2.523311299061,1.172231261924
));
#219 = CARTESIAN_POINT('',(4.867288783166,-2.537399405719,1.198756428074
));
#220 = CARTESIAN_POINT('',(4.89003942096,-2.549241244142,1.225126245129)
);
#221 = CARTESIAN_POINT('',(4.914223088964,-2.55863615121,1.250976272903)
);
#222 = CARTESIAN_POINT('',(4.939612308293,-2.565360184925,1.275876882289
));
#223 = CARTESIAN_POINT('',(4.965916804525,-2.56918311103,1.2993379796));
#224 = CARTESIAN_POINT('',(5.017842911861,-2.570575512713,1.340932332663
));
#225 = CARTESIAN_POINT('',(5.043399303673,-2.568539500579,1.359316898113
));
#226 = CARTESIAN_POINT('',(5.069071528748,-2.563629847109,1.375532567221
));
#227 = CARTESIAN_POINT('',(5.094416460419,-2.555733355335,1.389097801052
));
#228 = CARTESIAN_POINT('',(5.118911785846,-2.544857548934,1.39960410791)
);
#229 = CARTESIAN_POINT('',(5.142008854357,-2.531178619557,1.406801795837
));
#230 = CARTESIAN_POINT('',(5.180999355478,-2.501585260096,1.413926251086
));
#231 = CARTESIAN_POINT('',(5.19746669511,-2.48638874151,1.414849484392)
);
#232 = CARTESIAN_POINT('',(5.212364433488,-2.469683797205,1.413436248156
));
#233 = CARTESIAN_POINT('',(5.225497041304,-2.451731456067,1.409789560944
));
#234 = CARTESIAN_POINT('',(5.236747930925,-2.432808061432,1.404083872381
));
#235 = CARTESIAN_POINT('',(5.246067913607,-2.41317745206,1.396525591302)
);
#236 = CARTESIAN_POINT('',(5.258220827058,-2.380084626447,1.381369401202
));
#237 = CARTESIAN_POINT('',(5.262182816096,-2.366895008302,1.37473038825)
);
#238 = CARTESIAN_POINT('',(5.265334509966,-2.353569248697,1.367456855044
));
#239 = CARTESIAN_POINT('',(5.267680920598,-2.340165290977,1.359602788038
));
#240 = CARTESIAN_POINT('',(5.269231788799,-2.326736911799,1.351220416292
));
#241 = CARTESIAN_POINT('',(5.27,-2.313333527422,1.342358952889));
#242 = CARTESIAN_POINT('',(5.27,-2.3,1.333063336354));
#243 = SURFACE_OF_REVOLUTION('',#244,#257);
#244 = B_SPLINE_CURVE_WITH_KNOTS('',6,(#245,#246,#247,#248,#249,#250,
#251,#252,#253,#254,#255,#256),.UNSPECIFIED.,.F.,.F.,(7,5,7),(
0.E+000,0.785398163397,1.570796326795),.UNSPECIFIED.);
#245 = CARTESIAN_POINT('',(7.,-1.208536585366,4.53));
#246 = CARTESIAN_POINT('',(7.,-1.515033429619,4.53));
#247 = CARTESIAN_POINT('',(6.951855777136,-1.821529761937,4.53));
#248 = CARTESIAN_POINT('',(6.855566077167,-2.118575997804,4.53));
#249 = CARTESIAN_POINT('',(6.713609769267,-2.396706505317,4.53));
#250 = CARTESIAN_POINT('',(6.530927240737,-2.647475246771,4.53));
#251 = CARTESIAN_POINT('',(6.097475246771,-3.080927240737,4.53));
#252 = CARTESIAN_POINT('',(5.846706505317,-3.263609769267,4.53));
#253 = CARTESIAN_POINT('',(5.568575997804,-3.405566077167,4.53));
#254 = CARTESIAN_POINT('',(5.271529761937,-3.501855777136,4.53));
#255 = CARTESIAN_POINT('',(4.965033429619,-3.55,4.53));
#256 = CARTESIAN_POINT('',(4.658536585366,-3.55,4.53));
#257 = AXIS1_PLACEMENT('',#258,#259);
#258 = CARTESIAN_POINT('',(2.5,-1.208536585366,4.53));
#259 = DIRECTION('',(0.E+000,-1.,0.E+000));
#260 = ADVANCED_FACE('',(#261),#264,.F.);
#261 = FACE_BOUND('',#262,.F.);
#262 = EDGE_LOOP('',(#263));
#263 = ORIENTED_EDGE('',*,*,#64,.T.);
#264 = PLANE('',#265);
#265 = AXIS2_PLACEMENT_3D('',#266,#267,#268);
#266 = CARTESIAN_POINT('',(2.5,1.25,4.53));
#267 = DIRECTION('',(-0.E+000,-1.,-0.E+000));
#268 = DIRECTION('',(0.E+000,0.E+000,-1.));
#269 = ADVANCED_FACE('',(#270),#290,.T.);
#270 = FACE_BOUND('',#271,.T.);
#271 = EDGE_LOOP('',(#272,#273,#281,#288,#289));
#272 = ORIENTED_EDGE('',*,*,#97,.T.);
#273 = ORIENTED_EDGE('',*,*,#274,.T.);
#274 = EDGE_CURVE('',#75,#275,#277,.T.);
#275 = VERTEX_POINT('',#276);
#276 = CARTESIAN_POINT('',(0.27,0.E+000,-2.892));
#277 = LINE('',#278,#279);
#278 = CARTESIAN_POINT('',(0.27,0.E+000,4.53));
#279 = VECTOR('',#280,1.);
#280 = DIRECTION('',(-0.E+000,-0.E+000,-1.));
#281 = ORIENTED_EDGE('',*,*,#282,.T.);
#282 = EDGE_CURVE('',#275,#275,#283,.T.);
#283 = CIRCLE('',#284,0.27);
#284 = AXIS2_PLACEMENT_3D('',#285,#286,#287);
#285 = CARTESIAN_POINT('',(0.E+000,0.E+000,-2.892));
#286 = DIRECTION('',(0.E+000,0.E+000,1.));
#287 = DIRECTION('',(1.,0.E+000,0.E+000));
#288 = ORIENTED_EDGE('',*,*,#274,.F.);
#289 = ORIENTED_EDGE('',*,*,#74,.T.);
#290 = CYLINDRICAL_SURFACE('',#291,0.27);
#291 = AXIS2_PLACEMENT_3D('',#292,#293,#294);
#292 = CARTESIAN_POINT('',(0.E+000,0.E+000,4.53));
#293 = DIRECTION('',(0.E+000,0.E+000,1.));
#294 = DIRECTION('',(1.,0.E+000,0.E+000));
#295 = ADVANCED_FACE('',(#296),#299,.T.);
#296 = FACE_BOUND('',#297,.T.);
#297 = EDGE_LOOP('',(#298));
#298 = ORIENTED_EDGE('',*,*,#168,.T.);
#299 = PLANE('',#300);
#300 = AXIS2_PLACEMENT_3D('',#301,#302,#303);
#301 = CARTESIAN_POINT('',(2.5,-3.55,4.53));
#302 = DIRECTION('',(-0.E+000,-1.,-0.E+000));
#303 = DIRECTION('',(0.E+000,0.E+000,-1.));
#304 = ADVANCED_FACE('',(#305),#325,.T.);
#305 = FACE_BOUND('',#306,.T.);
#306 = EDGE_LOOP('',(#307,#308,#316,#323,#324));
#307 = ORIENTED_EDGE('',*,*,#178,.F.);
#308 = ORIENTED_EDGE('',*,*,#309,.T.);
#309 = EDGE_CURVE('',#179,#310,#312,.T.);
#310 = VERTEX_POINT('',#311);
#311 = CARTESIAN_POINT('',(5.27,-2.3,-2.892));
#312 = LINE('',#313,#314);
#313 = CARTESIAN_POINT('',(5.27,-2.3,4.53));
#314 = VECTOR('',#315,1.);
#315 = DIRECTION('',(-0.E+000,-0.E+000,-1.));
#316 = ORIENTED_EDGE('',*,*,#317,.T.);
#317 = EDGE_CURVE('',#310,#310,#318,.T.);
#318 = CIRCLE('',#319,0.27);
#319 = AXIS2_PLACEMENT_3D('',#320,#321,#322);
#320 = CARTESIAN_POINT('',(5.,-2.3,-2.892));
#321 = DIRECTION('',(-2.028963233593E-029,6.763210778644E-030,1.));
#322 = DIRECTION('',(1.,2.705284311457E-030,2.028963233593E-029));
#323 = ORIENTED_EDGE('',*,*,#309,.F.);
#324 = ORIENTED_EDGE('',*,*,#197,.F.);
#325 = CYLINDRICAL_SURFACE('',#326,0.27);
#326 = AXIS2_PLACEMENT_3D('',#327,#328,#329);
#327 = CARTESIAN_POINT('',(5.,-2.3,4.53));
#328 = DIRECTION('',(0.E+000,0.E+000,1.));
#329 = DIRECTION('',(1.,0.E+000,0.E+000));
#330 = ADVANCED_FACE('',(#331),#351,.T.);
#331 = FACE_BOUND('',#332,.F.);
#332 = EDGE_LOOP('',(#333,#342,#343,#344));
#333 = ORIENTED_EDGE('',*,*,#334,.F.);
#334 = EDGE_CURVE('',#275,#335,#337,.T.);
#335 = VERTEX_POINT('',#336);
#336 = CARTESIAN_POINT('',(0.162,0.E+000,-3.));
#337 = CIRCLE('',#338,0.108);
#338 = AXIS2_PLACEMENT_3D('',#339,#340,#341);
#339 = CARTESIAN_POINT('',(0.162,0.E+000,-2.892));
#340 = DIRECTION('',(-0.E+000,1.,0.E+000));
#341 = DIRECTION('',(1.,0.E+000,0.E+000));
#342 = ORIENTED_EDGE('',*,*,#282,.T.);
#343 = ORIENTED_EDGE('',*,*,#334,.T.);
#344 = ORIENTED_EDGE('',*,*,#345,.F.);
#345 = EDGE_CURVE('',#335,#335,#346,.T.);
#346 = CIRCLE('',#347,0.162);
#347 = AXIS2_PLACEMENT_3D('',#348,#349,#350);
#348 = CARTESIAN_POINT('',(0.E+000,0.E+000,-3.));
#349 = DIRECTION('',(0.E+000,0.E+000,1.));
#350 = DIRECTION('',(1.,0.E+000,0.E+000));
#351 = TOROIDAL_SURFACE('',#352,0.162,0.108);
#352 = AXIS2_PLACEMENT_3D('',#353,#354,#355);
#353 = CARTESIAN_POINT('',(0.E+000,0.E+000,-2.892));
#354 = DIRECTION('',(-0.E+000,-0.E+000,-1.));
#355 = DIRECTION('',(1.,0.E+000,0.E+000));
#356 = ADVANCED_FACE('',(#357),#377,.T.);
#357 = FACE_BOUND('',#358,.F.);
#358 = EDGE_LOOP('',(#359,#368,#369,#370));
#359 = ORIENTED_EDGE('',*,*,#360,.F.);
#360 = EDGE_CURVE('',#310,#361,#363,.T.);
#361 = VERTEX_POINT('',#362);
#362 = CARTESIAN_POINT('',(5.162,-2.3,-3.));
#363 = CIRCLE('',#364,0.108);
#364 = AXIS2_PLACEMENT_3D('',#365,#366,#367);
#365 = CARTESIAN_POINT('',(5.162,-2.3,-2.892));
#366 = DIRECTION('',(-2.705284311457E-030,1.,-6.763210778644E-030));
#367 = DIRECTION('',(1.,2.705284311457E-030,2.028963233593E-029));
#368 = ORIENTED_EDGE('',*,*,#317,.T.);
#369 = ORIENTED_EDGE('',*,*,#360,.T.);
#370 = ORIENTED_EDGE('',*,*,#371,.F.);
#371 = EDGE_CURVE('',#361,#361,#372,.T.);
#372 = CIRCLE('',#373,0.162);
#373 = AXIS2_PLACEMENT_3D('',#374,#375,#376);
#374 = CARTESIAN_POINT('',(5.,-2.3,-3.));
#375 = DIRECTION('',(-2.028963233593E-029,6.763210778644E-030,1.));
#376 = DIRECTION('',(1.,2.705284311457E-030,2.028963233593E-029));
#377 = TOROIDAL_SURFACE('',#378,0.162,0.108);
#378 = AXIS2_PLACEMENT_3D('',#379,#380,#381);
#379 = CARTESIAN_POINT('',(5.,-2.3,-2.892));
#380 = DIRECTION('',(2.028963233593E-029,-6.763210778644E-030,-1.));
#381 = DIRECTION('',(1.,2.705284311457E-030,2.028963233593E-029));
#382 = ADVANCED_FACE('',(#383),#386,.F.);
#383 = FACE_BOUND('',#384,.F.);
#384 = EDGE_LOOP('',(#385));
#385 = ORIENTED_EDGE('',*,*,#345,.T.);
#386 = PLANE('',#387);
#387 = AXIS2_PLACEMENT_3D('',#388,#389,#390);
#388 = CARTESIAN_POINT('',(-1.978356673234E-017,2.854531227236E-017,-3.)
);
#389 = DIRECTION('',(0.E+000,0.E+000,1.));
#390 = DIRECTION('',(1.,0.E+000,0.E+000));
#391 = ADVANCED_FACE('',(#392),#395,.F.);
#392 = FACE_BOUND('',#393,.F.);
#393 = EDGE_LOOP('',(#394));
#394 = ORIENTED_EDGE('',*,*,#371,.T.);
#395 = PLANE('',#396);
#396 = AXIS2_PLACEMENT_3D('',#397,#398,#399);
#397 = CARTESIAN_POINT('',(5.,-2.3,-3.));
#398 = DIRECTION('',(-2.028963233593E-029,6.763210778644E-030,1.));
#399 = DIRECTION('',(1.,0.E+000,2.028963233593E-029));
#400 = ( GEOMETRIC_REPRESENTATION_CONTEXT(3)
GLOBAL_UNCERTAINTY_ASSIGNED_CONTEXT((#404)) GLOBAL_UNIT_ASSIGNED_CONTEXT
((#401,#402,#403)) REPRESENTATION_CONTEXT('Context #1',
'3D Context with UNIT and UNCERTAINTY') );
#401 = ( LENGTH_UNIT() NAMED_UNIT(*) SI_UNIT(.MILLI.,.METRE.) );
#402 = ( NAMED_UNIT(*) PLANE_ANGLE_UNIT() SI_UNIT($,.RADIAN.) );
#403 = ( NAMED_UNIT(*) SI_UNIT($,.STERADIAN.) SOLID_ANGLE_UNIT() );
#404 = UNCERTAINTY_MEASURE_WITH_UNIT(LENGTH_MEASURE(1.E-007),#401,
'distance_accuracy_value','confusion accuracy');
#405 = PRODUCT_RELATED_PRODUCT_CATEGORY('part',$,(#7));
#406 = MECHANICAL_DESIGN_GEOMETRIC_PRESENTATION_REPRESENTATION('',(#407,
#415,#422,#429,#436,#444,#451,#458,#465,#472,#479),#400);
#407 = STYLED_ITEM('color',(#408),#17);
#408 = PRESENTATION_STYLE_ASSIGNMENT((#409));
#409 = SURFACE_STYLE_USAGE(.BOTH.,#410);
#410 = SURFACE_SIDE_STYLE('',(#411));
#411 = SURFACE_STYLE_FILL_AREA(#412);
#412 = FILL_AREA_STYLE('',(#413));
#413 = FILL_AREA_STYLE_COLOUR('',#414);
#414 = COLOUR_RGB('',0.136999994516,0.402000010014,0.726999998093);
#415 = STYLED_ITEM('color',(#416),#50);
#416 = PRESENTATION_STYLE_ASSIGNMENT((#417));
#417 = SURFACE_STYLE_USAGE(.BOTH.,#418);
#418 = SURFACE_SIDE_STYLE('',(#419));
#419 = SURFACE_STYLE_FILL_AREA(#420);
#420 = FILL_AREA_STYLE('',(#421));
#421 = FILL_AREA_STYLE_COLOUR('',#414);
#422 = STYLED_ITEM('color',(#423),#154);
#423 = PRESENTATION_STYLE_ASSIGNMENT((#424));
#424 = SURFACE_STYLE_USAGE(.BOTH.,#425);
#425 = SURFACE_SIDE_STYLE('',(#426));
#426 = SURFACE_STYLE_FILL_AREA(#427);
#427 = FILL_AREA_STYLE('',(#428));
#428 = FILL_AREA_STYLE_COLOUR('',#414);
#429 = STYLED_ITEM('color',(#430),#260);
#430 = PRESENTATION_STYLE_ASSIGNMENT((#431));
#431 = SURFACE_STYLE_USAGE(.BOTH.,#432);
#432 = SURFACE_SIDE_STYLE('',(#433));
#433 = SURFACE_STYLE_FILL_AREA(#434);
#434 = FILL_AREA_STYLE('',(#435));
#435 = FILL_AREA_STYLE_COLOUR('',#414);
#436 = STYLED_ITEM('color',(#437),#269);
#437 = PRESENTATION_STYLE_ASSIGNMENT((#438));
#438 = SURFACE_STYLE_USAGE(.BOTH.,#439);
#439 = SURFACE_SIDE_STYLE('',(#440));
#440 = SURFACE_STYLE_FILL_AREA(#441);
#441 = FILL_AREA_STYLE('',(#442));
#442 = FILL_AREA_STYLE_COLOUR('',#443);
#443 = COLOUR_RGB('',0.824000000954,0.819999992847,0.78100001812);
#444 = STYLED_ITEM('color',(#445),#295);
#445 = PRESENTATION_STYLE_ASSIGNMENT((#446));
#446 = SURFACE_STYLE_USAGE(.BOTH.,#447);
#447 = SURFACE_SIDE_STYLE('',(#448));
#448 = SURFACE_STYLE_FILL_AREA(#449);
#449 = FILL_AREA_STYLE('',(#450));
#450 = FILL_AREA_STYLE_COLOUR('',#414);
#451 = STYLED_ITEM('color',(#452),#304);
#452 = PRESENTATION_STYLE_ASSIGNMENT((#453));
#453 = SURFACE_STYLE_USAGE(.BOTH.,#454);
#454 = SURFACE_SIDE_STYLE('',(#455));
#455 = SURFACE_STYLE_FILL_AREA(#456);
#456 = FILL_AREA_STYLE('',(#457));
#457 = FILL_AREA_STYLE_COLOUR('',#443);
#458 = STYLED_ITEM('color',(#459),#330);
#459 = PRESENTATION_STYLE_ASSIGNMENT((#460));
#460 = SURFACE_STYLE_USAGE(.BOTH.,#461);
#461 = SURFACE_SIDE_STYLE('',(#462));
#462 = SURFACE_STYLE_FILL_AREA(#463);
#463 = FILL_AREA_STYLE('',(#464));
#464 = FILL_AREA_STYLE_COLOUR('',#443);
#465 = STYLED_ITEM('color',(#466),#356);
#466 = PRESENTATION_STYLE_ASSIGNMENT((#467));
#467 = SURFACE_STYLE_USAGE(.BOTH.,#468);
#468 = SURFACE_SIDE_STYLE('',(#469));
#469 = SURFACE_STYLE_FILL_AREA(#470);
#470 = FILL_AREA_STYLE('',(#471));
#471 = FILL_AREA_STYLE_COLOUR('',#443);
#472 = STYLED_ITEM('color',(#473),#382);
#473 = PRESENTATION_STYLE_ASSIGNMENT((#474));
#474 = SURFACE_STYLE_USAGE(.BOTH.,#475);
#475 = SURFACE_SIDE_STYLE('',(#476));
#476 = SURFACE_STYLE_FILL_AREA(#477);
#477 = FILL_AREA_STYLE('',(#478));
#478 = FILL_AREA_STYLE_COLOUR('',#443);
#479 = STYLED_ITEM('color',(#480),#391);
#480 = PRESENTATION_STYLE_ASSIGNMENT((#481));
#481 = SURFACE_STYLE_USAGE(.BOTH.,#482);
#482 = SURFACE_SIDE_STYLE('',(#483));
#483 = SURFACE_STYLE_FILL_AREA(#484);
#484 = FILL_AREA_STYLE('',(#485));
#485 = FILL_AREA_STYLE_COLOUR('',#443);
ENDSEC;
END-ISO-10303-21;
