ISO-10303-21;
HEADER;
/* RV_Disc_D9mm_W4.4mm_P5mm.step 3D STEP model for use in ECAD systems
 * Copyright (C) 2018, kicad StepUp
 * 
 * This work is licensed under the [Creative Commons CC-BY-SA 4.0 License](https://creativecommons.org/licenses/by-sa/4.0/legalcode), 
 * with the following exception:
 * To the extent that the creation of electronic designs that use 'Licensed Material' can be considered to be 'Adapted Material', 
 * then the copyright holder waives article 3 of the license with respect to these designs and any generated files which use data provided 
 * as part of the 'Licensed Material'.
 * You are free to use the library data in your own projects without the obligation to share your project files under this or any other license agreement.
 * However, if you wish to redistribute these libraries, or parts thereof (including in modified form) as a collection then the exception above does not apply. 
 * Please refer to https://github.com/KiCad/kicad-packages3D/blob/master/LICENSE.md for further clarification of the exception.
 * Disclaimer of Warranties and Limitation of Liability.
 * These libraries are provided in the hope that they will be useful, but are provided without warranty of any kind, express or implied.
 * *USE 3D CAD DATA AT YOUR OWN RISK*
 * *DO NOT RELY UPON ANY INFORMATION FOUND HERE WITHOUT INDEPENDENT VERIFICATION.*
 * 
 */

FILE_DESCRIPTION(
/* description */ ('model of RV_Disc_D9mm_W4.4mm_P5mm'),
/* implementation_level */ '2;1');

FILE_NAME(
/* name */ 'RV_Disc_D9mm_W4.4mm_P5mm.step',
/* time_stamp */ '2018-11-11T21:11:32',
/* author */ ('kicad StepUp','ksu'),
/* organization */ ('FreeCAD'),
/* preprocessor_version */ 'OCC',
/* originating_system */ 'kicad StepUp',
/* authorisation */ '');

FILE_SCHEMA(('AUTOMOTIVE_DESIGN { 1 0 10303 214 1 1 1 1 }'));
ENDSEC;

DATA;
#1 = APPLICATION_PROTOCOL_DEFINITION('international standard',
'automotive_design',2000,#2);
#2 = APPLICATION_CONTEXT(
'core data for automotive mechanical design processes');
#3 = SHAPE_DEFINITION_REPRESENTATION(#4,#10);
#4 = PRODUCT_DEFINITION_SHAPE('','',#5);
#5 = PRODUCT_DEFINITION('design','',#6,#9);
#6 = PRODUCT_DEFINITION_FORMATION('','',#7);
#7 = PRODUCT('RV_Disc_D9mm_W44mm_P5mm','RV_Disc_D9mm_W44mm_P5mm','',(#8)
);
#8 = PRODUCT_CONTEXT('',#2,'mechanical');
#9 = PRODUCT_DEFINITION_CONTEXT('part definition',#2,'design');
#10 = ADVANCED_BREP_SHAPE_REPRESENTATION('',(#11,#15),#373);
#11 = AXIS2_PLACEMENT_3D('',#12,#13,#14);
#12 = CARTESIAN_POINT('',(0.E+000,0.E+000,0.E+000));
#13 = DIRECTION('',(0.E+000,0.E+000,1.));
#14 = DIRECTION('',(1.,0.E+000,-0.E+000));
#15 = MANIFOLD_SOLID_BREP('',#16);
#16 = CLOSED_SHELL('',(#17,#50,#142,#233,#242,#268,#277,#303,#329,#355,
#364));
#17 = ADVANCED_FACE('',(#18),#45,.T.);
#18 = FACE_BOUND('',#19,.F.);
#19 = EDGE_LOOP('',(#20,#30,#37,#38));
#20 = ORIENTED_EDGE('',*,*,#21,.T.);
#21 = EDGE_CURVE('',#22,#24,#26,.T.);
#22 = VERTEX_POINT('',#23);
#23 = CARTESIAN_POINT('',(7.,-0.946341463415,4.53));
#24 = VERTEX_POINT('',#25);
#25 = CARTESIAN_POINT('',(7.,-1.053658536585,4.53));
#26 = LINE('',#27,#28);
#27 = CARTESIAN_POINT('',(7.,1.2,4.53));
#28 = VECTOR('',#29,1.);
#29 = DIRECTION('',(0.E+000,-1.,0.E+000));
#30 = ORIENTED_EDGE('',*,*,#31,.T.);
#31 = EDGE_CURVE('',#24,#24,#32,.T.);
#32 = CIRCLE('',#33,4.5);
#33 = AXIS2_PLACEMENT_3D('',#34,#35,#36);
#34 = CARTESIAN_POINT('',(2.5,-1.053658536585,4.53));
#35 = DIRECTION('',(0.E+000,-1.,0.E+000));
#36 = DIRECTION('',(1.,0.E+000,0.E+000));
#37 = ORIENTED_EDGE('',*,*,#21,.F.);
#38 = ORIENTED_EDGE('',*,*,#39,.F.);
#39 = EDGE_CURVE('',#22,#22,#40,.T.);
#40 = CIRCLE('',#41,4.5);
#41 = AXIS2_PLACEMENT_3D('',#42,#43,#44);
#42 = CARTESIAN_POINT('',(2.5,-0.946341463415,4.53));
#43 = DIRECTION('',(0.E+000,-1.,0.E+000));
#44 = DIRECTION('',(1.,0.E+000,0.E+000));
#45 = CYLINDRICAL_SURFACE('',#46,4.5);
#46 = AXIS2_PLACEMENT_3D('',#47,#48,#49);
#47 = CARTESIAN_POINT('',(2.5,1.2,4.53));
#48 = DIRECTION('',(0.E+000,1.,0.E+000));
#49 = DIRECTION('',(1.,0.E+000,0.E+000));
#50 = ADVANCED_FACE('',(#51,#71),#137,.T.);
#51 = FACE_BOUND('',#52,.F.);
#52 = EDGE_LOOP('',(#53,#54,#63,#70));
#53 = ORIENTED_EDGE('',*,*,#39,.T.);
#54 = ORIENTED_EDGE('',*,*,#55,.T.);
#55 = EDGE_CURVE('',#22,#56,#58,.T.);
#56 = VERTEX_POINT('',#57);
#57 = CARTESIAN_POINT('',(4.853658536585,1.2,4.53));
#58 = CIRCLE('',#59,2.146341463415);
#59 = AXIS2_PLACEMENT_3D('',#60,#61,#62);
#60 = CARTESIAN_POINT('',(4.853658536585,-0.946341463415,4.53));
#61 = DIRECTION('',(0.E+000,0.E+000,1.));
#62 = DIRECTION('',(1.,0.E+000,0.E+000));
#63 = ORIENTED_EDGE('',*,*,#64,.F.);
#64 = EDGE_CURVE('',#56,#56,#65,.T.);
#65 = CIRCLE('',#66,2.353658536585);
#66 = AXIS2_PLACEMENT_3D('',#67,#68,#69);
#67 = CARTESIAN_POINT('',(2.5,1.2,4.53));
#68 = DIRECTION('',(0.E+000,-1.,0.E+000));
#69 = DIRECTION('',(1.,0.E+000,0.E+000));
#70 = ORIENTED_EDGE('',*,*,#55,.F.);
#71 = FACE_BOUND('',#72,.F.);
#72 = EDGE_LOOP('',(#73,#97));
#73 = ORIENTED_EDGE('',*,*,#74,.T.);
#74 = EDGE_CURVE('',#75,#77,#79,.T.);
#75 = VERTEX_POINT('',#76);
#76 = CARTESIAN_POINT('',(0.27,0.E+000,0.87672050044));
#77 = VERTEX_POINT('',#78);
#78 = CARTESIAN_POINT('',(-0.144686836677,-0.227959907204,1.04333467284)
);
#79 = B_SPLINE_CURVE_WITH_KNOTS('',6,(#80,#81,#82,#83,#84,#85,#86,#87,
#88,#89,#90,#91,#92,#93,#94,#95,#96),.UNSPECIFIED.,.F.,.F.,(7,5,5,7)
,(0.E+000,0.272387567683,0.649333571884,1.),.UNSPECIFIED.);
#80 = CARTESIAN_POINT('',(0.27,-1.110223024625E-016,0.87672050044));
#81 = CARTESIAN_POINT('',(0.27,-2.529168528816E-002,0.862164587149));
#82 = CARTESIAN_POINT('',(0.267156923807,-5.090787860031E-002,
0.849755728072));
#83 = CARTESIAN_POINT('',(0.261334679815,-7.645983502272E-002,
0.839778350469));
#84 = CARTESIAN_POINT('',(0.252457922035,-0.101478760113,0.83248951895)
);
#85 = CARTESIAN_POINT('',(0.240588268574,-0.125422287322,0.828061579673)
);
#86 = CARTESIAN_POINT('',(0.205737660952,-0.17871303147,0.824394569363)
);
#87 = CARTESIAN_POINT('',(0.180226644684,-0.206627921487,0.827798028936)
);
#88 = CARTESIAN_POINT('',(0.150078409658,-0.230128046316,0.836830025573)
);
#89 = CARTESIAN_POINT('',(0.116505739755,-0.248129128202,0.851011934904)
);
#90 = CARTESIAN_POINT('',(8.098628043108E-002,-0.260151542199,
0.869517976023));
#91 = CARTESIAN_POINT('',(1.137356967404E-002,-0.271897477599,
0.911754013116));
#92 = CARTESIAN_POINT('',(-2.266140057981E-002,-0.27242288188,
0.935038859894));
#93 = CARTESIAN_POINT('',(-5.609132447806E-002,-0.267843585012,
0.960515580961));
#94 = CARTESIAN_POINT('',(-8.797755339014E-002,-0.258564599637,
0.987433392907));
#95 = CARTESIAN_POINT('',(-0.117673968399,-0.245105055702,1.015201645886
));
#96 = CARTESIAN_POINT('',(-0.144686836677,-0.227959907204,1.04333467284)
);
#97 = ORIENTED_EDGE('',*,*,#98,.T.);
#98 = EDGE_CURVE('',#77,#75,#99,.T.);
#99 = B_SPLINE_CURVE_WITH_KNOTS('',6,(#100,#101,#102,#103,#104,#105,#106
,#107,#108,#109,#110,#111,#112,#113,#114,#115,#116,#117,#118,#119,
#120,#121,#122,#123,#124,#125,#126,#127,#128,#129,#130,#131,#132,
#133,#134,#135,#136),.UNSPECIFIED.,.F.,.F.,(7,5,5,5,5,5,5,7),(
0.E+000,6.751484576133E-002,0.292839976127,0.355086132397,
0.463060401663,0.614965112021,0.779628348069,1.),.UNSPECIFIED.);
#100 = CARTESIAN_POINT('',(-0.144686836677,-0.227959907204,1.04333467284
));
#101 = CARTESIAN_POINT('',(-0.155191364355,-0.221292651987,
1.054274798014));
#102 = CARTESIAN_POINT('',(-0.165288766823,-0.214068825588,
1.065268711062));
#103 = CARTESIAN_POINT('',(-0.174949412822,-0.206318722158,
1.076286968403));
#104 = CARTESIAN_POINT('',(-0.184146022225,-0.198073008904,
1.087300994271));
#105 = CARTESIAN_POINT('',(-0.192853666044,-0.189362726091,
1.098283080708));
#106 = CARTESIAN_POINT('',(-0.228403563448,-0.149703826719,1.1456620073)
);
#107 = CARTESIAN_POINT('',(-0.250039658937,-0.114384403057,
1.181437052372));
#108 = CARTESIAN_POINT('',(-0.265157726119,-7.53989300811E-002,
1.215568487023));
#109 = CARTESIAN_POINT('',(-0.273079030621,-3.393967650369E-002,
1.247060419987));
#110 = CARTESIAN_POINT('',(-0.273200665267,8.572045206324E-003,
1.274618841253));
#111 = CARTESIAN_POINT('',(-0.263060892892,6.194557673249E-002,
1.302773019857));
#112 = CARTESIAN_POINT('',(-0.26025110004,7.344264620469E-002,
1.308445902229));
#113 = CARTESIAN_POINT('',(-0.256821660295,8.484550437869E-002,
1.313664281909));
#114 = CARTESIAN_POINT('',(-0.252770811878,9.611243544383E-002,
1.318392922333));
#115 = CARTESIAN_POINT('',(-0.24810115368,0.107199036143,1.322596288451)
);
#116 = CARTESIAN_POINT('',(-0.233662175503,0.136896825077,1.332561062047
));
#117 = CARTESIAN_POINT('',(-0.222665377436,0.155055068654,1.337199397316
));
#118 = CARTESIAN_POINT('',(-0.209876847235,0.17228568421,1.339974793999)
);
#119 = CARTESIAN_POINT('',(-0.195398631152,0.188324721366,1.34072297211)
);
#120 = CARTESIAN_POINT('',(-0.179413296489,0.202917787515,1.339340042524
));
#121 = CARTESIAN_POINT('',(-0.137928658225,0.23408452125,1.330896417146)
);
#122 = CARTESIAN_POINT('',(-0.111183219712,0.249064696254,1.321750504204
));
#123 = CARTESIAN_POINT('',(-8.267363578047E-002,0.260221858796,
1.308397980031));
#124 = CARTESIAN_POINT('',(-5.330172286892E-002,0.267327983014,
1.291280466133));
#125 = CARTESIAN_POINT('',(-2.387139844717E-002,0.270484691742,
1.271141928177));
#126 = CARTESIAN_POINT('',(3.622312359341E-002,0.269379460429,
1.224491509783));
#127 = CARTESIAN_POINT('',(6.679423927314E-002,0.264472298986,
1.197578551005));
#128 = CARTESIAN_POINT('',(9.599237712493E-002,0.255562988423,
1.168893265312));
#129 = CARTESIAN_POINT('',(0.123336309451,0.243079393836,1.139279842788)
);
#130 = CARTESIAN_POINT('',(0.148489536942,0.227396388143,1.109395926061)
);
#131 = CARTESIAN_POINT('',(0.201472222613,0.183973277796,1.040178458512)
);
#132 = CARTESIAN_POINT('',(0.22728671734,0.153982633142,1.001122436455)
);
#133 = CARTESIAN_POINT('',(0.247866351809,0.11964611136,0.96397249139));
#134 = CARTESIAN_POINT('',(0.262417231164,8.171875362421E-002,
0.929975628814));
#135 = CARTESIAN_POINT('',(0.27,4.130489396892E-002,0.900492362548));
#136 = CARTESIAN_POINT('',(0.27,-8.326672684689E-017,0.87672050044));
#137 = TOROIDAL_SURFACE('',#138,2.353658536585,2.146341463415);
#138 = AXIS2_PLACEMENT_3D('',#139,#140,#141);
#139 = CARTESIAN_POINT('',(2.5,-0.946341463415,4.53));
#140 = DIRECTION('',(0.E+000,1.,0.E+000));
#141 = DIRECTION('',(1.,0.E+000,0.E+000));
#142 = ADVANCED_FACE('',(#143,#163),#228,.T.);
#143 = FACE_BOUND('',#144,.T.);
#144 = EDGE_LOOP('',(#145,#146,#155,#162));
#145 = ORIENTED_EDGE('',*,*,#31,.T.);
#146 = ORIENTED_EDGE('',*,*,#147,.T.);
#147 = EDGE_CURVE('',#24,#148,#150,.T.);
#148 = VERTEX_POINT('',#149);
#149 = CARTESIAN_POINT('',(4.853658536585,-3.2,4.53));
#150 = CIRCLE('',#151,2.146341463415);
#151 = AXIS2_PLACEMENT_3D('',#152,#153,#154);
#152 = CARTESIAN_POINT('',(4.853658536585,-1.053658536585,4.53));
#153 = DIRECTION('',(0.E+000,0.E+000,-1.));
#154 = DIRECTION('',(1.,0.E+000,0.E+000));
#155 = ORIENTED_EDGE('',*,*,#156,.F.);
#156 = EDGE_CURVE('',#148,#148,#157,.T.);
#157 = CIRCLE('',#158,2.353658536585);
#158 = AXIS2_PLACEMENT_3D('',#159,#160,#161);
#159 = CARTESIAN_POINT('',(2.5,-3.2,4.53));
#160 = DIRECTION('',(0.E+000,-1.,0.E+000));
#161 = DIRECTION('',(1.,0.E+000,0.E+000));
#162 = ORIENTED_EDGE('',*,*,#147,.F.);
#163 = FACE_BOUND('',#164,.T.);
#164 = EDGE_LOOP('',(#165,#188));
#165 = ORIENTED_EDGE('',*,*,#166,.T.);
#166 = EDGE_CURVE('',#167,#169,#171,.T.);
#167 = VERTEX_POINT('',#168);
#168 = CARTESIAN_POINT('',(5.27,-2.,1.267110007692));
#169 = VERTEX_POINT('',#170);
#170 = CARTESIAN_POINT('',(4.868515360796,-1.76417847924,0.846844349422)
);
#171 = B_SPLINE_CURVE_WITH_KNOTS('',8,(#172,#173,#174,#175,#176,#177,
#178,#179,#180,#181,#182,#183,#184,#185,#186,#187),.UNSPECIFIED.,.F.
,.F.,(9,7,9),(0.E+000,0.362144437879,1.),.UNSPECIFIED.);
#172 = CARTESIAN_POINT('',(5.27,-2.,1.267110007692));
#173 = CARTESIAN_POINT('',(5.27,-1.974829848676,1.250890861617));
#174 = CARTESIAN_POINT('',(5.267318350609,-1.94988318938,1.233189717358)
);
#175 = CARTESIAN_POINT('',(5.262038458758,-1.925443012774,1.214263330596
));
#176 = CARTESIAN_POINT('',(5.254262169529,-1.901768829588,1.194343074468
));
#177 = CARTESIAN_POINT('',(5.244105021701,-1.879101533358,1.173638639054
));
#178 = CARTESIAN_POINT('',(5.231693896186,-1.857667995448,1.152343158396
));
#179 = CARTESIAN_POINT('',(5.217167057371,-1.837685392394,1.130639765038
));
#180 = CARTESIAN_POINT('',(5.171631441465,-1.787097491733,1.070083283558
));
#181 = CARTESIAN_POINT('',(5.136528406418,-1.760024912551,1.030798415419
));
#182 = CARTESIAN_POINT('',(5.096170035698,-1.739222543858,0.991775862321
));
#183 = CARTESIAN_POINT('',(5.051554176317,-1.725904465761,0.954076985897
));
#184 = CARTESIAN_POINT('',(5.004164823104,-1.721292846962,0.919064416587
));
#185 = CARTESIAN_POINT('',(4.956125999698,-1.726313981542,0.888402062422
));
#186 = CARTESIAN_POINT('',(4.910096351188,-1.740994583632,0.863913825103
));
#187 = CARTESIAN_POINT('',(4.868515360796,-1.76417847924,0.846844349422)
);
#188 = ORIENTED_EDGE('',*,*,#189,.T.);
#189 = EDGE_CURVE('',#169,#167,#190,.T.);
#190 = B_SPLINE_CURVE_WITH_KNOTS('',6,(#191,#192,#193,#194,#195,#196,
#197,#198,#199,#200,#201,#202,#203,#204,#205,#206,#207,#208,#209,
#210,#211,#212,#213,#214,#215,#216,#217,#218,#219,#220,#221,#222,
#223,#224,#225,#226,#227),.UNSPECIFIED.,.F.,.F.,(7,5,5,5,5,5,5,7),(
0.E+000,0.110204466871,0.293672360458,0.464578135156,0.624408021452,
0.781964496883,0.913428842969,1.),.UNSPECIFIED.);
#191 = CARTESIAN_POINT('',(4.868515360796,-1.76417847924,0.846844349422)
);
#192 = CARTESIAN_POINT('',(4.849406872903,-1.774832607109,0.839000094961
));
#193 = CARTESIAN_POINT('',(4.831282797767,-1.787373197556,0.83280007174)
);
#194 = CARTESIAN_POINT('',(4.814417819482,-1.801673067094,0.828385686134
));
#195 = CARTESIAN_POINT('',(4.799056654029,-1.817537726603,0.82585669371)
);
#196 = CARTESIAN_POINT('',(4.785394867993,-1.834721943629,0.825259306998
));
#197 = CARTESIAN_POINT('',(4.753856559101,-1.883286137796,0.828763503048
));
#198 = CARTESIAN_POINT('',(4.739209815575,-1.916518465601,0.83625343452)
);
#199 = CARTESIAN_POINT('',(4.73021937706,-1.951362460632,0.848967064206)
);
#200 = CARTESIAN_POINT('',(4.726854973024,-1.986457047841,0.866337386816
));
#201 = CARTESIAN_POINT('',(4.728723913166,-2.020805819383,0.887614498017
));
#202 = CARTESIAN_POINT('',(4.74159075821,-2.084259494988,0.934839006074)
);
#203 = CARTESIAN_POINT('',(4.751953958451,-2.113561221606,0.960365392911
));
#204 = CARTESIAN_POINT('',(4.766118095578,-2.140976726001,0.988060986919
));
#205 = CARTESIAN_POINT('',(4.7836850876,-2.166063465979,1.017324926576)
);
#206 = CARTESIAN_POINT('',(4.804295629545,-2.188459797508,1.047568532688
));
#207 = CARTESIAN_POINT('',(4.849403938328,-2.225882890736,1.106772363851
));
#208 = CARTESIAN_POINT('',(4.873548558446,-2.241281084035,1.135669558399
));
#209 = CARTESIAN_POINT('',(4.899762162627,-2.253707521347,1.164351231356
));
#210 = CARTESIAN_POINT('',(4.927740850966,-2.262827207346,1.192227349264
));
#211 = CARTESIAN_POINT('',(4.957065355382,-2.26826006773,1.218554389074)
);
#212 = CARTESIAN_POINT('',(5.016797024769,-2.271107161811,1.266199455603
));
#213 = CARTESIAN_POINT('',(5.047196834967,-2.268634656981,1.287593908391
));
#214 = CARTESIAN_POINT('',(5.077657846111,-2.261968268431,1.305883247062
));
#215 = CARTESIAN_POINT('',(5.107313411861,-2.250959631319,1.320223292466
));
#216 = CARTESIAN_POINT('',(5.135158511983,-2.235827173616,1.330087289672
));
#217 = CARTESIAN_POINT('',(5.181410355801,-2.201678358863,1.339935601891
));
#218 = CARTESIAN_POINT('',(5.200634812291,-2.183706519364,1.341289236868
));
#219 = CARTESIAN_POINT('',(5.217579500522,-2.163644524032,1.339495304508
));
#220 = CARTESIAN_POINT('',(5.231941952448,-2.141966656735,1.334777345328
));
#221 = CARTESIAN_POINT('',(5.243594945717,-2.119144682724,1.327463513237
));
#222 = CARTESIAN_POINT('',(5.258380226237,-2.080090990682,1.311575435602
));
#223 = CARTESIAN_POINT('',(5.263064097096,-2.064268132698,1.304283680527
));
#224 = CARTESIAN_POINT('',(5.266554165792,-2.04824502323,1.296101649461)
);
#225 = CARTESIAN_POINT('',(5.268859566473,-2.032129227096,1.287121921606
));
#226 = CARTESIAN_POINT('',(5.27,-2.016018546015,1.277432040897));
#227 = CARTESIAN_POINT('',(5.27,-2.,1.267110007692));
#228 = TOROIDAL_SURFACE('',#229,2.353658536585,2.146341463415);
#229 = AXIS2_PLACEMENT_3D('',#230,#231,#232);
#230 = CARTESIAN_POINT('',(2.5,-1.053658536585,4.53));
#231 = DIRECTION('',(0.E+000,-1.,0.E+000));
#232 = DIRECTION('',(1.,0.E+000,0.E+000));
#233 = ADVANCED_FACE('',(#234),#237,.F.);
#234 = FACE_BOUND('',#235,.F.);
#235 = EDGE_LOOP('',(#236));
#236 = ORIENTED_EDGE('',*,*,#64,.T.);
#237 = PLANE('',#238);
#238 = AXIS2_PLACEMENT_3D('',#239,#240,#241);
#239 = CARTESIAN_POINT('',(2.5,1.2,4.53));
#240 = DIRECTION('',(-0.E+000,-1.,-0.E+000));
#241 = DIRECTION('',(0.E+000,0.E+000,-1.));
#242 = ADVANCED_FACE('',(#243),#263,.T.);
#243 = FACE_BOUND('',#244,.T.);
#244 = EDGE_LOOP('',(#245,#246,#254,#261,#262));
#245 = ORIENTED_EDGE('',*,*,#98,.T.);
#246 = ORIENTED_EDGE('',*,*,#247,.T.);
#247 = EDGE_CURVE('',#75,#248,#250,.T.);
#248 = VERTEX_POINT('',#249);
#249 = CARTESIAN_POINT('',(0.27,0.E+000,-2.892));
#250 = LINE('',#251,#252);
#251 = CARTESIAN_POINT('',(0.27,0.E+000,4.53));
#252 = VECTOR('',#253,1.);
#253 = DIRECTION('',(-0.E+000,-0.E+000,-1.));
#254 = ORIENTED_EDGE('',*,*,#255,.T.);
#255 = EDGE_CURVE('',#248,#248,#256,.T.);
#256 = CIRCLE('',#257,0.27);
#257 = AXIS2_PLACEMENT_3D('',#258,#259,#260);
#258 = CARTESIAN_POINT('',(0.E+000,0.E+000,-2.892));
#259 = DIRECTION('',(0.E+000,0.E+000,1.));
#260 = DIRECTION('',(1.,0.E+000,0.E+000));
#261 = ORIENTED_EDGE('',*,*,#247,.F.);
#262 = ORIENTED_EDGE('',*,*,#74,.T.);
#263 = CYLINDRICAL_SURFACE('',#264,0.27);
#264 = AXIS2_PLACEMENT_3D('',#265,#266,#267);
#265 = CARTESIAN_POINT('',(0.E+000,0.E+000,4.53));
#266 = DIRECTION('',(0.E+000,0.E+000,1.));
#267 = DIRECTION('',(1.,0.E+000,0.E+000));
#268 = ADVANCED_FACE('',(#269),#272,.T.);
#269 = FACE_BOUND('',#270,.T.);
#270 = EDGE_LOOP('',(#271));
#271 = ORIENTED_EDGE('',*,*,#156,.T.);
#272 = PLANE('',#273);
#273 = AXIS2_PLACEMENT_3D('',#274,#275,#276);
#274 = CARTESIAN_POINT('',(2.5,-3.2,4.53));
#275 = DIRECTION('',(-0.E+000,-1.,-0.E+000));
#276 = DIRECTION('',(0.E+000,0.E+000,-1.));
#277 = ADVANCED_FACE('',(#278),#298,.T.);
#278 = FACE_BOUND('',#279,.T.);
#279 = EDGE_LOOP('',(#280,#281,#289,#296,#297));
#280 = ORIENTED_EDGE('',*,*,#166,.F.);
#281 = ORIENTED_EDGE('',*,*,#282,.T.);
#282 = EDGE_CURVE('',#167,#283,#285,.T.);
#283 = VERTEX_POINT('',#284);
#284 = CARTESIAN_POINT('',(5.27,-2.,-2.892));
#285 = LINE('',#286,#287);
#286 = CARTESIAN_POINT('',(5.27,-2.,4.53));
#287 = VECTOR('',#288,1.);
#288 = DIRECTION('',(-0.E+000,-0.E+000,-1.));
#289 = ORIENTED_EDGE('',*,*,#290,.T.);
#290 = EDGE_CURVE('',#283,#283,#291,.T.);
#291 = CIRCLE('',#292,0.27);
#292 = AXIS2_PLACEMENT_3D('',#293,#294,#295);
#293 = CARTESIAN_POINT('',(5.,-2.,-2.892));
#294 = DIRECTION('',(0.E+000,0.E+000,1.));
#295 = DIRECTION('',(1.,0.E+000,0.E+000));
#296 = ORIENTED_EDGE('',*,*,#282,.F.);
#297 = ORIENTED_EDGE('',*,*,#189,.F.);
#298 = CYLINDRICAL_SURFACE('',#299,0.27);
#299 = AXIS2_PLACEMENT_3D('',#300,#301,#302);
#300 = CARTESIAN_POINT('',(5.,-2.,4.53));
#301 = DIRECTION('',(0.E+000,0.E+000,1.));
#302 = DIRECTION('',(1.,0.E+000,0.E+000));
#303 = ADVANCED_FACE('',(#304),#324,.T.);
#304 = FACE_BOUND('',#305,.F.);
#305 = EDGE_LOOP('',(#306,#315,#316,#317));
#306 = ORIENTED_EDGE('',*,*,#307,.F.);
#307 = EDGE_CURVE('',#248,#308,#310,.T.);
#308 = VERTEX_POINT('',#309);
#309 = CARTESIAN_POINT('',(0.162,0.E+000,-3.));
#310 = CIRCLE('',#311,0.108);
#311 = AXIS2_PLACEMENT_3D('',#312,#313,#314);
#312 = CARTESIAN_POINT('',(0.162,0.E+000,-2.892));
#313 = DIRECTION('',(-0.E+000,1.,0.E+000));
#314 = DIRECTION('',(1.,0.E+000,0.E+000));
#315 = ORIENTED_EDGE('',*,*,#255,.T.);
#316 = ORIENTED_EDGE('',*,*,#307,.T.);
#317 = ORIENTED_EDGE('',*,*,#318,.F.);
#318 = EDGE_CURVE('',#308,#308,#319,.T.);
#319 = CIRCLE('',#320,0.162);
#320 = AXIS2_PLACEMENT_3D('',#321,#322,#323);
#321 = CARTESIAN_POINT('',(0.E+000,0.E+000,-3.));
#322 = DIRECTION('',(0.E+000,0.E+000,1.));
#323 = DIRECTION('',(1.,0.E+000,0.E+000));
#324 = TOROIDAL_SURFACE('',#325,0.162,0.108);
#325 = AXIS2_PLACEMENT_3D('',#326,#327,#328);
#326 = CARTESIAN_POINT('',(0.E+000,0.E+000,-2.892));
#327 = DIRECTION('',(-0.E+000,-0.E+000,-1.));
#328 = DIRECTION('',(1.,0.E+000,0.E+000));
#329 = ADVANCED_FACE('',(#330),#350,.T.);
#330 = FACE_BOUND('',#331,.F.);
#331 = EDGE_LOOP('',(#332,#341,#342,#343));
#332 = ORIENTED_EDGE('',*,*,#333,.F.);
#333 = EDGE_CURVE('',#283,#334,#336,.T.);
#334 = VERTEX_POINT('',#335);
#335 = CARTESIAN_POINT('',(5.162,-2.,-3.));
#336 = CIRCLE('',#337,0.108);
#337 = AXIS2_PLACEMENT_3D('',#338,#339,#340);
#338 = CARTESIAN_POINT('',(5.162,-2.,-2.892));
#339 = DIRECTION('',(-0.E+000,1.,0.E+000));
#340 = DIRECTION('',(1.,0.E+000,0.E+000));
#341 = ORIENTED_EDGE('',*,*,#290,.T.);
#342 = ORIENTED_EDGE('',*,*,#333,.T.);
#343 = ORIENTED_EDGE('',*,*,#344,.F.);
#344 = EDGE_CURVE('',#334,#334,#345,.T.);
#345 = CIRCLE('',#346,0.162);
#346 = AXIS2_PLACEMENT_3D('',#347,#348,#349);
#347 = CARTESIAN_POINT('',(5.,-2.,-3.));
#348 = DIRECTION('',(0.E+000,0.E+000,1.));
#349 = DIRECTION('',(1.,0.E+000,0.E+000));
#350 = TOROIDAL_SURFACE('',#351,0.162,0.108);
#351 = AXIS2_PLACEMENT_3D('',#352,#353,#354);
#352 = CARTESIAN_POINT('',(5.,-2.,-2.892));
#353 = DIRECTION('',(-0.E+000,-0.E+000,-1.));
#354 = DIRECTION('',(1.,0.E+000,0.E+000));
#355 = ADVANCED_FACE('',(#356),#359,.F.);
#356 = FACE_BOUND('',#357,.F.);
#357 = EDGE_LOOP('',(#358));
#358 = ORIENTED_EDGE('',*,*,#318,.T.);
#359 = PLANE('',#360);
#360 = AXIS2_PLACEMENT_3D('',#361,#362,#363);
#361 = CARTESIAN_POINT('',(-1.978356673234E-017,2.854531227236E-017,-3.)
);
#362 = DIRECTION('',(0.E+000,0.E+000,1.));
#363 = DIRECTION('',(1.,0.E+000,0.E+000));
#364 = ADVANCED_FACE('',(#365),#368,.F.);
#365 = FACE_BOUND('',#366,.F.);
#366 = EDGE_LOOP('',(#367));
#367 = ORIENTED_EDGE('',*,*,#344,.T.);
#368 = PLANE('',#369);
#369 = AXIS2_PLACEMENT_3D('',#370,#371,#372);
#370 = CARTESIAN_POINT('',(5.,-2.,-3.));
#371 = DIRECTION('',(0.E+000,0.E+000,1.));
#372 = DIRECTION('',(1.,0.E+000,0.E+000));
#373 = ( GEOMETRIC_REPRESENTATION_CONTEXT(3)
GLOBAL_UNCERTAINTY_ASSIGNED_CONTEXT((#377)) GLOBAL_UNIT_ASSIGNED_CONTEXT
((#374,#375,#376)) REPRESENTATION_CONTEXT('Context #1',
'3D Context with UNIT and UNCERTAINTY') );
#374 = ( LENGTH_UNIT() NAMED_UNIT(*) SI_UNIT(.MILLI.,.METRE.) );
#375 = ( NAMED_UNIT(*) PLANE_ANGLE_UNIT() SI_UNIT($,.RADIAN.) );
#376 = ( NAMED_UNIT(*) SI_UNIT($,.STERADIAN.) SOLID_ANGLE_UNIT() );
#377 = UNCERTAINTY_MEASURE_WITH_UNIT(LENGTH_MEASURE(1.E-007),#374,
'distance_accuracy_value','confusion accuracy');
#378 = PRODUCT_RELATED_PRODUCT_CATEGORY('part',$,(#7));
#379 = MECHANICAL_DESIGN_GEOMETRIC_PRESENTATION_REPRESENTATION('',(#380,
#388,#395,#402,#409,#417,#424,#431,#438,#445,#452),#373);
#380 = STYLED_ITEM('color',(#381),#17);
#381 = PRESENTATION_STYLE_ASSIGNMENT((#382));
#382 = SURFACE_STYLE_USAGE(.BOTH.,#383);
#383 = SURFACE_SIDE_STYLE('',(#384));
#384 = SURFACE_STYLE_FILL_AREA(#385);
#385 = FILL_AREA_STYLE('',(#386));
#386 = FILL_AREA_STYLE_COLOUR('',#387);
#387 = COLOUR_RGB('',0.136999994516,0.402000010014,0.726999998093);
#388 = STYLED_ITEM('color',(#389),#50);
#389 = PRESENTATION_STYLE_ASSIGNMENT((#390));
#390 = SURFACE_STYLE_USAGE(.BOTH.,#391);
#391 = SURFACE_SIDE_STYLE('',(#392));
#392 = SURFACE_STYLE_FILL_AREA(#393);
#393 = FILL_AREA_STYLE('',(#394));
#394 = FILL_AREA_STYLE_COLOUR('',#387);
#395 = STYLED_ITEM('color',(#396),#142);
#396 = PRESENTATION_STYLE_ASSIGNMENT((#397));
#397 = SURFACE_STYLE_USAGE(.BOTH.,#398);
#398 = SURFACE_SIDE_STYLE('',(#399));
#399 = SURFACE_STYLE_FILL_AREA(#400);
#400 = FILL_AREA_STYLE('',(#401));
#401 = FILL_AREA_STYLE_COLOUR('',#387);
#402 = STYLED_ITEM('color',(#403),#233);
#403 = PRESENTATION_STYLE_ASSIGNMENT((#404));
#404 = SURFACE_STYLE_USAGE(.BOTH.,#405);
#405 = SURFACE_SIDE_STYLE('',(#406));
#406 = SURFACE_STYLE_FILL_AREA(#407);
#407 = FILL_AREA_STYLE('',(#408));
#408 = FILL_AREA_STYLE_COLOUR('',#387);
#409 = STYLED_ITEM('color',(#410),#242);
#410 = PRESENTATION_STYLE_ASSIGNMENT((#411));
#411 = SURFACE_STYLE_USAGE(.BOTH.,#412);
#412 = SURFACE_SIDE_STYLE('',(#413));
#413 = SURFACE_STYLE_FILL_AREA(#414);
#414 = FILL_AREA_STYLE('',(#415));
#415 = FILL_AREA_STYLE_COLOUR('',#416);
#416 = COLOUR_RGB('',0.824000000954,0.819999992847,0.78100001812);
#417 = STYLED_ITEM('color',(#418),#268);
#418 = PRESENTATION_STYLE_ASSIGNMENT((#419));
#419 = SURFACE_STYLE_USAGE(.BOTH.,#420);
#420 = SURFACE_SIDE_STYLE('',(#421));
#421 = SURFACE_STYLE_FILL_AREA(#422);
#422 = FILL_AREA_STYLE('',(#423));
#423 = FILL_AREA_STYLE_COLOUR('',#387);
#424 = STYLED_ITEM('color',(#425),#277);
#425 = PRESENTATION_STYLE_ASSIGNMENT((#426));
#426 = SURFACE_STYLE_USAGE(.BOTH.,#427);
#427 = SURFACE_SIDE_STYLE('',(#428));
#428 = SURFACE_STYLE_FILL_AREA(#429);
#429 = FILL_AREA_STYLE('',(#430));
#430 = FILL_AREA_STYLE_COLOUR('',#416);
#431 = STYLED_ITEM('color',(#432),#303);
#432 = PRESENTATION_STYLE_ASSIGNMENT((#433));
#433 = SURFACE_STYLE_USAGE(.BOTH.,#434);
#434 = SURFACE_SIDE_STYLE('',(#435));
#435 = SURFACE_STYLE_FILL_AREA(#436);
#436 = FILL_AREA_STYLE('',(#437));
#437 = FILL_AREA_STYLE_COLOUR('',#416);
#438 = STYLED_ITEM('color',(#439),#329);
#439 = PRESENTATION_STYLE_ASSIGNMENT((#440));
#440 = SURFACE_STYLE_USAGE(.BOTH.,#441);
#441 = SURFACE_SIDE_STYLE('',(#442));
#442 = SURFACE_STYLE_FILL_AREA(#443);
#443 = FILL_AREA_STYLE('',(#444));
#444 = FILL_AREA_STYLE_COLOUR('',#416);
#445 = STYLED_ITEM('color',(#446),#355);
#446 = PRESENTATION_STYLE_ASSIGNMENT((#447));
#447 = SURFACE_STYLE_USAGE(.BOTH.,#448);
#448 = SURFACE_SIDE_STYLE('',(#449));
#449 = SURFACE_STYLE_FILL_AREA(#450);
#450 = FILL_AREA_STYLE('',(#451));
#451 = FILL_AREA_STYLE_COLOUR('',#416);
#452 = STYLED_ITEM('color',(#453),#364);
#453 = PRESENTATION_STYLE_ASSIGNMENT((#454));
#454 = SURFACE_STYLE_USAGE(.BOTH.,#455);
#455 = SURFACE_SIDE_STYLE('',(#456));
#456 = SURFACE_STYLE_FILL_AREA(#457);
#457 = FILL_AREA_STYLE('',(#458));
#458 = FILL_AREA_STYLE_COLOUR('',#416);
ENDSEC;
END-ISO-10303-21;
