ISO-10303-21;
HEADER;
/* RV_Disc_D21.5mm_W6.5mm_P10mm.step 3D STEP model for use in ECAD systems
 * Copyright (C) 2018, kicad StepUp
 * 
 * This work is licensed under the [Creative Commons CC-BY-SA 4.0 License](https://creativecommons.org/licenses/by-sa/4.0/legalcode), 
 * with the following exception:
 * To the extent that the creation of electronic designs that use 'Licensed Material' can be considered to be 'Adapted Material', 
 * then the copyright holder waives article 3 of the license with respect to these designs and any generated files which use data provided 
 * as part of the 'Licensed Material'.
 * You are free to use the library data in your own projects without the obligation to share your project files under this or any other license agreement.
 * However, if you wish to redistribute these libraries, or parts thereof (including in modified form) as a collection then the exception above does not apply. 
 * Please refer to https://github.com/KiCad/kicad-packages3D/blob/master/LICENSE.md for further clarification of the exception.
 * Disclaimer of Warranties and Limitation of Liability.
 * These libraries are provided in the hope that they will be useful, but are provided without warranty of any kind, express or implied.
 * *USE 3D CAD DATA AT YOUR OWN RISK*
 * *DO NOT RELY UPON ANY INFORMATION FOUND HERE WITHOUT INDEPENDENT VERIFICATION.*
 * 
 */

FILE_DESCRIPTION(
/* description */ ('model of RV_Disc_D21.5mm_W6.5mm_P10mm'),
/* implementation_level */ '2;1');

FILE_NAME(
/* name */ 'RV_Disc_D21.5mm_W6.5mm_P10mm.step',
/* time_stamp */ '2018-11-11T21:04:57',
/* author */ ('kicad StepUp','ksu'),
/* organization */ ('FreeCAD'),
/* preprocessor_version */ 'OCC',
/* originating_system */ 'kicad StepUp',
/* authorisation */ '');

FILE_SCHEMA(('AUTOMOTIVE_DESIGN { 1 0 10303 214 1 1 1 1 }'));
ENDSEC;

DATA;
#1 = APPLICATION_PROTOCOL_DEFINITION('international standard',
'automotive_design',2000,#2);
#2 = APPLICATION_CONTEXT(
'core data for automotive mechanical design processes');
#3 = SHAPE_DEFINITION_REPRESENTATION(#4,#10);
#4 = PRODUCT_DEFINITION_SHAPE('','',#5);
#5 = PRODUCT_DEFINITION('design','',#6,#9);
#6 = PRODUCT_DEFINITION_FORMATION('','',#7);
#7 = PRODUCT('RV_Disc_D215mm_W65mm_P10mm','RV_Disc_D215mm_W65mm_P10mm',
'',(#8));
#8 = PRODUCT_CONTEXT('',#2,'mechanical');
#9 = PRODUCT_DEFINITION_CONTEXT('part definition',#2,'design');
#10 = ADVANCED_BREP_SHAPE_REPRESENTATION('',(#11,#15),#410);
#11 = AXIS2_PLACEMENT_3D('',#12,#13,#14);
#12 = CARTESIAN_POINT('',(0.E+000,0.E+000,0.E+000));
#13 = DIRECTION('',(0.E+000,0.E+000,1.));
#14 = DIRECTION('',(1.,0.E+000,-0.E+000));
#15 = MANIFOLD_SOLID_BREP('',#16);
#16 = CLOSED_SHELL('',(#17,#50,#165,#270,#279,#305,#314,#340,#366,#392,
#401));
#17 = ADVANCED_FACE('',(#18),#45,.T.);
#18 = FACE_BOUND('',#19,.F.);
#19 = EDGE_LOOP('',(#20,#30,#37,#38));
#20 = ORIENTED_EDGE('',*,*,#21,.T.);
#21 = EDGE_CURVE('',#22,#24,#26,.T.);
#22 = VERTEX_POINT('',#23);
#23 = CARTESIAN_POINT('',(15.75,-1.470731707317,10.78));
#24 = VERTEX_POINT('',#25);
#25 = CARTESIAN_POINT('',(15.75,-1.629268292683,10.78));
#26 = LINE('',#27,#28);
#27 = CARTESIAN_POINT('',(15.75,1.7,10.78));
#28 = VECTOR('',#29,1.);
#29 = DIRECTION('',(0.E+000,-1.,0.E+000));
#30 = ORIENTED_EDGE('',*,*,#31,.T.);
#31 = EDGE_CURVE('',#24,#24,#32,.T.);
#32 = CIRCLE('',#33,10.75);
#33 = AXIS2_PLACEMENT_3D('',#34,#35,#36);
#34 = CARTESIAN_POINT('',(5.,-1.629268292683,10.78));
#35 = DIRECTION('',(0.E+000,-1.,0.E+000));
#36 = DIRECTION('',(1.,0.E+000,0.E+000));
#37 = ORIENTED_EDGE('',*,*,#21,.F.);
#38 = ORIENTED_EDGE('',*,*,#39,.F.);
#39 = EDGE_CURVE('',#22,#22,#40,.T.);
#40 = CIRCLE('',#41,10.75);
#41 = AXIS2_PLACEMENT_3D('',#42,#43,#44);
#42 = CARTESIAN_POINT('',(5.,-1.470731707317,10.78));
#43 = DIRECTION('',(0.E+000,-1.,0.E+000));
#44 = DIRECTION('',(1.,0.E+000,0.E+000));
#45 = CYLINDRICAL_SURFACE('',#46,10.75);
#46 = AXIS2_PLACEMENT_3D('',#47,#48,#49);
#47 = CARTESIAN_POINT('',(5.,1.7,10.78));
#48 = DIRECTION('',(0.E+000,1.,0.E+000));
#49 = DIRECTION('',(1.,0.E+000,0.E+000));
#50 = ADVANCED_FACE('',(#51,#71),#160,.T.);
#51 = FACE_BOUND('',#52,.F.);
#52 = EDGE_LOOP('',(#53,#54,#63,#70));
#53 = ORIENTED_EDGE('',*,*,#39,.T.);
#54 = ORIENTED_EDGE('',*,*,#55,.T.);
#55 = EDGE_CURVE('',#22,#56,#58,.T.);
#56 = VERTEX_POINT('',#57);
#57 = CARTESIAN_POINT('',(12.579268292683,1.7,10.78));
#58 = CIRCLE('',#59,3.170731707317);
#59 = AXIS2_PLACEMENT_3D('',#60,#61,#62);
#60 = CARTESIAN_POINT('',(12.579268292683,-1.470731707317,10.78));
#61 = DIRECTION('',(0.E+000,0.E+000,1.));
#62 = DIRECTION('',(1.,0.E+000,0.E+000));
#63 = ORIENTED_EDGE('',*,*,#64,.F.);
#64 = EDGE_CURVE('',#56,#56,#65,.T.);
#65 = CIRCLE('',#66,7.579268292683);
#66 = AXIS2_PLACEMENT_3D('',#67,#68,#69);
#67 = CARTESIAN_POINT('',(5.,1.7,10.78));
#68 = DIRECTION('',(0.E+000,-1.,0.E+000));
#69 = DIRECTION('',(1.,0.E+000,0.E+000));
#70 = ORIENTED_EDGE('',*,*,#55,.F.);
#71 = FACE_BOUND('',#72,.F.);
#72 = EDGE_LOOP('',(#73,#106));
#73 = ORIENTED_EDGE('',*,*,#74,.T.);
#74 = EDGE_CURVE('',#75,#77,#79,.T.);
#75 = VERTEX_POINT('',#76);
#76 = CARTESIAN_POINT('',(0.45,0.E+000,1.441175486893));
#77 = VERTEX_POINT('',#78);
#78 = CARTESIAN_POINT('',(-0.258596002708,-0.368277215401,1.631479842586
));
#79 = B_SPLINE_CURVE_WITH_KNOTS('',7,(#80,#81,#82,#83,#84,#85,#86,#87,
#88,#89,#90,#91,#92,#93,#94,#95,#96,#97,#98,#99,#100,#101,#102,#103,
#104,#105),.UNSPECIFIED.,.F.,.F.,(8,6,6,6,8),(0.E+000,
9.640316435774E-002,0.290277544124,0.503026942721,1.),
.UNSPECIFIED.);
#80 = CARTESIAN_POINT('',(0.45,-5.551115123126E-017,1.441175486893));
#81 = CARTESIAN_POINT('',(0.45,-1.266903630037E-002,1.433796850612));
#82 = CARTESIAN_POINT('',(0.449584000693,-2.540150106908E-002,
1.426679716121));
#83 = CARTESIAN_POINT('',(0.448744208723,-3.818267569669E-002,
1.419836562669));
#84 = CARTESIAN_POINT('',(0.447473610851,-5.099662333052E-002,
1.413279603837));
#85 = CARTESIAN_POINT('',(0.445765973954,-6.382618887457E-002,
1.407020787536));
#86 = CARTESIAN_POINT('',(0.443615845024,-7.665299898956E-002,
1.401071796008));
#87 = CARTESIAN_POINT('',(0.435795188032,-0.115208248999,1.384126195592)
);
#88 = CARTESIAN_POINT('',(0.428763306735,-0.140871160698,1.374105998513)
);
#89 = CARTESIAN_POINT('',(0.419887378337,-0.166283811696,1.365477018577)
);
#90 = CARTESIAN_POINT('',(0.409152624896,-0.191265083341,1.358321387119)
);
#91 = CARTESIAN_POINT('',(0.396571736161,-0.215621831869,1.352704132492)
);
#92 = CARTESIAN_POINT('',(0.382191586261,-0.239155596436,1.348667509754)
);
#93 = CARTESIAN_POINT('',(0.348441681913,-0.286374884176,1.343545387779)
);
#94 = CARTESIAN_POINT('',(0.328718283704,-0.30985841228,1.342784853742)
);
#95 = CARTESIAN_POINT('',(0.307044855567,-0.331857261509,1.343964093458)
);
#96 = CARTESIAN_POINT('',(0.283583280106,-0.352134503532,1.347059363915)
);
#97 = CARTESIAN_POINT('',(0.258533992352,-0.370485389945,1.352009803066)
);
#98 = CARTESIAN_POINT('',(0.232127749386,-0.386743830552,1.358724419036)
);
#99 = CARTESIAN_POINT('',(0.140354456999,-0.43359745799,1.386628550764)
);
#100 = CARTESIAN_POINT('',(6.9614415217E-002,-0.454558407201,
1.415309506421));
#101 = CARTESIAN_POINT('',(-3.824105091091E-003,-0.461452517133,
1.451685085693));
#102 = CARTESIAN_POINT('',(-7.582420852352E-002,-0.454530335918,
1.493203880158));
#103 = CARTESIAN_POINT('',(-0.143411494825,-0.43542827403,1.537914829699
));
#104 = CARTESIAN_POINT('',(-0.204718662841,-0.406108675354,
1.584329283449));
#105 = CARTESIAN_POINT('',(-0.258596002708,-0.368277215401,
1.631479842586));
#106 = ORIENTED_EDGE('',*,*,#107,.T.);
#107 = EDGE_CURVE('',#77,#75,#108,.T.);
#108 = B_SPLINE_CURVE_WITH_KNOTS('',8,(#109,#110,#111,#112,#113,#114,
#115,#116,#117,#118,#119,#120,#121,#122,#123,#124,#125,#126,#127,
#128,#129,#130,#131,#132,#133,#134,#135,#136,#137,#138,#139,#140,
#141,#142,#143,#144,#145,#146,#147,#148,#149,#150,#151,#152,#153,
#154,#155,#156,#157,#158,#159),.UNSPECIFIED.,.F.,.F.,(9,7,7,7,7,7,7,
9),(0.E+000,9.022451969986E-002,0.346738711852,0.403440257378,
0.498734824539,0.705546522769,0.799661026562,1.),.UNSPECIFIED.);
#109 = CARTESIAN_POINT('',(-0.258596002708,-0.368277215401,
1.631479842586));
#110 = CARTESIAN_POINT('',(-0.275569539557,-0.356358778426,
1.646334171974));
#111 = CARTESIAN_POINT('',(-0.291830576387,-0.343605774128,
1.661268679699));
#112 = CARTESIAN_POINT('',(-0.307344088163,-0.330066130338,
1.676255255549));
#113 = CARTESIAN_POINT('',(-0.322078099378,-0.315787550223,
1.691267498711));
#114 = CARTESIAN_POINT('',(-0.336003368709,-0.300817442608,
1.706280341486));
#115 = CARTESIAN_POINT('',(-0.349093073663,-0.285202852294,
1.721269673016));
#116 = CARTESIAN_POINT('',(-0.361322495242,-0.268990390384,
1.736211963002));
#117 = CARTESIAN_POINT('',(-0.404926709846,-0.204564377686,
1.793365730528));
#118 = CARTESIAN_POINT('',(-0.430009071116,-0.152496491793,
1.835030857417));
#119 = CARTESIAN_POINT('',(-0.447459672256,-9.703850660636E-002,
1.875601779356));
#120 = CARTESIAN_POINT('',(-0.456838067536,-3.920604842387E-002,
1.91454617483));
#121 = CARTESIAN_POINT('',(-0.457746173074,1.990212753228E-002,
1.951215393977));
#122 = CARTESIAN_POINT('',(-0.449856596467,7.907272516891E-002,
1.984775406734));
#123 = CARTESIAN_POINT('',(-0.432952068036,0.136954280145,2.014143279204
));
#124 = CARTESIAN_POINT('',(-0.401245608601,0.20416401029,2.043202945467)
);
#125 = CARTESIAN_POINT('',(-0.395065020205,0.216188009218,2.048189670888
));
#126 = CARTESIAN_POINT('',(-0.388444396276,0.22805104286,2.052887351703)
);
#127 = CARTESIAN_POINT('',(-0.381385432115,0.239734209712,2.057280125035
));
#128 = CARTESIAN_POINT('',(-0.373891004804,0.251217807497,2.061351578062
));
#129 = CARTESIAN_POINT('',(-0.365965382017,0.262481468699,2.065084971651
));
#130 = CARTESIAN_POINT('',(-0.357614430842,0.273504296102,2.068463463976
));
#131 = CARTESIAN_POINT('',(-0.334109008764,0.302349804492,2.076523783561
));
#132 = CARTESIAN_POINT('',(-0.318190896626,0.319696222774,2.080528140587
));
#133 = CARTESIAN_POINT('',(-0.301129851838,0.336200210875,2.08340316151)
);
#134 = CARTESIAN_POINT('',(-0.282979598752,0.351755481463,2.085070792348
));
#135 = CARTESIAN_POINT('',(-0.263811823882,0.366257093923,2.085460415594
));
#136 = CARTESIAN_POINT('',(-0.243717646566,0.379605859156,2.084514863504
));
#137 = CARTESIAN_POINT('',(-0.222807960781,0.391713557405,2.082197197923
));
#138 = CARTESIAN_POINT('',(-0.154345723698,0.425937560044,2.070470681282
));
#139 = CARTESIAN_POINT('',(-0.103998150467,0.443311211416,2.05589416209)
);
#140 = CARTESIAN_POINT('',(-5.185314243584E-002,0.453575171338,
2.034622903625));
#141 = CARTESIAN_POINT('',(3.135053766283E-004,0.456607609702,
2.007341850451));
#142 = CARTESIAN_POINT('',(5.110625288764E-002,0.452937831178,
1.975323535464));
#143 = CARTESIAN_POINT('',(9.954408997609E-002,0.443301262467,
1.939912911095));
#144 = CARTESIAN_POINT('',(0.14498351099,0.428507297287,1.902322777934)
);
#145 = CARTESIAN_POINT('',(0.2061868475,0.400537009246,1.845882274224));
#146 = CARTESIAN_POINT('',(0.224680323972,0.390848629208,1.827934676664)
);
#147 = CARTESIAN_POINT('',(0.242502577821,0.380271003363,1.809763941092)
);
#148 = CARTESIAN_POINT('',(0.259632527505,0.36885075137,1.791437234044)
);
#149 = CARTESIAN_POINT('',(0.27605057003,0.356630114589,1.773016752124)
);
#150 = CARTESIAN_POINT('',(0.291737751695,0.34364740019,1.754560308668)
);
#151 = CARTESIAN_POINT('',(0.306674938836,0.329937425266,1.736121920401)
);
#152 = CARTESIAN_POINT('',(0.350999000353,0.284867442509,1.678649685239)
);
#153 = CARTESIAN_POINT('',(0.377649420995,0.251069221294,1.639881575123)
);
#154 = CARTESIAN_POINT('',(0.400617067104,0.214436442234,1.601921948311)
);
#155 = CARTESIAN_POINT('',(0.419660550088,0.175242453174,1.565235599839)
);
#156 = CARTESIAN_POINT('',(0.434475657277,0.133784299075,1.530304020246)
);
#157 = CARTESIAN_POINT('',(0.444711438771,9.042542581293E-002,
1.497634422337));
#158 = CARTESIAN_POINT('',(0.45,4.563159359952E-002,1.46775200969));
#159 = CARTESIAN_POINT('',(0.45,-5.551115123126E-017,1.441175486893));
#160 = TOROIDAL_SURFACE('',#161,7.579268292683,3.170731707317);
#161 = AXIS2_PLACEMENT_3D('',#162,#163,#164);
#162 = CARTESIAN_POINT('',(5.,-1.470731707317,10.78));
#163 = DIRECTION('',(0.E+000,1.,0.E+000));
#164 = DIRECTION('',(1.,0.E+000,0.E+000));
#165 = ADVANCED_FACE('',(#166,#186),#265,.T.);
#166 = FACE_BOUND('',#167,.T.);
#167 = EDGE_LOOP('',(#168,#169,#178,#185));
#168 = ORIENTED_EDGE('',*,*,#31,.T.);
#169 = ORIENTED_EDGE('',*,*,#170,.T.);
#170 = EDGE_CURVE('',#24,#171,#173,.T.);
#171 = VERTEX_POINT('',#172);
#172 = CARTESIAN_POINT('',(12.579268292683,-4.8,10.78));
#173 = CIRCLE('',#174,3.170731707317);
#174 = AXIS2_PLACEMENT_3D('',#175,#176,#177);
#175 = CARTESIAN_POINT('',(12.579268292683,-1.629268292683,10.78));
#176 = DIRECTION('',(0.E+000,0.E+000,-1.));
#177 = DIRECTION('',(1.,0.E+000,0.E+000));
#178 = ORIENTED_EDGE('',*,*,#179,.F.);
#179 = EDGE_CURVE('',#171,#171,#180,.T.);
#180 = CIRCLE('',#181,7.579268292683);
#181 = AXIS2_PLACEMENT_3D('',#182,#183,#184);
#182 = CARTESIAN_POINT('',(5.,-4.8,10.78));
#183 = DIRECTION('',(0.E+000,-1.,0.E+000));
#184 = DIRECTION('',(1.,0.E+000,0.E+000));
#185 = ORIENTED_EDGE('',*,*,#170,.F.);
#186 = FACE_BOUND('',#187,.T.);
#187 = EDGE_LOOP('',(#188,#218));
#188 = ORIENTED_EDGE('',*,*,#189,.T.);
#189 = EDGE_CURVE('',#190,#192,#194,.T.);
#190 = VERTEX_POINT('',#191);
#191 = CARTESIAN_POINT('',(10.45,-3.1,1.936152235219));
#192 = VERTEX_POINT('',#193);
#193 = CARTESIAN_POINT('',(9.629634685021,-2.844403573068,1.346929898237
));
#194 = B_SPLINE_CURVE_WITH_KNOTS('',8,(#195,#196,#197,#198,#199,#200,
#201,#202,#203,#204,#205,#206,#207,#208,#209,#210,#211,#212,#213,
#214,#215,#216,#217),.UNSPECIFIED.,.F.,.F.,(9,7,7,9),(0.E+000,
0.247177309931,0.561164678907,1.),.UNSPECIFIED.);
#195 = CARTESIAN_POINT('',(10.45,-3.1,1.936152235219));
#196 = CARTESIAN_POINT('',(10.45,-3.06634247669,1.915452459779));
#197 = CARTESIAN_POINT('',(10.44712298343,-3.032892050516,1.893812194539
));
#198 = CARTESIAN_POINT('',(10.441430849457,-2.99987770996,1.871392411866
));
#199 = CARTESIAN_POINT('',(10.432991791723,-2.967519250203,
1.848333128035));
#200 = CARTESIAN_POINT('',(10.421880956378,-2.93602942613,1.82475804468)
);
#201 = CARTESIAN_POINT('',(10.408181100096,-2.905616105352,
1.800779190251));
#202 = CARTESIAN_POINT('',(10.39198324811,-2.876484421211,1.776501561462
));
#203 = CARTESIAN_POINT('',(10.349765133741,-2.813721073066,
1.720938895626));
#204 = CARTESIAN_POINT('',(10.322285624061,-2.781019568895,
1.689549505374));
#205 = CARTESIAN_POINT('',(10.291150605697,-2.751134356475,
1.658056778002));
#206 = CARTESIAN_POINT('',(10.256592605271,-2.724492834823,
1.626671871389));
#207 = CARTESIAN_POINT('',(10.218900385387,-2.701543603568,
1.595635138364));
#208 = CARTESIAN_POINT('',(10.178439548044,-2.682743259373,1.56523022599
));
#209 = CARTESIAN_POINT('',(10.135668249575,-2.668536244007,
1.535797053065));
#210 = CARTESIAN_POINT('',(10.028925632068,-2.646457751738,
1.468535664468));
#211 = CARTESIAN_POINT('',(9.963054589589,-2.643303452409,1.431876293415
));
#212 = CARTESIAN_POINT('',(9.895863217081,-2.651272460248,1.399444133563
));
#213 = CARTESIAN_POINT('',(9.830091021522,-2.670856972996,1.372821443211
));
#214 = CARTESIAN_POINT('',(9.768463938161,-2.70157357728,1.35341152141)
);
#215 = CARTESIAN_POINT('',(9.713400546334,-2.742146991659,1.342367316448
));
#216 = CARTESIAN_POINT('',(9.66677912156,-2.790580399155,1.340283378807)
);
#217 = CARTESIAN_POINT('',(9.629634685021,-2.844403573068,1.346929898237
));
#218 = ORIENTED_EDGE('',*,*,#219,.T.);
#219 = EDGE_CURVE('',#192,#190,#220,.T.);
#220 = B_SPLINE_CURVE_WITH_KNOTS('',8,(#221,#222,#223,#224,#225,#226,
#227,#228,#229,#230,#231,#232,#233,#234,#235,#236,#237,#238,#239,
#240,#241,#242,#243,#244,#245,#246,#247,#248,#249,#250,#251,#252,
#253,#254,#255,#256,#257,#258,#259,#260,#261,#262,#263,#264),
.UNSPECIFIED.,.F.,.F.,(9,7,7,7,7,7,9),(0.E+000,0.182808339722,
0.380737538646,0.557924938724,0.810344776887,0.862892770059,1.),
.UNSPECIFIED.);
#221 = CARTESIAN_POINT('',(9.629634685021,-2.844403573068,1.346929898237
));
#222 = CARTESIAN_POINT('',(9.606459433392,-2.877985065079,1.3510768116)
);
#223 = CARTESIAN_POINT('',(9.586974093295,-2.913663651228,1.358622024128
));
#224 = CARTESIAN_POINT('',(9.571428152268,-2.950841712068,1.369510525138
));
#225 = CARTESIAN_POINT('',(9.559897989755,-2.98892058301,1.383571413317)
);
#226 = CARTESIAN_POINT('',(9.552331615985,-3.027349931721,1.400555054418
));
#227 = CARTESIAN_POINT('',(9.548590133053,-3.065655865592,1.420165623135
));
#228 = CARTESIAN_POINT('',(9.548485918191,-3.103447769283,1.442089029155
));
#229 = CARTESIAN_POINT('',(9.555424712069,-3.180416772627,1.491922546446
));
#230 = CARTESIAN_POINT('',(9.563059787463,-3.219453333224,1.520179720743
));
#231 = CARTESIAN_POINT('',(9.574469986587,-3.257145337233,1.550420340651
));
#232 = CARTESIAN_POINT('',(9.589401805729,-3.293196698789,1.582280174001
));
#233 = CARTESIAN_POINT('',(9.607619670407,-3.327365678616,1.615406939202
));
#234 = CARTESIAN_POINT('',(9.628918764719,-3.359444097042,1.649461327773
));
#235 = CARTESIAN_POINT('',(9.653132025913,-3.389233544488,1.684110276251
));
#236 = CARTESIAN_POINT('',(9.704301219233,-3.440944324455,1.750257155291
));
#237 = CARTESIAN_POINT('',(9.730680522091,-3.463339577995,1.781674812297
));
#238 = CARTESIAN_POINT('',(9.759184820196,-3.483569671939,1.813037258051
));
#239 = CARTESIAN_POINT('',(9.789733697039,-3.501455993223,1.844078657174
));
#240 = CARTESIAN_POINT('',(9.822234092813,-3.516775218191,1.874480094073
));
#241 = CARTESIAN_POINT('',(9.856561415398,-3.529262042413,1.903863426255
));
#242 = CARTESIAN_POINT('',(9.892538381675,-3.538615415964,1.931794436269
));
#243 = CARTESIAN_POINT('',(9.983153179636,-3.552903219842,1.994835891987
));
#244 = CARTESIAN_POINT('',(10.039689469244,-3.554348550477,
2.028280410342));
#245 = CARTESIAN_POINT('',(10.097669372182,-3.547497423874,
2.055796519868));
#246 = CARTESIAN_POINT('',(10.154952836624,-3.531801061989,
2.075575360561));
#247 = CARTESIAN_POINT('',(10.209394445189,-3.507515809129,
2.086779931208));
#248 = CARTESIAN_POINT('',(10.259101688619,-3.475622228451,
2.089668379407));
#249 = CARTESIAN_POINT('',(10.30271062144,-3.43764667356,2.085131117076)
);
#250 = CARTESIAN_POINT('',(10.347142378403,-3.386580190926,
2.072204931518));
#251 = CARTESIAN_POINT('',(10.354510372639,-3.37758563355,2.069708221716
));
#252 = CARTESIAN_POINT('',(10.36158518224,-3.368408262545,2.066951756208
));
#253 = CARTESIAN_POINT('',(10.368362488342,-3.35906058223,2.063945384905
));
#254 = CARTESIAN_POINT('',(10.374838853016,-3.349554880492,
2.060699006537));
#255 = CARTESIAN_POINT('',(10.381011628515,-3.339903155926,
2.057222453592));
#256 = CARTESIAN_POINT('',(10.386878866534,-3.330117044976,
2.053525377255));
#257 = CARTESIAN_POINT('',(10.406947216019,-3.29435260162,2.039419813665
));
#258 = CARTESIAN_POINT('',(10.419363264237,-3.267663766751,
2.027786824528));
#259 = CARTESIAN_POINT('',(10.429668261167,-3.24033519451,2.014883507842
));
#260 = CARTESIAN_POINT('',(10.437863489351,-3.212548923222,2.00086359093
));
#261 = CARTESIAN_POINT('',(10.44396523128,-3.184473643653,1.985865955789
));
#262 = CARTESIAN_POINT('',(10.447999943732,-3.156264323993,
1.970013094302));
#263 = CARTESIAN_POINT('',(10.45,-3.128062895674,1.953411248407));
#264 = CARTESIAN_POINT('',(10.45,-3.1,1.936152235219));
#265 = TOROIDAL_SURFACE('',#266,7.579268292683,3.170731707317);
#266 = AXIS2_PLACEMENT_3D('',#267,#268,#269);
#267 = CARTESIAN_POINT('',(5.,-1.629268292683,10.78));
#268 = DIRECTION('',(0.E+000,-1.,0.E+000));
#269 = DIRECTION('',(1.,0.E+000,0.E+000));
#270 = ADVANCED_FACE('',(#271),#274,.F.);
#271 = FACE_BOUND('',#272,.F.);
#272 = EDGE_LOOP('',(#273));
#273 = ORIENTED_EDGE('',*,*,#64,.T.);
#274 = PLANE('',#275);
#275 = AXIS2_PLACEMENT_3D('',#276,#277,#278);
#276 = CARTESIAN_POINT('',(5.,1.7,10.78));
#277 = DIRECTION('',(-0.E+000,-1.,-0.E+000));
#278 = DIRECTION('',(0.E+000,0.E+000,-1.));
#279 = ADVANCED_FACE('',(#280),#300,.T.);
#280 = FACE_BOUND('',#281,.T.);
#281 = EDGE_LOOP('',(#282,#283,#291,#298,#299));
#282 = ORIENTED_EDGE('',*,*,#107,.T.);
#283 = ORIENTED_EDGE('',*,*,#284,.T.);
#284 = EDGE_CURVE('',#75,#285,#287,.T.);
#285 = VERTEX_POINT('',#286);
#286 = CARTESIAN_POINT('',(0.45,0.E+000,-2.82));
#287 = LINE('',#288,#289);
#288 = CARTESIAN_POINT('',(0.45,0.E+000,10.78));
#289 = VECTOR('',#290,1.);
#290 = DIRECTION('',(-0.E+000,-0.E+000,-1.));
#291 = ORIENTED_EDGE('',*,*,#292,.T.);
#292 = EDGE_CURVE('',#285,#285,#293,.T.);
#293 = CIRCLE('',#294,0.45);
#294 = AXIS2_PLACEMENT_3D('',#295,#296,#297);
#295 = CARTESIAN_POINT('',(0.E+000,0.E+000,-2.82));
#296 = DIRECTION('',(0.E+000,0.E+000,1.));
#297 = DIRECTION('',(1.,0.E+000,0.E+000));
#298 = ORIENTED_EDGE('',*,*,#284,.F.);
#299 = ORIENTED_EDGE('',*,*,#74,.T.);
#300 = CYLINDRICAL_SURFACE('',#301,0.45);
#301 = AXIS2_PLACEMENT_3D('',#302,#303,#304);
#302 = CARTESIAN_POINT('',(0.E+000,0.E+000,10.78));
#303 = DIRECTION('',(0.E+000,0.E+000,1.));
#304 = DIRECTION('',(1.,0.E+000,0.E+000));
#305 = ADVANCED_FACE('',(#306),#309,.T.);
#306 = FACE_BOUND('',#307,.T.);
#307 = EDGE_LOOP('',(#308));
#308 = ORIENTED_EDGE('',*,*,#179,.T.);
#309 = PLANE('',#310);
#310 = AXIS2_PLACEMENT_3D('',#311,#312,#313);
#311 = CARTESIAN_POINT('',(5.,-4.8,10.78));
#312 = DIRECTION('',(-0.E+000,-1.,-0.E+000));
#313 = DIRECTION('',(0.E+000,0.E+000,-1.));
#314 = ADVANCED_FACE('',(#315),#335,.T.);
#315 = FACE_BOUND('',#316,.T.);
#316 = EDGE_LOOP('',(#317,#318,#326,#333,#334));
#317 = ORIENTED_EDGE('',*,*,#189,.F.);
#318 = ORIENTED_EDGE('',*,*,#319,.T.);
#319 = EDGE_CURVE('',#190,#320,#322,.T.);
#320 = VERTEX_POINT('',#321);
#321 = CARTESIAN_POINT('',(10.45,-3.1,-2.82));
#322 = LINE('',#323,#324);
#323 = CARTESIAN_POINT('',(10.45,-3.1,10.78));
#324 = VECTOR('',#325,1.);
#325 = DIRECTION('',(-0.E+000,-0.E+000,-1.));
#326 = ORIENTED_EDGE('',*,*,#327,.T.);
#327 = EDGE_CURVE('',#320,#320,#328,.T.);
#328 = CIRCLE('',#329,0.45);
#329 = AXIS2_PLACEMENT_3D('',#330,#331,#332);
#330 = CARTESIAN_POINT('',(10.,-3.1,-2.82));
#331 = DIRECTION('',(0.E+000,0.E+000,1.));
#332 = DIRECTION('',(1.,0.E+000,0.E+000));
#333 = ORIENTED_EDGE('',*,*,#319,.F.);
#334 = ORIENTED_EDGE('',*,*,#219,.F.);
#335 = CYLINDRICAL_SURFACE('',#336,0.45);
#336 = AXIS2_PLACEMENT_3D('',#337,#338,#339);
#337 = CARTESIAN_POINT('',(10.,-3.1,10.78));
#338 = DIRECTION('',(0.E+000,0.E+000,1.));
#339 = DIRECTION('',(1.,0.E+000,0.E+000));
#340 = ADVANCED_FACE('',(#341),#361,.T.);
#341 = FACE_BOUND('',#342,.F.);
#342 = EDGE_LOOP('',(#343,#352,#353,#354));
#343 = ORIENTED_EDGE('',*,*,#344,.F.);
#344 = EDGE_CURVE('',#285,#345,#347,.T.);
#345 = VERTEX_POINT('',#346);
#346 = CARTESIAN_POINT('',(0.27,0.E+000,-3.));
#347 = CIRCLE('',#348,0.18);
#348 = AXIS2_PLACEMENT_3D('',#349,#350,#351);
#349 = CARTESIAN_POINT('',(0.27,0.E+000,-2.82));
#350 = DIRECTION('',(-0.E+000,1.,0.E+000));
#351 = DIRECTION('',(1.,0.E+000,0.E+000));
#352 = ORIENTED_EDGE('',*,*,#292,.T.);
#353 = ORIENTED_EDGE('',*,*,#344,.T.);
#354 = ORIENTED_EDGE('',*,*,#355,.F.);
#355 = EDGE_CURVE('',#345,#345,#356,.T.);
#356 = CIRCLE('',#357,0.27);
#357 = AXIS2_PLACEMENT_3D('',#358,#359,#360);
#358 = CARTESIAN_POINT('',(0.E+000,0.E+000,-3.));
#359 = DIRECTION('',(0.E+000,0.E+000,1.));
#360 = DIRECTION('',(1.,0.E+000,0.E+000));
#361 = TOROIDAL_SURFACE('',#362,0.27,0.18);
#362 = AXIS2_PLACEMENT_3D('',#363,#364,#365);
#363 = CARTESIAN_POINT('',(0.E+000,0.E+000,-2.82));
#364 = DIRECTION('',(-0.E+000,-0.E+000,-1.));
#365 = DIRECTION('',(1.,0.E+000,0.E+000));
#366 = ADVANCED_FACE('',(#367),#387,.T.);
#367 = FACE_BOUND('',#368,.F.);
#368 = EDGE_LOOP('',(#369,#378,#379,#380));
#369 = ORIENTED_EDGE('',*,*,#370,.F.);
#370 = EDGE_CURVE('',#320,#371,#373,.T.);
#371 = VERTEX_POINT('',#372);
#372 = CARTESIAN_POINT('',(10.27,-3.1,-3.));
#373 = CIRCLE('',#374,0.18);
#374 = AXIS2_PLACEMENT_3D('',#375,#376,#377);
#375 = CARTESIAN_POINT('',(10.27,-3.1,-2.82));
#376 = DIRECTION('',(-0.E+000,1.,0.E+000));
#377 = DIRECTION('',(1.,0.E+000,0.E+000));
#378 = ORIENTED_EDGE('',*,*,#327,.T.);
#379 = ORIENTED_EDGE('',*,*,#370,.T.);
#380 = ORIENTED_EDGE('',*,*,#381,.F.);
#381 = EDGE_CURVE('',#371,#371,#382,.T.);
#382 = CIRCLE('',#383,0.27);
#383 = AXIS2_PLACEMENT_3D('',#384,#385,#386);
#384 = CARTESIAN_POINT('',(10.,-3.1,-3.));
#385 = DIRECTION('',(0.E+000,0.E+000,1.));
#386 = DIRECTION('',(1.,0.E+000,0.E+000));
#387 = TOROIDAL_SURFACE('',#388,0.27,0.18);
#388 = AXIS2_PLACEMENT_3D('',#389,#390,#391);
#389 = CARTESIAN_POINT('',(10.,-3.1,-2.82));
#390 = DIRECTION('',(-0.E+000,-0.E+000,-1.));
#391 = DIRECTION('',(1.,0.E+000,0.E+000));
#392 = ADVANCED_FACE('',(#393),#396,.F.);
#393 = FACE_BOUND('',#394,.F.);
#394 = EDGE_LOOP('',(#395));
#395 = ORIENTED_EDGE('',*,*,#355,.T.);
#396 = PLANE('',#397);
#397 = AXIS2_PLACEMENT_3D('',#398,#399,#400);
#398 = CARTESIAN_POINT('',(-1.18701400394E-017,2.911085817041E-017,-3.)
);
#399 = DIRECTION('',(0.E+000,0.E+000,1.));
#400 = DIRECTION('',(1.,0.E+000,0.E+000));
#401 = ADVANCED_FACE('',(#402),#405,.F.);
#402 = FACE_BOUND('',#403,.F.);
#403 = EDGE_LOOP('',(#404));
#404 = ORIENTED_EDGE('',*,*,#381,.T.);
#405 = PLANE('',#406);
#406 = AXIS2_PLACEMENT_3D('',#407,#408,#409);
#407 = CARTESIAN_POINT('',(10.,-3.1,-3.));
#408 = DIRECTION('',(0.E+000,0.E+000,1.));
#409 = DIRECTION('',(1.,0.E+000,0.E+000));
#410 = ( GEOMETRIC_REPRESENTATION_CONTEXT(3)
GLOBAL_UNCERTAINTY_ASSIGNED_CONTEXT((#414)) GLOBAL_UNIT_ASSIGNED_CONTEXT
((#411,#412,#413)) REPRESENTATION_CONTEXT('Context #1',
'3D Context with UNIT and UNCERTAINTY') );
#411 = ( LENGTH_UNIT() NAMED_UNIT(*) SI_UNIT(.MILLI.,.METRE.) );
#412 = ( NAMED_UNIT(*) PLANE_ANGLE_UNIT() SI_UNIT($,.RADIAN.) );
#413 = ( NAMED_UNIT(*) SI_UNIT($,.STERADIAN.) SOLID_ANGLE_UNIT() );
#414 = UNCERTAINTY_MEASURE_WITH_UNIT(LENGTH_MEASURE(1.E-007),#411,
'distance_accuracy_value','confusion accuracy');
#415 = PRODUCT_RELATED_PRODUCT_CATEGORY('part',$,(#7));
#416 = MECHANICAL_DESIGN_GEOMETRIC_PRESENTATION_REPRESENTATION('',(#417,
#425,#432,#439,#446,#454,#461,#468,#475,#482,#489),#410);
#417 = STYLED_ITEM('color',(#418),#17);
#418 = PRESENTATION_STYLE_ASSIGNMENT((#419));
#419 = SURFACE_STYLE_USAGE(.BOTH.,#420);
#420 = SURFACE_SIDE_STYLE('',(#421));
#421 = SURFACE_STYLE_FILL_AREA(#422);
#422 = FILL_AREA_STYLE('',(#423));
#423 = FILL_AREA_STYLE_COLOUR('',#424);
#424 = COLOUR_RGB('',0.136999994516,0.402000010014,0.726999998093);
#425 = STYLED_ITEM('color',(#426),#50);
#426 = PRESENTATION_STYLE_ASSIGNMENT((#427));
#427 = SURFACE_STYLE_USAGE(.BOTH.,#428);
#428 = SURFACE_SIDE_STYLE('',(#429));
#429 = SURFACE_STYLE_FILL_AREA(#430);
#430 = FILL_AREA_STYLE('',(#431));
#431 = FILL_AREA_STYLE_COLOUR('',#424);
#432 = STYLED_ITEM('color',(#433),#165);
#433 = PRESENTATION_STYLE_ASSIGNMENT((#434));
#434 = SURFACE_STYLE_USAGE(.BOTH.,#435);
#435 = SURFACE_SIDE_STYLE('',(#436));
#436 = SURFACE_STYLE_FILL_AREA(#437);
#437 = FILL_AREA_STYLE('',(#438));
#438 = FILL_AREA_STYLE_COLOUR('',#424);
#439 = STYLED_ITEM('color',(#440),#270);
#440 = PRESENTATION_STYLE_ASSIGNMENT((#441));
#441 = SURFACE_STYLE_USAGE(.BOTH.,#442);
#442 = SURFACE_SIDE_STYLE('',(#443));
#443 = SURFACE_STYLE_FILL_AREA(#444);
#444 = FILL_AREA_STYLE('',(#445));
#445 = FILL_AREA_STYLE_COLOUR('',#424);
#446 = STYLED_ITEM('color',(#447),#279);
#447 = PRESENTATION_STYLE_ASSIGNMENT((#448));
#448 = SURFACE_STYLE_USAGE(.BOTH.,#449);
#449 = SURFACE_SIDE_STYLE('',(#450));
#450 = SURFACE_STYLE_FILL_AREA(#451);
#451 = FILL_AREA_STYLE('',(#452));
#452 = FILL_AREA_STYLE_COLOUR('',#453);
#453 = COLOUR_RGB('',0.824000000954,0.819999992847,0.78100001812);
#454 = STYLED_ITEM('color',(#455),#305);
#455 = PRESENTATION_STYLE_ASSIGNMENT((#456));
#456 = SURFACE_STYLE_USAGE(.BOTH.,#457);
#457 = SURFACE_SIDE_STYLE('',(#458));
#458 = SURFACE_STYLE_FILL_AREA(#459);
#459 = FILL_AREA_STYLE('',(#460));
#460 = FILL_AREA_STYLE_COLOUR('',#424);
#461 = STYLED_ITEM('color',(#462),#314);
#462 = PRESENTATION_STYLE_ASSIGNMENT((#463));
#463 = SURFACE_STYLE_USAGE(.BOTH.,#464);
#464 = SURFACE_SIDE_STYLE('',(#465));
#465 = SURFACE_STYLE_FILL_AREA(#466);
#466 = FILL_AREA_STYLE('',(#467));
#467 = FILL_AREA_STYLE_COLOUR('',#453);
#468 = STYLED_ITEM('color',(#469),#340);
#469 = PRESENTATION_STYLE_ASSIGNMENT((#470));
#470 = SURFACE_STYLE_USAGE(.BOTH.,#471);
#471 = SURFACE_SIDE_STYLE('',(#472));
#472 = SURFACE_STYLE_FILL_AREA(#473);
#473 = FILL_AREA_STYLE('',(#474));
#474 = FILL_AREA_STYLE_COLOUR('',#453);
#475 = STYLED_ITEM('color',(#476),#366);
#476 = PRESENTATION_STYLE_ASSIGNMENT((#477));
#477 = SURFACE_STYLE_USAGE(.BOTH.,#478);
#478 = SURFACE_SIDE_STYLE('',(#479));
#479 = SURFACE_STYLE_FILL_AREA(#480);
#480 = FILL_AREA_STYLE('',(#481));
#481 = FILL_AREA_STYLE_COLOUR('',#453);
#482 = STYLED_ITEM('color',(#483),#392);
#483 = PRESENTATION_STYLE_ASSIGNMENT((#484));
#484 = SURFACE_STYLE_USAGE(.BOTH.,#485);
#485 = SURFACE_SIDE_STYLE('',(#486));
#486 = SURFACE_STYLE_FILL_AREA(#487);
#487 = FILL_AREA_STYLE('',(#488));
#488 = FILL_AREA_STYLE_COLOUR('',#453);
#489 = STYLED_ITEM('color',(#490),#401);
#490 = PRESENTATION_STYLE_ASSIGNMENT((#491));
#491 = SURFACE_STYLE_USAGE(.BOTH.,#492);
#492 = SURFACE_SIDE_STYLE('',(#493));
#493 = SURFACE_STYLE_FILL_AREA(#494);
#494 = FILL_AREA_STYLE('',(#495));
#495 = FILL_AREA_STYLE_COLOUR('',#453);
ENDSEC;
END-ISO-10303-21;
