ISO-10303-21;
HEADER;
/* RV_Disc_D21.5mm_W5.3mm_P10mm.step 3D STEP model for use in ECAD systems
 * Copyright (C) 2018, kicad StepUp
 * 
 * This work is licensed under the [Creative Commons CC-BY-SA 4.0 License](https://creativecommons.org/licenses/by-sa/4.0/legalcode), 
 * with the following exception:
 * To the extent that the creation of electronic designs that use 'Licensed Material' can be considered to be 'Adapted Material', 
 * then the copyright holder waives article 3 of the license with respect to these designs and any generated files which use data provided 
 * as part of the 'Licensed Material'.
 * You are free to use the library data in your own projects without the obligation to share your project files under this or any other license agreement.
 * However, if you wish to redistribute these libraries, or parts thereof (including in modified form) as a collection then the exception above does not apply. 
 * Please refer to https://github.com/KiCad/kicad-packages3D/blob/master/LICENSE.md for further clarification of the exception.
 * Disclaimer of Warranties and Limitation of Liability.
 * These libraries are provided in the hope that they will be useful, but are provided without warranty of any kind, express or implied.
 * *USE 3D CAD DATA AT YOUR OWN RISK*
 * *DO NOT RELY UPON ANY INFORMATION FOUND HERE WITHOUT INDEPENDENT VERIFICATION.*
 * 
 */

FILE_DESCRIPTION(
/* description */ ('model of RV_Disc_D21.5mm_W5.3mm_P10mm'),
/* implementation_level */ '2;1');

FILE_NAME(
/* name */ 'RV_Disc_D21.5mm_W5.3mm_P10mm.step',
/* time_stamp */ '2018-11-11T21:03:43',
/* author */ ('kicad StepUp','ksu'),
/* organization */ ('FreeCAD'),
/* preprocessor_version */ 'OCC',
/* originating_system */ 'kicad StepUp',
/* authorisation */ '');

FILE_SCHEMA(('AUTOMOTIVE_DESIGN { 1 0 10303 214 1 1 1 1 }'));
ENDSEC;

DATA;
#1 = APPLICATION_PROTOCOL_DEFINITION('international standard',
'automotive_design',2000,#2);
#2 = APPLICATION_CONTEXT(
'core data for automotive mechanical design processes');
#3 = SHAPE_DEFINITION_REPRESENTATION(#4,#10);
#4 = PRODUCT_DEFINITION_SHAPE('','',#5);
#5 = PRODUCT_DEFINITION('design','',#6,#9);
#6 = PRODUCT_DEFINITION_FORMATION('','',#7);
#7 = PRODUCT('RV_Disc_D215mm_W53mm_P10mm','RV_Disc_D215mm_W53mm_P10mm',
'',(#8));
#8 = PRODUCT_CONTEXT('',#2,'mechanical');
#9 = PRODUCT_DEFINITION_CONTEXT('part definition',#2,'design');
#10 = ADVANCED_BREP_SHAPE_REPRESENTATION('',(#11,#15),#391);
#11 = AXIS2_PLACEMENT_3D('',#12,#13,#14);
#12 = CARTESIAN_POINT('',(0.E+000,0.E+000,0.E+000));
#13 = DIRECTION('',(0.E+000,0.E+000,1.));
#14 = DIRECTION('',(1.,0.E+000,-0.E+000));
#15 = MANIFOLD_SOLID_BREP('',#16);
#16 = CLOSED_SHELL('',(#17,#50,#155,#251,#260,#286,#295,#321,#347,#373,
#382));
#17 = ADVANCED_FACE('',(#18),#45,.T.);
#18 = FACE_BOUND('',#19,.F.);
#19 = EDGE_LOOP('',(#20,#30,#37,#38));
#20 = ORIENTED_EDGE('',*,*,#21,.T.);
#21 = EDGE_CURVE('',#22,#24,#26,.T.);
#22 = VERTEX_POINT('',#23);
#23 = CARTESIAN_POINT('',(15.75,-1.035365853659,10.78));
#24 = VERTEX_POINT('',#25);
#25 = CARTESIAN_POINT('',(15.75,-1.164634146341,10.78));
#26 = LINE('',#27,#28);
#27 = CARTESIAN_POINT('',(15.75,1.55,10.78));
#28 = VECTOR('',#29,1.);
#29 = DIRECTION('',(0.E+000,-1.,0.E+000));
#30 = ORIENTED_EDGE('',*,*,#31,.T.);
#31 = EDGE_CURVE('',#24,#24,#32,.T.);
#32 = CIRCLE('',#33,10.75);
#33 = AXIS2_PLACEMENT_3D('',#34,#35,#36);
#34 = CARTESIAN_POINT('',(5.,-1.164634146341,10.78));
#35 = DIRECTION('',(0.E+000,-1.,0.E+000));
#36 = DIRECTION('',(1.,0.E+000,0.E+000));
#37 = ORIENTED_EDGE('',*,*,#21,.F.);
#38 = ORIENTED_EDGE('',*,*,#39,.F.);
#39 = EDGE_CURVE('',#22,#22,#40,.T.);
#40 = CIRCLE('',#41,10.75);
#41 = AXIS2_PLACEMENT_3D('',#42,#43,#44);
#42 = CARTESIAN_POINT('',(5.,-1.035365853659,10.78));
#43 = DIRECTION('',(0.E+000,-1.,0.E+000));
#44 = DIRECTION('',(1.,0.E+000,0.E+000));
#45 = CYLINDRICAL_SURFACE('',#46,10.75);
#46 = AXIS2_PLACEMENT_3D('',#47,#48,#49);
#47 = CARTESIAN_POINT('',(5.,1.55,10.78));
#48 = DIRECTION('',(0.E+000,1.,0.E+000));
#49 = DIRECTION('',(1.,0.E+000,0.E+000));
#50 = ADVANCED_FACE('',(#51,#71),#150,.T.);
#51 = FACE_BOUND('',#52,.F.);
#52 = EDGE_LOOP('',(#53,#54,#63,#70));
#53 = ORIENTED_EDGE('',*,*,#39,.T.);
#54 = ORIENTED_EDGE('',*,*,#55,.T.);
#55 = EDGE_CURVE('',#22,#56,#58,.T.);
#56 = VERTEX_POINT('',#57);
#57 = CARTESIAN_POINT('',(13.164634146341,1.55,10.78));
#58 = CIRCLE('',#59,2.585365853659);
#59 = AXIS2_PLACEMENT_3D('',#60,#61,#62);
#60 = CARTESIAN_POINT('',(13.164634146341,-1.035365853659,10.78));
#61 = DIRECTION('',(0.E+000,0.E+000,1.));
#62 = DIRECTION('',(1.,0.E+000,0.E+000));
#63 = ORIENTED_EDGE('',*,*,#64,.F.);
#64 = EDGE_CURVE('',#56,#56,#65,.T.);
#65 = CIRCLE('',#66,8.164634146341);
#66 = AXIS2_PLACEMENT_3D('',#67,#68,#69);
#67 = CARTESIAN_POINT('',(5.,1.55,10.78));
#68 = DIRECTION('',(0.E+000,-1.,0.E+000));
#69 = DIRECTION('',(1.,0.E+000,0.E+000));
#70 = ORIENTED_EDGE('',*,*,#55,.F.);
#71 = FACE_BOUND('',#72,.F.);
#72 = EDGE_LOOP('',(#73,#103));
#73 = ORIENTED_EDGE('',*,*,#74,.T.);
#74 = EDGE_CURVE('',#75,#77,#79,.T.);
#75 = VERTEX_POINT('',#76);
#76 = CARTESIAN_POINT('',(0.45,0.E+000,1.279745849427));
#77 = VERTEX_POINT('',#78);
#78 = CARTESIAN_POINT('',(-0.283167033749,-0.349737660251,1.524247314535
));
#79 = B_SPLINE_CURVE_WITH_KNOTS('',8,(#80,#81,#82,#83,#84,#85,#86,#87,
#88,#89,#90,#91,#92,#93,#94,#95,#96,#97,#98,#99,#100,#101,#102),
.UNSPECIFIED.,.F.,.F.,(9,7,7,9),(0.E+000,0.23373456355,0.442624871577,
1.),.UNSPECIFIED.);
#80 = CARTESIAN_POINT('',(0.45,-5.551115123126E-017,1.279745849427));
#81 = CARTESIAN_POINT('',(0.45,-2.786250971018E-002,1.266244013629));
#82 = CARTESIAN_POINT('',(0.448028368723,-5.599724238096E-002,
1.254053228282));
#83 = CARTESIAN_POINT('',(0.444017809191,-8.424485102586E-002,
1.243283801351));
#84 = CARTESIAN_POINT('',(0.437914522818,-0.112426744273,1.234036473513)
);
#85 = CARTESIAN_POINT('',(0.429685300497,-0.14034506692,1.226396789816)
);
#86 = CARTESIAN_POINT('',(0.419324655443,-0.16778562438,1.220429675599)
);
#87 = CARTESIAN_POINT('',(0.406861997791,-0.194523751015,1.216174216668)
);
#88 = CARTESIAN_POINT('',(0.379416218416,-0.243399148417,1.211372583473)
);
#89 = CARTESIAN_POINT('',(0.364839010416,-0.265728427269,1.210479726757)
);
#90 = CARTESIAN_POINT('',(0.34868690473,-0.28715867775,1.210967154756));
#91 = CARTESIAN_POINT('',(0.331030917908,-0.307536641347,1.212821304559)
);
#92 = CARTESIAN_POINT('',(0.311961081329,-0.326720051026,1.216010808062)
);
#93 = CARTESIAN_POINT('',(0.291584117286,-0.344579600051,1.220489330839)
);
#94 = CARTESIAN_POINT('',(0.270021115055,-0.361000910795,1.226198411019)
);
#95 = CARTESIAN_POINT('',(0.187059924375,-0.415605240443,1.251406328262)
);
#96 = CARTESIAN_POINT('',(0.118470442357,-0.444882252375,1.278248020425)
);
#97 = CARTESIAN_POINT('',(4.471824182484E-002,-0.46080489628,
1.312403634529));
#98 = CARTESIAN_POINT('',(-3.028555848607E-002,-0.462432867155,
1.351584347119));
#99 = CARTESIAN_POINT('',(-0.102995445059,-0.450377008874,1.393742592288
));
#100 = CARTESIAN_POINT('',(-0.170558130951,-0.426200121287,
1.437316310889));
#101 = CARTESIAN_POINT('',(-0.231019295563,-0.391959365309,
1.481110029718));
#102 = CARTESIAN_POINT('',(-0.283167033749,-0.349737660251,
1.524247314535));
#103 = ORIENTED_EDGE('',*,*,#104,.T.);
#104 = EDGE_CURVE('',#77,#75,#105,.T.);
#105 = B_SPLINE_CURVE_WITH_KNOTS('',7,(#106,#107,#108,#109,#110,#111,
#112,#113,#114,#115,#116,#117,#118,#119,#120,#121,#122,#123,#124,
#125,#126,#127,#128,#129,#130,#131,#132,#133,#134,#135,#136,#137,
#138,#139,#140,#141,#142,#143,#144,#145,#146,#147,#148,#149),
.UNSPECIFIED.,.F.,.F.,(8,6,6,6,6,6,6,8),(0.E+000,7.134886912374E-002,
0.342603662272,0.399131533548,0.495764955908,0.638783348774,
0.787432003589,1.),.UNSPECIFIED.);
#106 = CARTESIAN_POINT('',(-0.283167033749,-0.349737660251,
1.524247314535));
#107 = CARTESIAN_POINT('',(-0.297519310053,-0.338117260247,
1.536119703487));
#108 = CARTESIAN_POINT('',(-0.311260099964,-0.325854361698,
1.547967248489));
#109 = CARTESIAN_POINT('',(-0.324363278694,-0.31298585329,1.559774894115
));
#110 = CARTESIAN_POINT('',(-0.336804908799,-0.299548757263,
1.571528586566));
#111 = CARTESIAN_POINT('',(-0.348563064863,-0.285580164552,
1.583214959975));
#112 = CARTESIAN_POINT('',(-0.3596176582,-0.271117169925,1.594821022712)
);
#113 = CARTESIAN_POINT('',(-0.409232848871,-0.199472433324,
1.650103393357));
#114 = CARTESIAN_POINT('',(-0.438035315099,-0.13620143268,1.692475413575
));
#115 = CARTESIAN_POINT('',(-0.455453966356,-6.835282570451E-002,
1.732820110731));
#116 = CARTESIAN_POINT('',(-0.460746211784,2.081391904257E-003,
1.770410505363));
#117 = CARTESIAN_POINT('',(-0.45338850555,7.29021287682E-002,
1.804236925117));
#118 = CARTESIAN_POINT('',(-0.433136513858,0.141709723837,1.832749110382
));
#119 = CARTESIAN_POINT('',(-0.393333284408,0.219121588626,1.858181454184
));
#120 = CARTESIAN_POINT('',(-0.385920441295,0.232260920827,1.862241656945
));
#121 = CARTESIAN_POINT('',(-0.377962539474,0.2451632716,1.865956554898)
);
#122 = CARTESIAN_POINT('',(-0.369464807098,0.257801183384,1.869305447833
));
#123 = CARTESIAN_POINT('',(-0.36043457216,0.270146249439,1.872266939127)
);
#124 = CARTESIAN_POINT('',(-0.350881639043,0.282169398158,1.874819375515
));
#125 = CARTESIAN_POINT('',(-0.323616184441,0.313793882935,1.880568657718
));
#126 = CARTESIAN_POINT('',(-0.304922056911,0.332721229073,1.8829380099)
);
#127 = CARTESIAN_POINT('',(-0.284800494439,0.350473855593,1.883942355068
));
#128 = CARTESIAN_POINT('',(-0.263343710948,0.366898537166,1.883476091542
));
#129 = CARTESIAN_POINT('',(-0.240673478097,0.381848195331,1.881448660733
));
#130 = CARTESIAN_POINT('',(-0.216942681019,0.395191910497,1.877798203598
));
#131 = CARTESIAN_POINT('',(-0.155920043551,0.424041920315,1.864671546245
));
#132 = CARTESIAN_POINT('',(-0.117546153833,0.437531089443,1.853231852996
));
#133 = CARTESIAN_POINT('',(-7.785261886715E-002,0.446916972547,
1.838120696315));
#134 = CARTESIAN_POINT('',(-3.758947232716E-002,0.452010535207,
1.819495768102));
#135 = CARTESIAN_POINT('',(2.452531736455E-003,0.452845065811,
1.797794724682));
#136 = CARTESIAN_POINT('',(4.150808465891E-002,0.44968811801,
1.773705152368));
#137 = CARTESIAN_POINT('',(0.117759360036,0.436108764104,1.721380113419)
);
#138 = CARTESIAN_POINT('',(0.154996116426,0.425374065931,1.692898810791)
);
#139 = CARTESIAN_POINT('',(0.19031315196,0.4112273187,1.663159148783));
#140 = CARTESIAN_POINT('',(0.223520969917,0.39402898337,1.632660768983)
);
#141 = CARTESIAN_POINT('',(0.254492847004,0.374081822255,1.601824030509)
);
#142 = CARTESIAN_POINT('',(0.283128886258,0.351623589593,1.570991340062)
);
#143 = CARTESIAN_POINT('',(0.346789708975,0.291371855729,1.496783929427)
);
#144 = CARTESIAN_POINT('',(0.37921404629,0.25118700516,1.453778881354));
#145 = CARTESIAN_POINT('',(0.40628196363,0.206841996971,1.412328328843)
);
#146 = CARTESIAN_POINT('',(0.42752419421,0.158828588401,1.37329098878));
#147 = CARTESIAN_POINT('',(0.442322466896,0.107742625096,1.337575034581)
);
#148 = CARTESIAN_POINT('',(0.45,5.441594892811E-002,1.306115161269));
#149 = CARTESIAN_POINT('',(0.45,-5.551115123126E-017,1.279745849427));
#150 = TOROIDAL_SURFACE('',#151,8.164634146341,2.585365853659);
#151 = AXIS2_PLACEMENT_3D('',#152,#153,#154);
#152 = CARTESIAN_POINT('',(5.,-1.035365853659,10.78));
#153 = DIRECTION('',(0.E+000,1.,0.E+000));
#154 = DIRECTION('',(1.,0.E+000,0.E+000));
#155 = ADVANCED_FACE('',(#156,#176),#246,.T.);
#156 = FACE_BOUND('',#157,.T.);
#157 = EDGE_LOOP('',(#158,#159,#168,#175));
#158 = ORIENTED_EDGE('',*,*,#31,.T.);
#159 = ORIENTED_EDGE('',*,*,#160,.T.);
#160 = EDGE_CURVE('',#24,#161,#163,.T.);
#161 = VERTEX_POINT('',#162);
#162 = CARTESIAN_POINT('',(13.164634146341,-3.75,10.78));
#163 = CIRCLE('',#164,2.585365853659);
#164 = AXIS2_PLACEMENT_3D('',#165,#166,#167);
#165 = CARTESIAN_POINT('',(13.164634146341,-1.164634146341,10.78));
#166 = DIRECTION('',(0.E+000,0.E+000,-1.));
#167 = DIRECTION('',(1.,0.E+000,0.E+000));
#168 = ORIENTED_EDGE('',*,*,#169,.F.);
#169 = EDGE_CURVE('',#161,#161,#170,.T.);
#170 = CIRCLE('',#171,8.164634146341);
#171 = AXIS2_PLACEMENT_3D('',#172,#173,#174);
#172 = CARTESIAN_POINT('',(5.,-3.75,10.78));
#173 = DIRECTION('',(0.E+000,-1.,0.E+000));
#174 = DIRECTION('',(1.,0.E+000,0.E+000));
#175 = ORIENTED_EDGE('',*,*,#160,.F.);
#176 = FACE_BOUND('',#177,.T.);
#177 = EDGE_LOOP('',(#178,#201));
#178 = ORIENTED_EDGE('',*,*,#179,.T.);
#179 = EDGE_CURVE('',#180,#182,#184,.T.);
#180 = VERTEX_POINT('',#181);
#181 = CARTESIAN_POINT('',(10.45,-2.2,1.765853954729));
#182 = VERTEX_POINT('',#183);
#183 = CARTESIAN_POINT('',(9.803932825346,-1.794959677288,1.250389052121
));
#184 = B_SPLINE_CURVE_WITH_KNOTS('',8,(#185,#186,#187,#188,#189,#190,
#191,#192,#193,#194,#195,#196,#197,#198,#199,#200),.UNSPECIFIED.,.F.
,.F.,(9,7,9),(0.E+000,0.315063616359,1.),.UNSPECIFIED.);
#185 = CARTESIAN_POINT('',(10.45,-2.2,1.765853954729));
#186 = CARTESIAN_POINT('',(10.45,-2.165365707245,1.748165514176));
#187 = CARTESIAN_POINT('',(10.446953555456,-2.13089238397,1.729533394887
));
#188 = CARTESIAN_POINT('',(10.440910217046,-2.096838855409,
1.710098600666));
#189 = CARTESIAN_POINT('',(10.431931340642,-2.063456903431,
1.689980017797));
#190 = CARTESIAN_POINT('',(10.420090959953,-2.030992573048,
1.669279525897));
#191 = CARTESIAN_POINT('',(10.405476659162,-1.999687478934,
1.648087108755));
#192 = CARTESIAN_POINT('',(10.388190445574,-1.969780111934,
1.626485965179));
#193 = CARTESIAN_POINT('',(10.325216422904,-1.880042786255,
1.556886226611));
#194 = CARTESIAN_POINT('',(10.270196328994,-1.826568792966,
1.507874885753));
#195 = CARTESIAN_POINT('',(10.204311493909,-1.782870949545,
1.457975936379));
#196 = CARTESIAN_POINT('',(10.128737349318,-1.75161039126,1.407994644624
));
#197 = CARTESIAN_POINT('',(10.046039255421,-1.735913341984,
1.359478424893));
#198 = CARTESIAN_POINT('',(9.960476680901,-1.738287727092,1.314783303083
));
#199 = CARTESIAN_POINT('',(9.878000938661,-1.75910565265,1.277633350964)
);
#200 = CARTESIAN_POINT('',(9.803932825346,-1.794959677288,1.250389052121
));
#201 = ORIENTED_EDGE('',*,*,#202,.T.);
#202 = EDGE_CURVE('',#182,#180,#203,.T.);
#203 = B_SPLINE_CURVE_WITH_KNOTS('',6,(#204,#205,#206,#207,#208,#209,
#210,#211,#212,#213,#214,#215,#216,#217,#218,#219,#220,#221,#222,
#223,#224,#225,#226,#227,#228,#229,#230,#231,#232,#233,#234,#235,
#236,#237,#238,#239,#240,#241,#242,#243,#244,#245),.UNSPECIFIED.,.F.
,.F.,(7,5,5,5,5,5,5,5,7),(0.E+000,0.13518161185,0.243591253606,
0.297835405022,0.459795199736,0.607916211661,0.741876716134,
0.871543072333,1.),.UNSPECIFIED.);
#204 = CARTESIAN_POINT('',(9.803932825346,-1.794959677288,1.250389052121
));
#205 = CARTESIAN_POINT('',(9.762728072987,-1.814905591124,1.23523280557)
);
#206 = CARTESIAN_POINT('',(9.724003082694,-1.839859966519,1.22320298083)
);
#207 = CARTESIAN_POINT('',(9.688579139425,-1.869399525801,1.214735303438
));
#208 = CARTESIAN_POINT('',(9.657174524435,-1.902895808683,1.210197292076
));
#209 = CARTESIAN_POINT('',(9.630333791833,-1.939537787024,1.209803624811
));
#210 = CARTESIAN_POINT('',(9.590712393776,-2.009564053755,1.216492819663
));
#211 = CARTESIAN_POINT('',(9.576193750574,-2.042167314081,1.222111519711
));
#212 = CARTESIAN_POINT('',(9.564940613671,-2.075737498609,1.230356485723
));
#213 = CARTESIAN_POINT('',(9.556972587138,-2.109806349447,1.241115538718
));
#214 = CARTESIAN_POINT('',(9.552216297155,-2.143959472747,1.254205964751
));
#215 = CARTESIAN_POINT('',(9.549710070461,-2.194794876177,1.277012581255
));
#216 = CARTESIAN_POINT('',(9.549646768137,-2.211681941123,1.285147516785
));
#217 = CARTESIAN_POINT('',(9.550340355003,-2.22845965473,1.293784609963)
);
#218 = CARTESIAN_POINT('',(9.55177235784,-2.245089394465,1.3028951857));
#219 = CARTESIAN_POINT('',(9.553922763079,-2.261536722112,1.312449674425
));
#220 = CARTESIAN_POINT('',(9.565276448606,-2.326243003995,1.352182967012
));
#221 = CARTESIAN_POINT('',(9.580002076914,-2.372796601572,1.385628895008
));
#222 = CARTESIAN_POINT('',(9.600404830316,-2.416659520009,1.421985832183
));
#223 = CARTESIAN_POINT('',(9.625943433256,-2.457287035825,1.460457679185
));
#224 = CARTESIAN_POINT('',(9.656201657115,-2.494246450237,1.50029469034)
);
#225 = CARTESIAN_POINT('',(9.722614260388,-2.557019216978,1.577664017211
));
#226 = CARTESIAN_POINT('',(9.758005643045,-2.583479131646,1.615058113253
));
#227 = CARTESIAN_POINT('',(9.796869880944,-2.606080870363,1.652328212625
));
#228 = CARTESIAN_POINT('',(9.83901798025,-2.624310885556,1.688769342274)
);
#229 = CARTESIAN_POINT('',(9.884134209343,-2.637470724978,1.723413408368
));
#230 = CARTESIAN_POINT('',(9.974512692611,-2.651371428068,1.783861351631
));
#231 = CARTESIAN_POINT('',(10.019518717505,-2.65320567616,1.810307845034
));
#232 = CARTESIAN_POINT('',(10.065442748773,-2.649506416062,
1.833153368847));
#233 = CARTESIAN_POINT('',(10.110966155976,-2.640019043224,
1.851403794299));
#234 = CARTESIAN_POINT('',(10.15483789683,-2.624998058363,1.864742489299
));
#235 = CARTESIAN_POINT('',(10.235974048257,-2.585722719398,
1.881569805971));
#236 = CARTESIAN_POINT('',(10.273430361461,-2.561767534974,
1.885366037159));
#237 = CARTESIAN_POINT('',(10.307570906067,-2.533684367428,1.88479099918
));
#238 = CARTESIAN_POINT('',(10.337812919734,-2.502215088142,
1.880340052823));
#239 = CARTESIAN_POINT('',(10.363859210106,-2.46810496114,1.87256847331)
);
#240 = CARTESIAN_POINT('',(10.407086820045,-2.396268135528,
1.851474535548));
#241 = CARTESIAN_POINT('',(10.424349419166,-2.358576879425,
1.838204271199));
#242 = CARTESIAN_POINT('',(10.437246975826,-2.319563470503,
1.822636762534));
#243 = CARTESIAN_POINT('',(10.445777380557,-2.279799877804,
1.805187517909));
#244 = CARTESIAN_POINT('',(10.45,-2.239793082333,1.786177094463));
#245 = CARTESIAN_POINT('',(10.45,-2.2,1.765853954729));
#246 = TOROIDAL_SURFACE('',#247,8.164634146341,2.585365853659);
#247 = AXIS2_PLACEMENT_3D('',#248,#249,#250);
#248 = CARTESIAN_POINT('',(5.,-1.164634146341,10.78));
#249 = DIRECTION('',(0.E+000,-1.,0.E+000));
#250 = DIRECTION('',(1.,0.E+000,0.E+000));
#251 = ADVANCED_FACE('',(#252),#255,.F.);
#252 = FACE_BOUND('',#253,.F.);
#253 = EDGE_LOOP('',(#254));
#254 = ORIENTED_EDGE('',*,*,#64,.T.);
#255 = PLANE('',#256);
#256 = AXIS2_PLACEMENT_3D('',#257,#258,#259);
#257 = CARTESIAN_POINT('',(5.,1.55,10.78));
#258 = DIRECTION('',(-0.E+000,-1.,-0.E+000));
#259 = DIRECTION('',(0.E+000,0.E+000,-1.));
#260 = ADVANCED_FACE('',(#261),#281,.T.);
#261 = FACE_BOUND('',#262,.T.);
#262 = EDGE_LOOP('',(#263,#264,#272,#279,#280));
#263 = ORIENTED_EDGE('',*,*,#104,.T.);
#264 = ORIENTED_EDGE('',*,*,#265,.T.);
#265 = EDGE_CURVE('',#75,#266,#268,.T.);
#266 = VERTEX_POINT('',#267);
#267 = CARTESIAN_POINT('',(0.45,0.E+000,-2.82));
#268 = LINE('',#269,#270);
#269 = CARTESIAN_POINT('',(0.45,0.E+000,10.78));
#270 = VECTOR('',#271,1.);
#271 = DIRECTION('',(-0.E+000,-0.E+000,-1.));
#272 = ORIENTED_EDGE('',*,*,#273,.T.);
#273 = EDGE_CURVE('',#266,#266,#274,.T.);
#274 = CIRCLE('',#275,0.45);
#275 = AXIS2_PLACEMENT_3D('',#276,#277,#278);
#276 = CARTESIAN_POINT('',(0.E+000,0.E+000,-2.82));
#277 = DIRECTION('',(0.E+000,0.E+000,1.));
#278 = DIRECTION('',(1.,0.E+000,0.E+000));
#279 = ORIENTED_EDGE('',*,*,#265,.F.);
#280 = ORIENTED_EDGE('',*,*,#74,.T.);
#281 = CYLINDRICAL_SURFACE('',#282,0.45);
#282 = AXIS2_PLACEMENT_3D('',#283,#284,#285);
#283 = CARTESIAN_POINT('',(0.E+000,0.E+000,10.78));
#284 = DIRECTION('',(0.E+000,0.E+000,1.));
#285 = DIRECTION('',(1.,0.E+000,0.E+000));
#286 = ADVANCED_FACE('',(#287),#290,.T.);
#287 = FACE_BOUND('',#288,.T.);
#288 = EDGE_LOOP('',(#289));
#289 = ORIENTED_EDGE('',*,*,#169,.T.);
#290 = PLANE('',#291);
#291 = AXIS2_PLACEMENT_3D('',#292,#293,#294);
#292 = CARTESIAN_POINT('',(5.,-3.75,10.78));
#293 = DIRECTION('',(-0.E+000,-1.,-0.E+000));
#294 = DIRECTION('',(0.E+000,0.E+000,-1.));
#295 = ADVANCED_FACE('',(#296),#316,.T.);
#296 = FACE_BOUND('',#297,.T.);
#297 = EDGE_LOOP('',(#298,#299,#307,#314,#315));
#298 = ORIENTED_EDGE('',*,*,#179,.F.);
#299 = ORIENTED_EDGE('',*,*,#300,.T.);
#300 = EDGE_CURVE('',#180,#301,#303,.T.);
#301 = VERTEX_POINT('',#302);
#302 = CARTESIAN_POINT('',(10.45,-2.2,-2.82));
#303 = LINE('',#304,#305);
#304 = CARTESIAN_POINT('',(10.45,-2.2,10.78));
#305 = VECTOR('',#306,1.);
#306 = DIRECTION('',(-0.E+000,-0.E+000,-1.));
#307 = ORIENTED_EDGE('',*,*,#308,.T.);
#308 = EDGE_CURVE('',#301,#301,#309,.T.);
#309 = CIRCLE('',#310,0.45);
#310 = AXIS2_PLACEMENT_3D('',#311,#312,#313);
#311 = CARTESIAN_POINT('',(10.,-2.2,-2.82));
#312 = DIRECTION('',(0.E+000,0.E+000,1.));
#313 = DIRECTION('',(1.,0.E+000,0.E+000));
#314 = ORIENTED_EDGE('',*,*,#300,.F.);
#315 = ORIENTED_EDGE('',*,*,#202,.F.);
#316 = CYLINDRICAL_SURFACE('',#317,0.45);
#317 = AXIS2_PLACEMENT_3D('',#318,#319,#320);
#318 = CARTESIAN_POINT('',(10.,-2.2,10.78));
#319 = DIRECTION('',(0.E+000,0.E+000,1.));
#320 = DIRECTION('',(1.,0.E+000,0.E+000));
#321 = ADVANCED_FACE('',(#322),#342,.T.);
#322 = FACE_BOUND('',#323,.F.);
#323 = EDGE_LOOP('',(#324,#333,#334,#335));
#324 = ORIENTED_EDGE('',*,*,#325,.F.);
#325 = EDGE_CURVE('',#266,#326,#328,.T.);
#326 = VERTEX_POINT('',#327);
#327 = CARTESIAN_POINT('',(0.27,0.E+000,-3.));
#328 = CIRCLE('',#329,0.18);
#329 = AXIS2_PLACEMENT_3D('',#330,#331,#332);
#330 = CARTESIAN_POINT('',(0.27,0.E+000,-2.82));
#331 = DIRECTION('',(-0.E+000,1.,0.E+000));
#332 = DIRECTION('',(1.,0.E+000,0.E+000));
#333 = ORIENTED_EDGE('',*,*,#273,.T.);
#334 = ORIENTED_EDGE('',*,*,#325,.T.);
#335 = ORIENTED_EDGE('',*,*,#336,.F.);
#336 = EDGE_CURVE('',#326,#326,#337,.T.);
#337 = CIRCLE('',#338,0.27);
#338 = AXIS2_PLACEMENT_3D('',#339,#340,#341);
#339 = CARTESIAN_POINT('',(0.E+000,0.E+000,-3.));
#340 = DIRECTION('',(0.E+000,0.E+000,1.));
#341 = DIRECTION('',(1.,0.E+000,0.E+000));
#342 = TOROIDAL_SURFACE('',#343,0.27,0.18);
#343 = AXIS2_PLACEMENT_3D('',#344,#345,#346);
#344 = CARTESIAN_POINT('',(0.E+000,0.E+000,-2.82));
#345 = DIRECTION('',(-0.E+000,-0.E+000,-1.));
#346 = DIRECTION('',(1.,0.E+000,0.E+000));
#347 = ADVANCED_FACE('',(#348),#368,.T.);
#348 = FACE_BOUND('',#349,.F.);
#349 = EDGE_LOOP('',(#350,#359,#360,#361));
#350 = ORIENTED_EDGE('',*,*,#351,.F.);
#351 = EDGE_CURVE('',#301,#352,#354,.T.);
#352 = VERTEX_POINT('',#353);
#353 = CARTESIAN_POINT('',(10.27,-2.2,-3.));
#354 = CIRCLE('',#355,0.18);
#355 = AXIS2_PLACEMENT_3D('',#356,#357,#358);
#356 = CARTESIAN_POINT('',(10.27,-2.2,-2.82));
#357 = DIRECTION('',(-0.E+000,1.,0.E+000));
#358 = DIRECTION('',(1.,0.E+000,0.E+000));
#359 = ORIENTED_EDGE('',*,*,#308,.T.);
#360 = ORIENTED_EDGE('',*,*,#351,.T.);
#361 = ORIENTED_EDGE('',*,*,#362,.F.);
#362 = EDGE_CURVE('',#352,#352,#363,.T.);
#363 = CIRCLE('',#364,0.27);
#364 = AXIS2_PLACEMENT_3D('',#365,#366,#367);
#365 = CARTESIAN_POINT('',(10.,-2.2,-3.));
#366 = DIRECTION('',(0.E+000,0.E+000,1.));
#367 = DIRECTION('',(1.,0.E+000,0.E+000));
#368 = TOROIDAL_SURFACE('',#369,0.27,0.18);
#369 = AXIS2_PLACEMENT_3D('',#370,#371,#372);
#370 = CARTESIAN_POINT('',(10.,-2.2,-2.82));
#371 = DIRECTION('',(-0.E+000,-0.E+000,-1.));
#372 = DIRECTION('',(1.,0.E+000,0.E+000));
#373 = ADVANCED_FACE('',(#374),#377,.F.);
#374 = FACE_BOUND('',#375,.F.);
#375 = EDGE_LOOP('',(#376));
#376 = ORIENTED_EDGE('',*,*,#336,.T.);
#377 = PLANE('',#378);
#378 = AXIS2_PLACEMENT_3D('',#379,#380,#381);
#379 = CARTESIAN_POINT('',(-1.18701400394E-017,2.911085817041E-017,-3.)
);
#380 = DIRECTION('',(0.E+000,0.E+000,1.));
#381 = DIRECTION('',(1.,0.E+000,0.E+000));
#382 = ADVANCED_FACE('',(#383),#386,.F.);
#383 = FACE_BOUND('',#384,.F.);
#384 = EDGE_LOOP('',(#385));
#385 = ORIENTED_EDGE('',*,*,#362,.T.);
#386 = PLANE('',#387);
#387 = AXIS2_PLACEMENT_3D('',#388,#389,#390);
#388 = CARTESIAN_POINT('',(10.,-2.2,-3.));
#389 = DIRECTION('',(0.E+000,0.E+000,1.));
#390 = DIRECTION('',(1.,0.E+000,0.E+000));
#391 = ( GEOMETRIC_REPRESENTATION_CONTEXT(3)
GLOBAL_UNCERTAINTY_ASSIGNED_CONTEXT((#395)) GLOBAL_UNIT_ASSIGNED_CONTEXT
((#392,#393,#394)) REPRESENTATION_CONTEXT('Context #1',
'3D Context with UNIT and UNCERTAINTY') );
#392 = ( LENGTH_UNIT() NAMED_UNIT(*) SI_UNIT(.MILLI.,.METRE.) );
#393 = ( NAMED_UNIT(*) PLANE_ANGLE_UNIT() SI_UNIT($,.RADIAN.) );
#394 = ( NAMED_UNIT(*) SI_UNIT($,.STERADIAN.) SOLID_ANGLE_UNIT() );
#395 = UNCERTAINTY_MEASURE_WITH_UNIT(LENGTH_MEASURE(1.E-007),#392,
'distance_accuracy_value','confusion accuracy');
#396 = PRODUCT_RELATED_PRODUCT_CATEGORY('part',$,(#7));
#397 = MECHANICAL_DESIGN_GEOMETRIC_PRESENTATION_REPRESENTATION('',(#398,
#406,#413,#420,#427,#435,#442,#449,#456,#463,#470),#391);
#398 = STYLED_ITEM('color',(#399),#17);
#399 = PRESENTATION_STYLE_ASSIGNMENT((#400));
#400 = SURFACE_STYLE_USAGE(.BOTH.,#401);
#401 = SURFACE_SIDE_STYLE('',(#402));
#402 = SURFACE_STYLE_FILL_AREA(#403);
#403 = FILL_AREA_STYLE('',(#404));
#404 = FILL_AREA_STYLE_COLOUR('',#405);
#405 = COLOUR_RGB('',0.136999994516,0.402000010014,0.726999998093);
#406 = STYLED_ITEM('color',(#407),#50);
#407 = PRESENTATION_STYLE_ASSIGNMENT((#408));
#408 = SURFACE_STYLE_USAGE(.BOTH.,#409);
#409 = SURFACE_SIDE_STYLE('',(#410));
#410 = SURFACE_STYLE_FILL_AREA(#411);
#411 = FILL_AREA_STYLE('',(#412));
#412 = FILL_AREA_STYLE_COLOUR('',#405);
#413 = STYLED_ITEM('color',(#414),#155);
#414 = PRESENTATION_STYLE_ASSIGNMENT((#415));
#415 = SURFACE_STYLE_USAGE(.BOTH.,#416);
#416 = SURFACE_SIDE_STYLE('',(#417));
#417 = SURFACE_STYLE_FILL_AREA(#418);
#418 = FILL_AREA_STYLE('',(#419));
#419 = FILL_AREA_STYLE_COLOUR('',#405);
#420 = STYLED_ITEM('color',(#421),#251);
#421 = PRESENTATION_STYLE_ASSIGNMENT((#422));
#422 = SURFACE_STYLE_USAGE(.BOTH.,#423);
#423 = SURFACE_SIDE_STYLE('',(#424));
#424 = SURFACE_STYLE_FILL_AREA(#425);
#425 = FILL_AREA_STYLE('',(#426));
#426 = FILL_AREA_STYLE_COLOUR('',#405);
#427 = STYLED_ITEM('color',(#428),#260);
#428 = PRESENTATION_STYLE_ASSIGNMENT((#429));
#429 = SURFACE_STYLE_USAGE(.BOTH.,#430);
#430 = SURFACE_SIDE_STYLE('',(#431));
#431 = SURFACE_STYLE_FILL_AREA(#432);
#432 = FILL_AREA_STYLE('',(#433));
#433 = FILL_AREA_STYLE_COLOUR('',#434);
#434 = COLOUR_RGB('',0.824000000954,0.819999992847,0.78100001812);
#435 = STYLED_ITEM('color',(#436),#286);
#436 = PRESENTATION_STYLE_ASSIGNMENT((#437));
#437 = SURFACE_STYLE_USAGE(.BOTH.,#438);
#438 = SURFACE_SIDE_STYLE('',(#439));
#439 = SURFACE_STYLE_FILL_AREA(#440);
#440 = FILL_AREA_STYLE('',(#441));
#441 = FILL_AREA_STYLE_COLOUR('',#405);
#442 = STYLED_ITEM('color',(#443),#295);
#443 = PRESENTATION_STYLE_ASSIGNMENT((#444));
#444 = SURFACE_STYLE_USAGE(.BOTH.,#445);
#445 = SURFACE_SIDE_STYLE('',(#446));
#446 = SURFACE_STYLE_FILL_AREA(#447);
#447 = FILL_AREA_STYLE('',(#448));
#448 = FILL_AREA_STYLE_COLOUR('',#434);
#449 = STYLED_ITEM('color',(#450),#321);
#450 = PRESENTATION_STYLE_ASSIGNMENT((#451));
#451 = SURFACE_STYLE_USAGE(.BOTH.,#452);
#452 = SURFACE_SIDE_STYLE('',(#453));
#453 = SURFACE_STYLE_FILL_AREA(#454);
#454 = FILL_AREA_STYLE('',(#455));
#455 = FILL_AREA_STYLE_COLOUR('',#434);
#456 = STYLED_ITEM('color',(#457),#347);
#457 = PRESENTATION_STYLE_ASSIGNMENT((#458));
#458 = SURFACE_STYLE_USAGE(.BOTH.,#459);
#459 = SURFACE_SIDE_STYLE('',(#460));
#460 = SURFACE_STYLE_FILL_AREA(#461);
#461 = FILL_AREA_STYLE('',(#462));
#462 = FILL_AREA_STYLE_COLOUR('',#434);
#463 = STYLED_ITEM('color',(#464),#373);
#464 = PRESENTATION_STYLE_ASSIGNMENT((#465));
#465 = SURFACE_STYLE_USAGE(.BOTH.,#466);
#466 = SURFACE_SIDE_STYLE('',(#467));
#467 = SURFACE_STYLE_FILL_AREA(#468);
#468 = FILL_AREA_STYLE('',(#469));
#469 = FILL_AREA_STYLE_COLOUR('',#434);
#470 = STYLED_ITEM('color',(#471),#382);
#471 = PRESENTATION_STYLE_ASSIGNMENT((#472));
#472 = SURFACE_STYLE_USAGE(.BOTH.,#473);
#473 = SURFACE_SIDE_STYLE('',(#474));
#474 = SURFACE_STYLE_FILL_AREA(#475);
#475 = FILL_AREA_STYLE('',(#476));
#476 = FILL_AREA_STYLE_COLOUR('',#434);
ENDSEC;
END-ISO-10303-21;
