ISO-10303-21;
HEADER;
/* RV_Disc_D15.5mm_W5mm_P7.5mm.step 3D STEP model for use in ECAD systems
 * Copyright (C) 2018, kicad StepUp
 * 
 * This work is licensed under the [Creative Commons CC-BY-SA 4.0 License](https://creativecommons.org/licenses/by-sa/4.0/legalcode), 
 * with the following exception:
 * To the extent that the creation of electronic designs that use 'Licensed Material' can be considered to be 'Adapted Material', 
 * then the copyright holder waives article 3 of the license with respect to these designs and any generated files which use data provided 
 * as part of the 'Licensed Material'.
 * You are free to use the library data in your own projects without the obligation to share your project files under this or any other license agreement.
 * However, if you wish to redistribute these libraries, or parts thereof (including in modified form) as a collection then the exception above does not apply. 
 * Please refer to https://github.com/KiCad/kicad-packages3D/blob/master/LICENSE.md for further clarification of the exception.
 * Disclaimer of Warranties and Limitation of Liability.
 * These libraries are provided in the hope that they will be useful, but are provided without warranty of any kind, express or implied.
 * *USE 3D CAD DATA AT YOUR OWN RISK*
 * *DO NOT RELY UPON ANY INFORMATION FOUND HERE WITHOUT INDEPENDENT VERIFICATION.*
 * 
 */

FILE_DESCRIPTION(
/* description */ ('model of RV_Disc_D15.5mm_W5mm_P7.5mm'),
/* implementation_level */ '2;1');

FILE_NAME(
/* name */ 'RV_Disc_D15.5mm_W5mm_P7.5mm.step',
/* time_stamp */ '2018-11-11T21:00:29',
/* author */ ('kicad StepUp','ksu'),
/* organization */ ('FreeCAD'),
/* preprocessor_version */ 'OCC',
/* originating_system */ 'kicad StepUp',
/* authorisation */ '');

FILE_SCHEMA(('AUTOMOTIVE_DESIGN { 1 0 10303 214 1 1 1 1 }'));
ENDSEC;

DATA;
#1 = APPLICATION_PROTOCOL_DEFINITION('international standard',
'automotive_design',2000,#2);
#2 = APPLICATION_CONTEXT(
'core data for automotive mechanical design processes');
#3 = SHAPE_DEFINITION_REPRESENTATION(#4,#10);
#4 = PRODUCT_DEFINITION_SHAPE('','',#5);
#5 = PRODUCT_DEFINITION('design','',#6,#9);
#6 = PRODUCT_DEFINITION_FORMATION('','',#7);
#7 = PRODUCT('RV_Disc_D155mm_W5mm_P75mm','RV_Disc_D155mm_W5mm_P75mm','',
(#8));
#8 = PRODUCT_CONTEXT('',#2,'mechanical');
#9 = PRODUCT_DEFINITION_CONTEXT('part definition',#2,'design');
#10 = ADVANCED_BREP_SHAPE_REPRESENTATION('',(#11,#15),#380);
#11 = AXIS2_PLACEMENT_3D('',#12,#13,#14);
#12 = CARTESIAN_POINT('',(0.E+000,0.E+000,0.E+000));
#13 = DIRECTION('',(0.E+000,0.E+000,1.));
#14 = DIRECTION('',(1.,0.E+000,-0.E+000));
#15 = MANIFOLD_SOLID_BREP('',#16);
#16 = CLOSED_SHELL('',(#17,#50,#140,#240,#249,#275,#284,#310,#336,#362,
#371));
#17 = ADVANCED_FACE('',(#18),#45,.T.);
#18 = FACE_BOUND('',#19,.F.);
#19 = EDGE_LOOP('',(#20,#30,#37,#38));
#20 = ORIENTED_EDGE('',*,*,#21,.T.);
#21 = EDGE_CURVE('',#22,#24,#26,.T.);
#22 = VERTEX_POINT('',#23);
#23 = CARTESIAN_POINT('',(11.5,-1.039024390244,7.78));
#24 = VERTEX_POINT('',#25);
#25 = CARTESIAN_POINT('',(11.5,-1.160975609756,7.78));
#26 = LINE('',#27,#28);
#27 = CARTESIAN_POINT('',(11.5,1.4,7.78));
#28 = VECTOR('',#29,1.);
#29 = DIRECTION('',(0.E+000,-1.,0.E+000));
#30 = ORIENTED_EDGE('',*,*,#31,.T.);
#31 = EDGE_CURVE('',#24,#24,#32,.T.);
#32 = CIRCLE('',#33,7.75);
#33 = AXIS2_PLACEMENT_3D('',#34,#35,#36);
#34 = CARTESIAN_POINT('',(3.75,-1.160975609756,7.78));
#35 = DIRECTION('',(0.E+000,-1.,0.E+000));
#36 = DIRECTION('',(1.,0.E+000,0.E+000));
#37 = ORIENTED_EDGE('',*,*,#21,.F.);
#38 = ORIENTED_EDGE('',*,*,#39,.F.);
#39 = EDGE_CURVE('',#22,#22,#40,.T.);
#40 = CIRCLE('',#41,7.75);
#41 = AXIS2_PLACEMENT_3D('',#42,#43,#44);
#42 = CARTESIAN_POINT('',(3.75,-1.039024390244,7.78));
#43 = DIRECTION('',(0.E+000,-1.,0.E+000));
#44 = DIRECTION('',(1.,0.E+000,0.E+000));
#45 = CYLINDRICAL_SURFACE('',#46,7.75);
#46 = AXIS2_PLACEMENT_3D('',#47,#48,#49);
#47 = CARTESIAN_POINT('',(3.75,1.4,7.78));
#48 = DIRECTION('',(0.E+000,1.,0.E+000));
#49 = DIRECTION('',(1.,0.E+000,0.E+000));
#50 = ADVANCED_FACE('',(#51,#71),#135,.T.);
#51 = FACE_BOUND('',#52,.F.);
#52 = EDGE_LOOP('',(#53,#54,#63,#70));
#53 = ORIENTED_EDGE('',*,*,#39,.T.);
#54 = ORIENTED_EDGE('',*,*,#55,.T.);
#55 = EDGE_CURVE('',#22,#56,#58,.T.);
#56 = VERTEX_POINT('',#57);
#57 = CARTESIAN_POINT('',(9.060975609756,1.4,7.78));
#58 = CIRCLE('',#59,2.439024390244);
#59 = AXIS2_PLACEMENT_3D('',#60,#61,#62);
#60 = CARTESIAN_POINT('',(9.060975609756,-1.039024390244,7.78));
#61 = DIRECTION('',(0.E+000,0.E+000,1.));
#62 = DIRECTION('',(1.,0.E+000,0.E+000));
#63 = ORIENTED_EDGE('',*,*,#64,.F.);
#64 = EDGE_CURVE('',#56,#56,#65,.T.);
#65 = CIRCLE('',#66,5.310975609756);
#66 = AXIS2_PLACEMENT_3D('',#67,#68,#69);
#67 = CARTESIAN_POINT('',(3.75,1.4,7.78));
#68 = DIRECTION('',(0.E+000,-1.,0.E+000));
#69 = DIRECTION('',(1.,0.E+000,0.E+000));
#70 = ORIENTED_EDGE('',*,*,#55,.F.);
#71 = FACE_BOUND('',#72,.F.);
#72 = EDGE_LOOP('',(#73,#94));
#73 = ORIENTED_EDGE('',*,*,#74,.T.);
#74 = EDGE_CURVE('',#75,#77,#79,.T.);
#75 = VERTEX_POINT('',#76);
#76 = CARTESIAN_POINT('',(0.36,0.E+000,1.070121282584));
#77 = VERTEX_POINT('',#78);
#78 = CARTESIAN_POINT('',(-4.369364575393E-002,-0.357338586387,
1.133704335826));
#79 = B_SPLINE_CURVE_WITH_KNOTS('',7,(#80,#81,#82,#83,#84,#85,#86,#87,
#88,#89,#90,#91,#92,#93),.UNSPECIFIED.,.F.,.F.,(8,6,8),(0.E+000,
0.342013014326,1.),.UNSPECIFIED.);
#80 = CARTESIAN_POINT('',(0.36,-5.551115123126E-017,1.070121282584));
#81 = CARTESIAN_POINT('',(0.36,-2.806611344253E-002,1.055315147097));
#82 = CARTESIAN_POINT('',(0.357447183816,-5.644093452948E-002,
1.042213732427));
#83 = CARTESIAN_POINT('',(0.352240817335,-8.485753795054E-002,
1.0310040237));
#84 = CARTESIAN_POINT('',(0.344308929407,-0.11300823945,1.021856081254)
);
#85 = CARTESIAN_POINT('',(0.333631598149,-0.140544664781,1.014905925833)
);
#86 = CARTESIAN_POINT('',(0.320262159026,-0.167093003411,1.010238919294)
);
#87 = CARTESIAN_POINT('',(0.273726431875,-0.240749392235,1.003323163476)
);
#88 = CARTESIAN_POINT('',(0.233694541562,-0.284171846559,1.007293851536)
);
#89 = CARTESIAN_POINT('',(0.185265600954,-0.319985710838,1.01990357119)
);
#90 = CARTESIAN_POINT('',(0.130434645105,-0.34600871804,1.040383578016)
);
#91 = CARTESIAN_POINT('',(7.195016874185E-002,-0.360841361256,
1.067324312067));
#92 = CARTESIAN_POINT('',(1.296675982166E-002,-0.364266748594,
1.099040536881));
#93 = CARTESIAN_POINT('',(-4.369364575393E-002,-0.357338586387,
1.133704335826));
#94 = ORIENTED_EDGE('',*,*,#95,.T.);
#95 = EDGE_CURVE('',#77,#75,#96,.T.);
#96 = B_SPLINE_CURVE_WITH_KNOTS('',7,(#97,#98,#99,#100,#101,#102,#103,
#104,#105,#106,#107,#108,#109,#110,#111,#112,#113,#114,#115,#116,
#117,#118,#119,#120,#121,#122,#123,#124,#125,#126,#127,#128,#129,
#130,#131,#132,#133,#134),.UNSPECIFIED.,.F.,.F.,(8,6,6,6,6,6,8),(
0.E+000,0.176828168223,0.404113329778,0.546824941804,0.672615561368,
0.814452046266,1.),.UNSPECIFIED.);
#97 = CARTESIAN_POINT('',(-4.369364575393E-002,-0.357338586387,
1.133704335826));
#98 = CARTESIAN_POINT('',(-8.700448402604E-002,-0.35204274514,
1.160201113862));
#99 = CARTESIAN_POINT('',(-0.128902977995,-0.340703715633,1.188386951074
));
#100 = CARTESIAN_POINT('',(-0.168422132909,-0.323782491643,
1.217614133522));
#101 = CARTESIAN_POINT('',(-0.204800333843,-0.301903588328,
1.247354289018));
#102 = CARTESIAN_POINT('',(-0.237475718329,-0.275737903109,
1.277192595026));
#103 = CARTESIAN_POINT('',(-0.266041665299,-0.245932163542,
1.306798776611));
#104 = CARTESIAN_POINT('',(-0.321168146365,-0.170864983615,
1.373247730517));
#105 = CARTESIAN_POINT('',(-0.344781399588,-0.123687253856,
1.409685442783));
#106 = CARTESIAN_POINT('',(-0.36032024145,-7.287428388433E-002,
1.444543621584));
#107 = CARTESIAN_POINT('',(-0.367217970683,-1.977348391581E-002,
1.477135781203));
#108 = CARTESIAN_POINT('',(-0.365032512452,3.413420645901E-002,
1.50661626337));
#109 = CARTESIAN_POINT('',(-0.353502013019,8.719188615619E-002,
1.531830315653));
#110 = CARTESIAN_POINT('',(-0.319633709694,0.169126250633,1.563580354202
));
#111 = CARTESIAN_POINT('',(-0.302919466916,0.199640280954,1.573569832289
));
#112 = CARTESIAN_POINT('',(-0.282591715371,0.228573157475,1.580938566235
));
#113 = CARTESIAN_POINT('',(-0.258771818761,0.255368459584,1.585276588563
));
#114 = CARTESIAN_POINT('',(-0.231734530412,0.279434326302,1.586176484342
));
#115 = CARTESIAN_POINT('',(-0.20194160718,0.300215888217,1.583334773258)
);
#116 = CARTESIAN_POINT('',(-0.141920207227,0.332379929716,1.570863289175
));
#117 = CARTESIAN_POINT('',(-0.112146038291,0.344593283381,1.562074746623
));
#118 = CARTESIAN_POINT('',(-8.118531529309E-002,0.353653445923,
1.550307618879));
#119 = CARTESIAN_POINT('',(-4.958153218188E-002,0.35939786381,
1.535689313255));
#120 = CARTESIAN_POINT('',(-1.790015290994E-002,0.361815251028,
1.518526568473));
#121 = CARTESIAN_POINT('',(1.331665032571E-002,0.361043770525,
1.499278399964));
#122 = CARTESIAN_POINT('',(7.771902994059E-002,0.353188430143,
1.455034670574));
#123 = CARTESIAN_POINT('',(0.110687909765,0.345306928171,1.429591587118)
);
#124 = CARTESIAN_POINT('',(0.142084530273,0.33404281382,1.402722070102)
);
#125 = CARTESIAN_POINT('',(0.171627214337,0.319745472659,1.37496603917)
);
#126 = CARTESIAN_POINT('',(0.199123606383,0.302729831307,1.346784103118)
);
#127 = CARTESIAN_POINT('',(0.224430456711,0.283252211033,1.31854788353)
);
#128 = CARTESIAN_POINT('',(0.277474854121,0.23306756917,1.253973173003)
);
#129 = CARTESIAN_POINT('',(0.303516747435,0.200788584014,1.217869569644)
);
#130 = CARTESIAN_POINT('',(0.325213399416,0.165168088144,1.183004672066)
);
#131 = CARTESIAN_POINT('',(0.342174139608,0.126659443537,1.150081909188)
);
#132 = CARTESIAN_POINT('',(0.35393167183,8.579512544823E-002,
1.119821238517));
#133 = CARTESIAN_POINT('',(0.36,4.327182397843E-002,1.092949113373));
#134 = CARTESIAN_POINT('',(0.36,-5.551115123126E-017,1.070121282584));
#135 = TOROIDAL_SURFACE('',#136,5.310975609756,2.439024390244);
#136 = AXIS2_PLACEMENT_3D('',#137,#138,#139);
#137 = CARTESIAN_POINT('',(3.75,-1.039024390244,7.78));
#138 = DIRECTION('',(0.E+000,1.,0.E+000));
#139 = DIRECTION('',(1.,0.E+000,0.E+000));
#140 = ADVANCED_FACE('',(#141,#161),#235,.T.);
#141 = FACE_BOUND('',#142,.T.);
#142 = EDGE_LOOP('',(#143,#144,#153,#160));
#143 = ORIENTED_EDGE('',*,*,#31,.T.);
#144 = ORIENTED_EDGE('',*,*,#145,.T.);
#145 = EDGE_CURVE('',#24,#146,#148,.T.);
#146 = VERTEX_POINT('',#147);
#147 = CARTESIAN_POINT('',(9.060975609756,-3.6,7.78));
#148 = CIRCLE('',#149,2.439024390244);
#149 = AXIS2_PLACEMENT_3D('',#150,#151,#152);
#150 = CARTESIAN_POINT('',(9.060975609756,-1.160975609756,7.78));
#151 = DIRECTION('',(0.E+000,0.E+000,-1.));
#152 = DIRECTION('',(1.,0.E+000,0.E+000));
#153 = ORIENTED_EDGE('',*,*,#154,.F.);
#154 = EDGE_CURVE('',#146,#146,#155,.T.);
#155 = CIRCLE('',#156,5.310975609756);
#156 = AXIS2_PLACEMENT_3D('',#157,#158,#159);
#157 = CARTESIAN_POINT('',(3.75,-3.6,7.78));
#158 = DIRECTION('',(0.E+000,-1.,0.E+000));
#159 = DIRECTION('',(1.,0.E+000,0.E+000));
#160 = ORIENTED_EDGE('',*,*,#145,.F.);
#161 = FACE_BOUND('',#162,.T.);
#162 = EDGE_LOOP('',(#163,#200));
#163 = ORIENTED_EDGE('',*,*,#164,.T.);
#164 = EDGE_CURVE('',#165,#167,#169,.T.);
#165 = VERTEX_POINT('',#166);
#166 = CARTESIAN_POINT('',(7.86,-2.2,1.485361614641));
#167 = VERTEX_POINT('',#168);
#168 = CARTESIAN_POINT('',(7.153642261175,-2.101835257061,1.028159844445
));
#169 = B_SPLINE_CURVE_WITH_KNOTS('',8,(#170,#171,#172,#173,#174,#175,
#176,#177,#178,#179,#180,#181,#182,#183,#184,#185,#186,#187,#188,
#189,#190,#191,#192,#193,#194,#195,#196,#197,#198,#199),
.UNSPECIFIED.,.F.,.F.,(9,7,7,7,9),(0.E+000,0.234251210821,
0.629516055257,0.901581389055,1.),.UNSPECIFIED.);
#170 = CARTESIAN_POINT('',(7.86,-2.2,1.485361614641));
#171 = CARTESIAN_POINT('',(7.86,-2.170996497005,1.469051621373));
#172 = CARTESIAN_POINT('',(7.857329358446,-2.142151790211,1.451737311935
));
#173 = CARTESIAN_POINT('',(7.852039730329,-2.11370618568,1.433575228123)
);
#174 = CARTESIAN_POINT('',(7.844194561479,-2.085889919959,1.414702416272
));
#175 = CARTESIAN_POINT('',(7.833869359611,-2.058925107057,1.395241092947
));
#176 = CARTESIAN_POINT('',(7.821151965376,-2.033027685405,1.375303310627
));
#177 = CARTESIAN_POINT('',(7.806142823409,-2.00840936483,1.354995623398)
);
#178 = CARTESIAN_POINT('',(7.759953729026,-1.946251415121,1.299711713079
));
#179 = CARTESIAN_POINT('',(7.724815645428,-1.911549161658,1.264325828254
));
#180 = CARTESIAN_POINT('',(7.684044277309,-1.882019916175,1.228669765253
));
#181 = CARTESIAN_POINT('',(7.638236962988,-1.858688877387,1.193244431542
));
#182 = CARTESIAN_POINT('',(7.588320467127,-1.842694488416,1.158759222538
));
#183 = CARTESIAN_POINT('',(7.535680570096,-1.83508972736,1.12615697994)
);
#184 = CARTESIAN_POINT('',(7.482207066773,-1.836522489129,1.096667107538
));
#185 = CARTESIAN_POINT('',(7.394068119744,-1.853993651928,1.054157389408
));
#186 = CARTESIAN_POINT('',(7.358837229107,-1.865320290725,1.038918347909
));
#187 = CARTESIAN_POINT('',(7.32496156027,-1.880774546069,1.026127861921)
);
#188 = CARTESIAN_POINT('',(7.293072646699,-1.900137566823,1.016111518378
));
#189 = CARTESIAN_POINT('',(7.26374509017,-1.9230589162,1.009141143899));
#190 = CARTESIAN_POINT('',(7.23746537254,-1.949074406121,1.005411068855)
);
#191 = CARTESIAN_POINT('',(7.214605396564,-1.977630665216,1.005013287878
));
#192 = CARTESIAN_POINT('',(7.188453549201,-2.019144555008,1.008959940218
));
#193 = CARTESIAN_POINT('',(7.181984256153,-2.030425844237,1.010439766724
));
#194 = CARTESIAN_POINT('',(7.176003885524,-2.041931817714,1.01234947265)
);
#195 = CARTESIAN_POINT('',(7.170520752816,-2.053633785204,1.014685519513
));
#196 = CARTESIAN_POINT('',(7.165540651895,-2.065503114888,1.017442497166
));
#197 = CARTESIAN_POINT('',(7.161067026764,-2.077511491549,1.020613266942
));
#198 = CARTESIAN_POINT('',(7.15710114333,-2.089631174758,1.024189104794)
);
#199 = CARTESIAN_POINT('',(7.153642261175,-2.101835257061,1.028159844445
));
#200 = ORIENTED_EDGE('',*,*,#201,.T.);
#201 = EDGE_CURVE('',#167,#165,#202,.T.);
#202 = B_SPLINE_CURVE_WITH_KNOTS('',7,(#203,#204,#205,#206,#207,#208,
#209,#210,#211,#212,#213,#214,#215,#216,#217,#218,#219,#220,#221,
#222,#223,#224,#225,#226,#227,#228,#229,#230,#231,#232,#233,#234),
.UNSPECIFIED.,.F.,.F.,(8,6,6,6,6,8),(0.E+000,0.329178143375,
0.523192966936,0.688345668232,0.859118973559,1.),.UNSPECIFIED.);
#203 = CARTESIAN_POINT('',(7.153642261175,-2.101835257061,1.028159844445
));
#204 = CARTESIAN_POINT('',(7.137597974022,-2.158444818224,1.046578421402
));
#205 = CARTESIAN_POINT('',(7.132720755658,-2.216799681675,1.07363558333)
);
#206 = CARTESIAN_POINT('',(7.138811223055,-2.274159344163,1.108236571972
));
#207 = CARTESIAN_POINT('',(7.15476277516,-2.328384549789,1.148707783399)
);
#208 = CARTESIAN_POINT('',(7.179379672949,-2.378115484225,1.193325007799
));
#209 = CARTESIAN_POINT('',(7.21169179333,-2.422350876584,1.240516032612)
);
#210 = CARTESIAN_POINT('',(7.274158303359,-2.482177803956,1.316979909571
));
#211 = CARTESIAN_POINT('',(7.299722432977,-2.502045398374,1.345619108098
));
#212 = CARTESIAN_POINT('',(7.327544145625,-2.519390610972,1.374216670492
));
#213 = CARTESIAN_POINT('',(7.357475017988,-2.533947269205,1.402386888588
));
#214 = CARTESIAN_POINT('',(7.389315503822,-2.545387150327,1.429650005099
));
#215 = CARTESIAN_POINT('',(7.422771974631,-2.553345512192,1.455442349255
));
#216 = CARTESIAN_POINT('',(7.486905720576,-2.56098551656,1.499369356703)
);
#217 = CARTESIAN_POINT('',(7.517282105865,-2.561725499825,1.518090290356
));
#218 = CARTESIAN_POINT('',(7.548099556087,-2.559447129248,1.534838621393
));
#219 = CARTESIAN_POINT('',(7.578858232246,-2.554022179948,1.54919081953)
);
#220 = CARTESIAN_POINT('',(7.609037200133,-2.545456563416,1.560859250553
));
#221 = CARTESIAN_POINT('',(7.638134188935,-2.533892090544,1.569716632704
));
#222 = CARTESIAN_POINT('',(7.694227657016,-2.504807150905,1.58205075237)
);
#223 = CARTESIAN_POINT('',(7.721136431962,-2.487088361467,1.58533814101)
);
#224 = CARTESIAN_POINT('',(7.745975544606,-2.466708027109,1.585659446455
));
#225 = CARTESIAN_POINT('',(7.768394425094,-2.444038089826,1.583196099738
));
#226 = CARTESIAN_POINT('',(7.788160963114,-2.419486027242,1.578211328523
));
#227 = CARTESIAN_POINT('',(7.805146536713,-2.393450216545,1.570989472489
));
#228 = CARTESIAN_POINT('',(7.83095682338,-2.343894171817,1.55421445165)
);
#229 = CARTESIAN_POINT('',(7.840690568567,-2.320729309803,1.545289798125
));
#230 = CARTESIAN_POINT('',(7.848459586092,-2.297000029648,1.535172468513
));
#231 = CARTESIAN_POINT('',(7.85425739676,-2.272893734257,1.524001486175)
);
#232 = CARTESIAN_POINT('',(7.858096048789,-2.248585617998,1.51190373997)
);
#233 = CARTESIAN_POINT('',(7.86,-2.224238057091,1.498991780213));
#234 = CARTESIAN_POINT('',(7.86,-2.2,1.485361614641));
#235 = TOROIDAL_SURFACE('',#236,5.310975609756,2.439024390244);
#236 = AXIS2_PLACEMENT_3D('',#237,#238,#239);
#237 = CARTESIAN_POINT('',(3.75,-1.160975609756,7.78));
#238 = DIRECTION('',(0.E+000,-1.,0.E+000));
#239 = DIRECTION('',(1.,0.E+000,0.E+000));
#240 = ADVANCED_FACE('',(#241),#244,.F.);
#241 = FACE_BOUND('',#242,.F.);
#242 = EDGE_LOOP('',(#243));
#243 = ORIENTED_EDGE('',*,*,#64,.T.);
#244 = PLANE('',#245);
#245 = AXIS2_PLACEMENT_3D('',#246,#247,#248);
#246 = CARTESIAN_POINT('',(3.75,1.4,7.78));
#247 = DIRECTION('',(-0.E+000,-1.,-0.E+000));
#248 = DIRECTION('',(0.E+000,0.E+000,-1.));
#249 = ADVANCED_FACE('',(#250),#270,.T.);
#250 = FACE_BOUND('',#251,.T.);
#251 = EDGE_LOOP('',(#252,#253,#261,#268,#269));
#252 = ORIENTED_EDGE('',*,*,#95,.T.);
#253 = ORIENTED_EDGE('',*,*,#254,.T.);
#254 = EDGE_CURVE('',#75,#255,#257,.T.);
#255 = VERTEX_POINT('',#256);
#256 = CARTESIAN_POINT('',(0.36,0.E+000,-2.856));
#257 = LINE('',#258,#259);
#258 = CARTESIAN_POINT('',(0.36,0.E+000,7.78));
#259 = VECTOR('',#260,1.);
#260 = DIRECTION('',(-0.E+000,-0.E+000,-1.));
#261 = ORIENTED_EDGE('',*,*,#262,.T.);
#262 = EDGE_CURVE('',#255,#255,#263,.T.);
#263 = CIRCLE('',#264,0.36);
#264 = AXIS2_PLACEMENT_3D('',#265,#266,#267);
#265 = CARTESIAN_POINT('',(0.E+000,0.E+000,-2.856));
#266 = DIRECTION('',(0.E+000,0.E+000,1.));
#267 = DIRECTION('',(1.,0.E+000,0.E+000));
#268 = ORIENTED_EDGE('',*,*,#254,.F.);
#269 = ORIENTED_EDGE('',*,*,#74,.T.);
#270 = CYLINDRICAL_SURFACE('',#271,0.36);
#271 = AXIS2_PLACEMENT_3D('',#272,#273,#274);
#272 = CARTESIAN_POINT('',(0.E+000,0.E+000,7.78));
#273 = DIRECTION('',(0.E+000,0.E+000,1.));
#274 = DIRECTION('',(1.,0.E+000,0.E+000));
#275 = ADVANCED_FACE('',(#276),#279,.T.);
#276 = FACE_BOUND('',#277,.T.);
#277 = EDGE_LOOP('',(#278));
#278 = ORIENTED_EDGE('',*,*,#154,.T.);
#279 = PLANE('',#280);
#280 = AXIS2_PLACEMENT_3D('',#281,#282,#283);
#281 = CARTESIAN_POINT('',(3.75,-3.6,7.78));
#282 = DIRECTION('',(-0.E+000,-1.,-0.E+000));
#283 = DIRECTION('',(0.E+000,0.E+000,-1.));
#284 = ADVANCED_FACE('',(#285),#305,.T.);
#285 = FACE_BOUND('',#286,.T.);
#286 = EDGE_LOOP('',(#287,#288,#296,#303,#304));
#287 = ORIENTED_EDGE('',*,*,#164,.F.);
#288 = ORIENTED_EDGE('',*,*,#289,.T.);
#289 = EDGE_CURVE('',#165,#290,#292,.T.);
#290 = VERTEX_POINT('',#291);
#291 = CARTESIAN_POINT('',(7.86,-2.2,-2.856));
#292 = LINE('',#293,#294);
#293 = CARTESIAN_POINT('',(7.86,-2.2,7.78));
#294 = VECTOR('',#295,1.);
#295 = DIRECTION('',(-0.E+000,-0.E+000,-1.));
#296 = ORIENTED_EDGE('',*,*,#297,.T.);
#297 = EDGE_CURVE('',#290,#290,#298,.T.);
#298 = CIRCLE('',#299,0.36);
#299 = AXIS2_PLACEMENT_3D('',#300,#301,#302);
#300 = CARTESIAN_POINT('',(7.5,-2.2,-2.856));
#301 = DIRECTION('',(0.E+000,0.E+000,1.));
#302 = DIRECTION('',(1.,0.E+000,0.E+000));
#303 = ORIENTED_EDGE('',*,*,#289,.F.);
#304 = ORIENTED_EDGE('',*,*,#201,.F.);
#305 = CYLINDRICAL_SURFACE('',#306,0.36);
#306 = AXIS2_PLACEMENT_3D('',#307,#308,#309);
#307 = CARTESIAN_POINT('',(7.5,-2.2,7.78));
#308 = DIRECTION('',(0.E+000,0.E+000,1.));
#309 = DIRECTION('',(1.,0.E+000,0.E+000));
#310 = ADVANCED_FACE('',(#311),#331,.T.);
#311 = FACE_BOUND('',#312,.F.);
#312 = EDGE_LOOP('',(#313,#322,#323,#324));
#313 = ORIENTED_EDGE('',*,*,#314,.F.);
#314 = EDGE_CURVE('',#255,#315,#317,.T.);
#315 = VERTEX_POINT('',#316);
#316 = CARTESIAN_POINT('',(0.216,0.E+000,-3.));
#317 = CIRCLE('',#318,0.144);
#318 = AXIS2_PLACEMENT_3D('',#319,#320,#321);
#319 = CARTESIAN_POINT('',(0.216,0.E+000,-2.856));
#320 = DIRECTION('',(-0.E+000,1.,0.E+000));
#321 = DIRECTION('',(1.,0.E+000,0.E+000));
#322 = ORIENTED_EDGE('',*,*,#262,.T.);
#323 = ORIENTED_EDGE('',*,*,#314,.T.);
#324 = ORIENTED_EDGE('',*,*,#325,.F.);
#325 = EDGE_CURVE('',#315,#315,#326,.T.);
#326 = CIRCLE('',#327,0.216);
#327 = AXIS2_PLACEMENT_3D('',#328,#329,#330);
#328 = CARTESIAN_POINT('',(0.E+000,0.E+000,-3.));
#329 = DIRECTION('',(0.E+000,0.E+000,1.));
#330 = DIRECTION('',(1.,0.E+000,0.E+000));
#331 = TOROIDAL_SURFACE('',#332,0.216,0.144);
#332 = AXIS2_PLACEMENT_3D('',#333,#334,#335);
#333 = CARTESIAN_POINT('',(0.E+000,0.E+000,-2.856));
#334 = DIRECTION('',(-0.E+000,-0.E+000,-1.));
#335 = DIRECTION('',(1.,0.E+000,0.E+000));
#336 = ADVANCED_FACE('',(#337),#357,.T.);
#337 = FACE_BOUND('',#338,.F.);
#338 = EDGE_LOOP('',(#339,#348,#349,#350));
#339 = ORIENTED_EDGE('',*,*,#340,.F.);
#340 = EDGE_CURVE('',#290,#341,#343,.T.);
#341 = VERTEX_POINT('',#342);
#342 = CARTESIAN_POINT('',(7.716,-2.2,-3.));
#343 = CIRCLE('',#344,0.144);
#344 = AXIS2_PLACEMENT_3D('',#345,#346,#347);
#345 = CARTESIAN_POINT('',(7.716,-2.2,-2.856));
#346 = DIRECTION('',(-0.E+000,1.,0.E+000));
#347 = DIRECTION('',(1.,0.E+000,0.E+000));
#348 = ORIENTED_EDGE('',*,*,#297,.T.);
#349 = ORIENTED_EDGE('',*,*,#340,.T.);
#350 = ORIENTED_EDGE('',*,*,#351,.F.);
#351 = EDGE_CURVE('',#341,#341,#352,.T.);
#352 = CIRCLE('',#353,0.216);
#353 = AXIS2_PLACEMENT_3D('',#354,#355,#356);
#354 = CARTESIAN_POINT('',(7.5,-2.2,-3.));
#355 = DIRECTION('',(0.E+000,0.E+000,1.));
#356 = DIRECTION('',(1.,0.E+000,0.E+000));
#357 = TOROIDAL_SURFACE('',#358,0.216,0.144);
#358 = AXIS2_PLACEMENT_3D('',#359,#360,#361);
#359 = CARTESIAN_POINT('',(7.5,-2.2,-2.856));
#360 = DIRECTION('',(-0.E+000,-0.E+000,-1.));
#361 = DIRECTION('',(1.,0.E+000,0.E+000));
#362 = ADVANCED_FACE('',(#363),#366,.F.);
#363 = FACE_BOUND('',#364,.F.);
#364 = EDGE_LOOP('',(#365));
#365 = ORIENTED_EDGE('',*,*,#325,.T.);
#366 = PLANE('',#367);
#367 = AXIS2_PLACEMENT_3D('',#368,#369,#370);
#368 = CARTESIAN_POINT('',(-1.483767504926E-017,1.497958850874E-017,-3.)
);
#369 = DIRECTION('',(0.E+000,0.E+000,1.));
#370 = DIRECTION('',(1.,0.E+000,0.E+000));
#371 = ADVANCED_FACE('',(#372),#375,.F.);
#372 = FACE_BOUND('',#373,.F.);
#373 = EDGE_LOOP('',(#374));
#374 = ORIENTED_EDGE('',*,*,#351,.T.);
#375 = PLANE('',#376);
#376 = AXIS2_PLACEMENT_3D('',#377,#378,#379);
#377 = CARTESIAN_POINT('',(7.5,-2.2,-3.));
#378 = DIRECTION('',(0.E+000,0.E+000,1.));
#379 = DIRECTION('',(1.,0.E+000,0.E+000));
#380 = ( GEOMETRIC_REPRESENTATION_CONTEXT(3)
GLOBAL_UNCERTAINTY_ASSIGNED_CONTEXT((#384)) GLOBAL_UNIT_ASSIGNED_CONTEXT
((#381,#382,#383)) REPRESENTATION_CONTEXT('Context #1',
'3D Context with UNIT and UNCERTAINTY') );
#381 = ( LENGTH_UNIT() NAMED_UNIT(*) SI_UNIT(.MILLI.,.METRE.) );
#382 = ( NAMED_UNIT(*) PLANE_ANGLE_UNIT() SI_UNIT($,.RADIAN.) );
#383 = ( NAMED_UNIT(*) SI_UNIT($,.STERADIAN.) SOLID_ANGLE_UNIT() );
#384 = UNCERTAINTY_MEASURE_WITH_UNIT(LENGTH_MEASURE(1.E-007),#381,
'distance_accuracy_value','confusion accuracy');
#385 = PRODUCT_RELATED_PRODUCT_CATEGORY('part',$,(#7));
#386 = MECHANICAL_DESIGN_GEOMETRIC_PRESENTATION_REPRESENTATION('',(#387,
#395,#402,#409,#416,#424,#431,#438,#445,#452,#459),#380);
#387 = STYLED_ITEM('color',(#388),#17);
#388 = PRESENTATION_STYLE_ASSIGNMENT((#389));
#389 = SURFACE_STYLE_USAGE(.BOTH.,#390);
#390 = SURFACE_SIDE_STYLE('',(#391));
#391 = SURFACE_STYLE_FILL_AREA(#392);
#392 = FILL_AREA_STYLE('',(#393));
#393 = FILL_AREA_STYLE_COLOUR('',#394);
#394 = COLOUR_RGB('',0.136999994516,0.402000010014,0.726999998093);
#395 = STYLED_ITEM('color',(#396),#50);
#396 = PRESENTATION_STYLE_ASSIGNMENT((#397));
#397 = SURFACE_STYLE_USAGE(.BOTH.,#398);
#398 = SURFACE_SIDE_STYLE('',(#399));
#399 = SURFACE_STYLE_FILL_AREA(#400);
#400 = FILL_AREA_STYLE('',(#401));
#401 = FILL_AREA_STYLE_COLOUR('',#394);
#402 = STYLED_ITEM('color',(#403),#140);
#403 = PRESENTATION_STYLE_ASSIGNMENT((#404));
#404 = SURFACE_STYLE_USAGE(.BOTH.,#405);
#405 = SURFACE_SIDE_STYLE('',(#406));
#406 = SURFACE_STYLE_FILL_AREA(#407);
#407 = FILL_AREA_STYLE('',(#408));
#408 = FILL_AREA_STYLE_COLOUR('',#394);
#409 = STYLED_ITEM('color',(#410),#240);
#410 = PRESENTATION_STYLE_ASSIGNMENT((#411));
#411 = SURFACE_STYLE_USAGE(.BOTH.,#412);
#412 = SURFACE_SIDE_STYLE('',(#413));
#413 = SURFACE_STYLE_FILL_AREA(#414);
#414 = FILL_AREA_STYLE('',(#415));
#415 = FILL_AREA_STYLE_COLOUR('',#394);
#416 = STYLED_ITEM('color',(#417),#249);
#417 = PRESENTATION_STYLE_ASSIGNMENT((#418));
#418 = SURFACE_STYLE_USAGE(.BOTH.,#419);
#419 = SURFACE_SIDE_STYLE('',(#420));
#420 = SURFACE_STYLE_FILL_AREA(#421);
#421 = FILL_AREA_STYLE('',(#422));
#422 = FILL_AREA_STYLE_COLOUR('',#423);
#423 = COLOUR_RGB('',0.824000000954,0.819999992847,0.78100001812);
#424 = STYLED_ITEM('color',(#425),#275);
#425 = PRESENTATION_STYLE_ASSIGNMENT((#426));
#426 = SURFACE_STYLE_USAGE(.BOTH.,#427);
#427 = SURFACE_SIDE_STYLE('',(#428));
#428 = SURFACE_STYLE_FILL_AREA(#429);
#429 = FILL_AREA_STYLE('',(#430));
#430 = FILL_AREA_STYLE_COLOUR('',#394);
#431 = STYLED_ITEM('color',(#432),#284);
#432 = PRESENTATION_STYLE_ASSIGNMENT((#433));
#433 = SURFACE_STYLE_USAGE(.BOTH.,#434);
#434 = SURFACE_SIDE_STYLE('',(#435));
#435 = SURFACE_STYLE_FILL_AREA(#436);
#436 = FILL_AREA_STYLE('',(#437));
#437 = FILL_AREA_STYLE_COLOUR('',#423);
#438 = STYLED_ITEM('color',(#439),#310);
#439 = PRESENTATION_STYLE_ASSIGNMENT((#440));
#440 = SURFACE_STYLE_USAGE(.BOTH.,#441);
#441 = SURFACE_SIDE_STYLE('',(#442));
#442 = SURFACE_STYLE_FILL_AREA(#443);
#443 = FILL_AREA_STYLE('',(#444));
#444 = FILL_AREA_STYLE_COLOUR('',#423);
#445 = STYLED_ITEM('color',(#446),#336);
#446 = PRESENTATION_STYLE_ASSIGNMENT((#447));
#447 = SURFACE_STYLE_USAGE(.BOTH.,#448);
#448 = SURFACE_SIDE_STYLE('',(#449));
#449 = SURFACE_STYLE_FILL_AREA(#450);
#450 = FILL_AREA_STYLE('',(#451));
#451 = FILL_AREA_STYLE_COLOUR('',#423);
#452 = STYLED_ITEM('color',(#453),#362);
#453 = PRESENTATION_STYLE_ASSIGNMENT((#454));
#454 = SURFACE_STYLE_USAGE(.BOTH.,#455);
#455 = SURFACE_SIDE_STYLE('',(#456));
#456 = SURFACE_STYLE_FILL_AREA(#457);
#457 = FILL_AREA_STYLE('',(#458));
#458 = FILL_AREA_STYLE_COLOUR('',#423);
#459 = STYLED_ITEM('color',(#460),#371);
#460 = PRESENTATION_STYLE_ASSIGNMENT((#461));
#461 = SURFACE_STYLE_USAGE(.BOTH.,#462);
#462 = SURFACE_SIDE_STYLE('',(#463));
#463 = SURFACE_STYLE_FILL_AREA(#464);
#464 = FILL_AREA_STYLE('',(#465));
#465 = FILL_AREA_STYLE_COLOUR('',#423);
ENDSEC;
END-ISO-10303-21;
