ISO-10303-21;
HEADER;
/* RV_Disc_D15.5mm_W5.9mm_P7.5mm.step 3D STEP model for use in ECAD systems
 * Copyright (C) 2018, kicad StepUp
 * 
 * This work is licensed under the [Creative Commons CC-BY-SA 4.0 License](https://creativecommons.org/licenses/by-sa/4.0/legalcode), 
 * with the following exception:
 * To the extent that the creation of electronic designs that use 'Licensed Material' can be considered to be 'Adapted Material', 
 * then the copyright holder waives article 3 of the license with respect to these designs and any generated files which use data provided 
 * as part of the 'Licensed Material'.
 * You are free to use the library data in your own projects without the obligation to share your project files under this or any other license agreement.
 * However, if you wish to redistribute these libraries, or parts thereof (including in modified form) as a collection then the exception above does not apply. 
 * Please refer to https://github.com/KiCad/kicad-packages3D/blob/master/LICENSE.md for further clarification of the exception.
 * Disclaimer of Warranties and Limitation of Liability.
 * These libraries are provided in the hope that they will be useful, but are provided without warranty of any kind, express or implied.
 * *USE 3D CAD DATA AT YOUR OWN RISK*
 * *DO NOT RELY UPON ANY INFORMATION FOUND HERE WITHOUT INDEPENDENT VERIFICATION.*
 * 
 */

FILE_DESCRIPTION(
/* description */ ('model of RV_Disc_D15.5mm_W5.9mm_P7.5mm'),
/* implementation_level */ '2;1');

FILE_NAME(
/* name */ 'RV_Disc_D15.5mm_W5.9mm_P7.5mm.step',
/* time_stamp */ '2018-11-11T21:00:04',
/* author */ ('kicad StepUp','ksu'),
/* organization */ ('FreeCAD'),
/* preprocessor_version */ 'OCC',
/* originating_system */ 'kicad StepUp',
/* authorisation */ '');

FILE_SCHEMA(('AUTOMOTIVE_DESIGN { 1 0 10303 214 1 1 1 1 }'));
ENDSEC;

DATA;
#1 = APPLICATION_PROTOCOL_DEFINITION('international standard',
'automotive_design',2000,#2);
#2 = APPLICATION_CONTEXT(
'core data for automotive mechanical design processes');
#3 = SHAPE_DEFINITION_REPRESENTATION(#4,#10);
#4 = PRODUCT_DEFINITION_SHAPE('','',#5);
#5 = PRODUCT_DEFINITION('design','',#6,#9);
#6 = PRODUCT_DEFINITION_FORMATION('','',#7);
#7 = PRODUCT('RV_Disc_D155mm_W59mm_P75mm','RV_Disc_D155mm_W59mm_P75mm',
'',(#8));
#8 = PRODUCT_CONTEXT('',#2,'mechanical');
#9 = PRODUCT_DEFINITION_CONTEXT('part definition',#2,'design');
#10 = ADVANCED_BREP_SHAPE_REPRESENTATION('',(#11,#15),#370);
#11 = AXIS2_PLACEMENT_3D('',#12,#13,#14);
#12 = CARTESIAN_POINT('',(0.E+000,0.E+000,0.E+000));
#13 = DIRECTION('',(0.E+000,0.E+000,1.));
#14 = DIRECTION('',(1.,0.E+000,-0.E+000));
#15 = MANIFOLD_SOLID_BREP('',#16);
#16 = CLOSED_SHELL('',(#17,#50,#134,#230,#239,#265,#274,#300,#326,#352,
#361));
#17 = ADVANCED_FACE('',(#18),#45,.T.);
#18 = FACE_BOUND('',#19,.F.);
#19 = EDGE_LOOP('',(#20,#30,#37,#38));
#20 = ORIENTED_EDGE('',*,*,#21,.T.);
#21 = EDGE_CURVE('',#22,#24,#26,.T.);
#22 = VERTEX_POINT('',#23);
#23 = CARTESIAN_POINT('',(11.5,-1.278048780488,7.78));
#24 = VERTEX_POINT('',#25);
#25 = CARTESIAN_POINT('',(11.5,-1.421951219512,7.78));
#26 = LINE('',#27,#28);
#27 = CARTESIAN_POINT('',(11.5,1.6,7.78));
#28 = VECTOR('',#29,1.);
#29 = DIRECTION('',(0.E+000,-1.,0.E+000));
#30 = ORIENTED_EDGE('',*,*,#31,.T.);
#31 = EDGE_CURVE('',#24,#24,#32,.T.);
#32 = CIRCLE('',#33,7.75);
#33 = AXIS2_PLACEMENT_3D('',#34,#35,#36);
#34 = CARTESIAN_POINT('',(3.75,-1.421951219512,7.78));
#35 = DIRECTION('',(2.18900008386E-033,-1.,1.532300058702E-032));
#36 = DIRECTION('',(1.,2.18900008386E-033,-5.690366858437E-033));
#37 = ORIENTED_EDGE('',*,*,#21,.F.);
#38 = ORIENTED_EDGE('',*,*,#39,.F.);
#39 = EDGE_CURVE('',#22,#22,#40,.T.);
#40 = CIRCLE('',#41,7.75);
#41 = AXIS2_PLACEMENT_3D('',#42,#43,#44);
#42 = CARTESIAN_POINT('',(3.75,-1.278048780488,7.78));
#43 = DIRECTION('',(2.18900008386E-033,-1.,1.532300058702E-032));
#44 = DIRECTION('',(1.,2.18900008386E-033,5.690366858437E-033));
#45 = CYLINDRICAL_SURFACE('',#46,7.75);
#46 = AXIS2_PLACEMENT_3D('',#47,#48,#49);
#47 = CARTESIAN_POINT('',(3.75,1.6,7.78));
#48 = DIRECTION('',(0.E+000,1.,0.E+000));
#49 = DIRECTION('',(1.,0.E+000,0.E+000));
#50 = ADVANCED_FACE('',(#51,#71),#129,.T.);
#51 = FACE_BOUND('',#52,.F.);
#52 = EDGE_LOOP('',(#53,#54,#63,#70));
#53 = ORIENTED_EDGE('',*,*,#39,.T.);
#54 = ORIENTED_EDGE('',*,*,#55,.T.);
#55 = EDGE_CURVE('',#22,#56,#58,.T.);
#56 = VERTEX_POINT('',#57);
#57 = CARTESIAN_POINT('',(8.621951219512,1.6,7.78));
#58 = CIRCLE('',#59,2.878048780488);
#59 = AXIS2_PLACEMENT_3D('',#60,#61,#62);
#60 = CARTESIAN_POINT('',(8.621951219512,-1.278048780488,7.78));
#61 = DIRECTION('',(-5.690366858437E-033,1.532300058702E-032,1.));
#62 = DIRECTION('',(1.,2.18900008386E-033,5.690366858437E-033));
#63 = ORIENTED_EDGE('',*,*,#64,.F.);
#64 = EDGE_CURVE('',#56,#56,#65,.T.);
#65 = CIRCLE('',#66,4.871951219512);
#66 = AXIS2_PLACEMENT_3D('',#67,#68,#69);
#67 = CARTESIAN_POINT('',(3.75,1.6,7.78));
#68 = DIRECTION('',(2.18900008386E-033,-1.,1.532300058702E-032));
#69 = DIRECTION('',(1.,2.18900008386E-033,5.690366858437E-033));
#70 = ORIENTED_EDGE('',*,*,#55,.F.);
#71 = FACE_BOUND('',#72,.F.);
#72 = EDGE_LOOP('',(#73,#94));
#73 = ORIENTED_EDGE('',*,*,#74,.T.);
#74 = EDGE_CURVE('',#75,#77,#79,.T.);
#75 = VERTEX_POINT('',#76);
#76 = CARTESIAN_POINT('',(0.36,0.E+000,1.145221638289));
#77 = VERTEX_POINT('',#78);
#78 = CARTESIAN_POINT('',(-1.727721819483E-002,-0.359585174516,
1.179984137081));
#79 = B_SPLINE_CURVE_WITH_KNOTS('',7,(#80,#81,#82,#83,#84,#85,#86,#87,
#88,#89,#90,#91,#92,#93),.UNSPECIFIED.,.F.,.F.,(8,6,8),(0.E+000,
0.389368846858,1.),.UNSPECIFIED.);
#80 = CARTESIAN_POINT('',(0.36,-1.665334536938E-016,1.145221638289));
#81 = CARTESIAN_POINT('',(0.36,-3.062473495026E-002,1.12817709259));
#82 = CARTESIAN_POINT('',(0.356960466314,-6.162326490065E-002,
1.113081691004));
#83 = CARTESIAN_POINT('',(0.350748547211,-9.265056398878E-002,
1.100188783141));
#84 = CARTESIAN_POINT('',(0.341270326185,-0.123302263503,1.089736426029)
);
#85 = CARTESIAN_POINT('',(0.328509392267,-0.15311375644,1.081920641179)
);
#86 = CARTESIAN_POINT('',(0.312560569894,-0.181586491526,1.076867394069)
);
#87 = CARTESIAN_POINT('',(0.264015952879,-0.250043342584,1.071052604209)
);
#88 = CARTESIAN_POINT('',(0.227097516865,-0.287392682329,1.074360137103)
);
#89 = CARTESIAN_POINT('',(0.183802870749,-0.318423956465,1.084643155641)
);
#90 = CARTESIAN_POINT('',(0.135699836377,-0.341651969906,1.101387304532)
);
#91 = CARTESIAN_POINT('',(8.477468112549E-002,-0.356221653925,
1.123645635217));
#92 = CARTESIAN_POINT('',(3.314272825425E-002,-0.362007733837,
1.150265225727));
#93 = CARTESIAN_POINT('',(-1.727721819483E-002,-0.359585174516,
1.179984137081));
#94 = ORIENTED_EDGE('',*,*,#95,.T.);
#95 = EDGE_CURVE('',#77,#75,#96,.T.);
#96 = B_SPLINE_CURVE_WITH_KNOTS('',6,(#97,#98,#99,#100,#101,#102,#103,
#104,#105,#106,#107,#108,#109,#110,#111,#112,#113,#114,#115,#116,
#117,#118,#119,#120,#121,#122,#123,#124,#125,#126,#127,#128),
.UNSPECIFIED.,.F.,.F.,(7,5,5,5,5,5,7),(0.E+000,0.183789919339,
0.398656015309,0.54540163636,0.672836234407,0.819123685779,1.),
.UNSPECIFIED.);
#97 = CARTESIAN_POINT('',(-1.727721819483E-002,-0.359585174516,
1.179984137081));
#98 = CARTESIAN_POINT('',(-7.089438848707E-002,-0.357008996142,
1.211587580623));
#99 = CARTESIAN_POINT('',(-0.123052182751,-0.344887042187,1.246767372688
));
#100 = CARTESIAN_POINT('',(-0.171658103562,-0.323991910178,
1.284101282639));
#101 = CARTESIAN_POINT('',(-0.215197494117,-0.295657980448,
1.322418449583));
#102 = CARTESIAN_POINT('',(-0.252745634946,-0.261196044187,
1.360882730979));
#103 = CARTESIAN_POINT('',(-0.319609827374,-0.17570303568,1.443051433189
));
#104 = CARTESIAN_POINT('',(-0.34639743871,-0.122937138551,1.486465143354
));
#105 = CARTESIAN_POINT('',(-0.362806248682,-6.543595574186E-002,
1.527814349696));
#106 = CARTESIAN_POINT('',(-0.367898397966,-5.224342272759E-003,
1.565851450811));
#107 = CARTESIAN_POINT('',(-0.360919247041,5.528353587002E-002,
1.598831688848));
#108 = CARTESIAN_POINT('',(-0.328654072178,0.152712714488,1.641985417427
));
#109 = CARTESIAN_POINT('',(-0.309878799029,0.191012774409,1.656067140099
));
#110 = CARTESIAN_POINT('',(-0.285418806343,0.227083447403,1.665972816715
));
#111 = CARTESIAN_POINT('',(-0.255494309184,0.259734831982,1.670835847854
));
#112 = CARTESIAN_POINT('',(-0.220870314869,0.28768646428,1.669883277285)
);
#113 = CARTESIAN_POINT('',(-0.149851079456,0.329564998257,1.657164832575
));
#114 = CARTESIAN_POINT('',(-0.114266896635,0.344866052441,1.64683432583)
);
#115 = CARTESIAN_POINT('',(-7.700322976548E-002,0.355415819401,
1.632051563462));
#116 = CARTESIAN_POINT('',(-3.912274277706E-002,0.361015031073,
1.613203846825));
#117 = CARTESIAN_POINT('',(-1.611667498772E-003,0.361840873787,
1.591058912759));
#118 = CARTESIAN_POINT('',(7.63985521267E-002,0.35428485688,
1.538328721643));
#119 = CARTESIAN_POINT('',(0.116556208654,0.344519183857,1.506954478301)
);
#120 = CARTESIAN_POINT('',(0.154316431171,0.329624693811,1.473471680005)
);
#121 = CARTESIAN_POINT('',(0.189148432407,0.310278822,1.438907405521));
#122 = CARTESIAN_POINT('',(0.220720191548,0.287024181086,1.404025950674)
);
#123 = CARTESIAN_POINT('',(0.283346282126,0.227175065284,1.326694252783)
);
#124 = CARTESIAN_POINT('',(0.312458068361,0.188779051522,1.284472537798)
);
#125 = CARTESIAN_POINT('',(0.335452514599,0.145916138733,1.244015112335)
);
#126 = CARTESIAN_POINT('',(0.351597212787,9.936443724792E-002,
1.206487277221));
#127 = CARTESIAN_POINT('',(0.36,5.020716643425E-002,1.173165009687));
#128 = CARTESIAN_POINT('',(0.36,-1.665334536938E-016,1.145221638289));
#129 = TOROIDAL_SURFACE('',#130,4.871951219512,2.878048780488);
#130 = AXIS2_PLACEMENT_3D('',#131,#132,#133);
#131 = CARTESIAN_POINT('',(3.75,-1.278048780488,7.78));
#132 = DIRECTION('',(-2.18900008386E-033,1.,-1.532300058702E-032));
#133 = DIRECTION('',(1.,2.18900008386E-033,5.690366858437E-033));
#134 = ADVANCED_FACE('',(#135,#155),#225,.T.);
#135 = FACE_BOUND('',#136,.T.);
#136 = EDGE_LOOP('',(#137,#138,#147,#154));
#137 = ORIENTED_EDGE('',*,*,#31,.T.);
#138 = ORIENTED_EDGE('',*,*,#139,.T.);
#139 = EDGE_CURVE('',#24,#140,#142,.T.);
#140 = VERTEX_POINT('',#141);
#141 = CARTESIAN_POINT('',(8.621951219512,-4.3,7.78));
#142 = CIRCLE('',#143,2.878048780488);
#143 = AXIS2_PLACEMENT_3D('',#144,#145,#146);
#144 = CARTESIAN_POINT('',(8.621951219512,-1.421951219512,7.78));
#145 = DIRECTION('',(-5.690366858437E-033,-1.532300058702E-032,-1.));
#146 = DIRECTION('',(1.,2.18900008386E-033,-5.690366858437E-033));
#147 = ORIENTED_EDGE('',*,*,#148,.F.);
#148 = EDGE_CURVE('',#140,#140,#149,.T.);
#149 = CIRCLE('',#150,4.871951219512);
#150 = AXIS2_PLACEMENT_3D('',#151,#152,#153);
#151 = CARTESIAN_POINT('',(3.75,-4.3,7.78));
#152 = DIRECTION('',(2.18900008386E-033,-1.,1.532300058702E-032));
#153 = DIRECTION('',(1.,2.18900008386E-033,-5.690366858437E-033));
#154 = ORIENTED_EDGE('',*,*,#139,.F.);
#155 = FACE_BOUND('',#156,.T.);
#156 = EDGE_LOOP('',(#157,#178));
#157 = ORIENTED_EDGE('',*,*,#158,.T.);
#158 = EDGE_CURVE('',#159,#161,#163,.T.);
#159 = VERTEX_POINT('',#160);
#160 = CARTESIAN_POINT('',(7.86,-2.7,1.565477982256));
#161 = VERTEX_POINT('',#162);
#162 = CARTESIAN_POINT('',(7.49055190682,-2.340124002557,1.164688469103)
);
#163 = B_SPLINE_CURVE_WITH_KNOTS('',7,(#164,#165,#166,#167,#168,#169,
#170,#171,#172,#173,#174,#175,#176,#177),.UNSPECIFIED.,.F.,.F.,(8,6,
8),(0.E+000,0.427242223472,1.),.UNSPECIFIED.);
#164 = CARTESIAN_POINT('',(7.86,-2.7,1.565477982256));
#165 = CARTESIAN_POINT('',(7.86,-2.665128233405,1.544757219932));
#166 = CARTESIAN_POINT('',(7.856058786992,-2.63054062947,1.522444991961)
);
#167 = CARTESIAN_POINT('',(7.848293272776,-2.596683827845,1.498868441655
));
#168 = CARTESIAN_POINT('',(7.836847214663,-2.563972002899,1.474308499602
));
#169 = CARTESIAN_POINT('',(7.821890438975,-2.5327953035,1.449014235885)
);
#170 = CARTESIAN_POINT('',(7.803618064534,-2.503528292779,1.423217212304
));
#171 = CARTESIAN_POINT('',(7.753603489206,-2.440355920315,1.362194737747
));
#172 = CARTESIAN_POINT('',(7.719427074515,-2.40830765326,1.326791334419)
);
#173 = CARTESIAN_POINT('',(7.680234438145,-2.381209317294,1.291437893437
));
#174 = CARTESIAN_POINT('',(7.636653821174,-2.359976367992,1.256717502035
));
#175 = CARTESIAN_POINT('',(7.589592614849,-2.345569542223,1.223368978936
));
#176 = CARTESIAN_POINT('',(7.540352610773,-2.338816547504,1.192342110781
));
#177 = CARTESIAN_POINT('',(7.49055190682,-2.340124002557,1.164688469103)
);
#178 = ORIENTED_EDGE('',*,*,#179,.T.);
#179 = EDGE_CURVE('',#161,#159,#180,.T.);
#180 = B_SPLINE_CURVE_WITH_KNOTS('',7,(#181,#182,#183,#184,#185,#186,
#187,#188,#189,#190,#191,#192,#193,#194,#195,#196,#197,#198,#199,
#200,#201,#202,#203,#204,#205,#206,#207,#208,#209,#210,#211,#212,
#213,#214,#215,#216,#217,#218,#219,#220,#221,#222,#223,#224),
.UNSPECIFIED.,.F.,.F.,(8,6,6,6,6,6,6,8),(0.E+000,0.191306752989,
0.295617505923,0.347582392429,0.503482831375,0.693507554241,
0.903855720671,1.),.UNSPECIFIED.);
#181 = CARTESIAN_POINT('',(7.49055190682,-2.340124002557,1.164688469103)
);
#182 = CARTESIAN_POINT('',(7.443125041039,-2.341369135465,1.13835298691)
);
#183 = CARTESIAN_POINT('',(7.395279375478,-2.349922196595,1.11512701199)
);
#184 = CARTESIAN_POINT('',(7.348613587849,-2.366079570409,1.096004582294
));
#185 = CARTESIAN_POINT('',(7.304825090489,-2.389603287499,1.08189022575)
);
#186 = CARTESIAN_POINT('',(7.265477114088,-2.419708908265,1.073490134751
));
#187 = CARTESIAN_POINT('',(7.231794549016,-2.455149550586,1.071178402858
));
#188 = CARTESIAN_POINT('',(7.189599838696,-2.515795374606,1.076833909893
));
#189 = CARTESIAN_POINT('',(7.176603201481,-2.538331510152,1.080605517453
));
#190 = CARTESIAN_POINT('',(7.165613580272,-2.56176096746,1.086136760734)
);
#191 = CARTESIAN_POINT('',(7.156690718209,-2.585832516792,1.093371860144
));
#192 = CARTESIAN_POINT('',(7.149847176043,-2.610304412389,1.102224228226
));
#193 = CARTESIAN_POINT('',(7.145058553541,-2.634954571857,1.112585386927
));
#194 = CARTESIAN_POINT('',(7.140889670041,-2.671853319744,1.130187175262
));
#195 = CARTESIAN_POINT('',(7.140001181874,-2.684118439393,1.13638486943)
);
#196 = CARTESIAN_POINT('',(7.139604406841,-2.696354977357,1.142912636163
));
#197 = CARTESIAN_POINT('',(7.139691906911,-2.708540402082,1.1497551884)
);
#198 = CARTESIAN_POINT('',(7.140255187104,-2.720653729976,1.156896832693
));
#199 = CARTESIAN_POINT('',(7.141285037773,-2.732675501429,1.164321687419
));
#200 = CARTESIAN_POINT('',(7.1472325596,-2.780325847866,1.195091397228)
);
#201 = CARTESIAN_POINT('',(7.155805046102,-2.815066850979,1.22056795416)
);
#202 = CARTESIAN_POINT('',(7.168227401722,-2.848343271852,1.248023357448
));
#203 = CARTESIAN_POINT('',(7.184215452525,-2.879778233142,1.277028621878
));
#204 = CARTESIAN_POINT('',(7.20349886214,-2.909058764569,1.307161618036)
);
#205 = CARTESIAN_POINT('',(7.225836604164,-2.935901303513,1.338004087325
));
#206 = CARTESIAN_POINT('',(7.281697538122,-2.989394413316,1.407046823052
));
#207 = CARTESIAN_POINT('',(7.316534245041,-3.01465514968,1.445300310109)
);
#208 = CARTESIAN_POINT('',(7.355183182754,-3.035365969649,1.483191107808
));
#209 = CARTESIAN_POINT('',(7.397275640902,-3.050866934333,1.519823830953
));
#210 = CARTESIAN_POINT('',(7.442211027263,-3.060337829169,1.553983158864
));
#211 = CARTESIAN_POINT('',(7.488945119963,-3.062922462158,1.584197425445
));
#212 = CARTESIAN_POINT('',(7.588052398518,-3.052966458441,1.636931030095
));
#213 = CARTESIAN_POINT('',(7.640400287153,-3.038788540214,1.658232118878
));
#214 = CARTESIAN_POINT('',(7.690324575617,-3.015213059654,1.671121374204
));
#215 = CARTESIAN_POINT('',(7.735188146775,-2.983091925156,1.67485107377)
);
#216 = CARTESIAN_POINT('',(7.773123086841,-2.944236209002,1.670262955857
));
#217 = CARTESIAN_POINT('',(7.803169618245,-2.900739146593,1.65864202278)
);
#218 = CARTESIAN_POINT('',(7.835129244647,-2.833541170232,1.633564655417
));
#219 = CARTESIAN_POINT('',(7.843479136162,-2.811873391822,1.624514810583
));
#220 = CARTESIAN_POINT('',(7.850134007985,-2.789778711588,1.614401213004
));
#221 = CARTESIAN_POINT('',(7.855094143712,-2.767408651447,1.603338480488
));
#222 = CARTESIAN_POINT('',(7.858374555118,-2.744904225406,1.59143394167)
);
#223 = CARTESIAN_POINT('',(7.86,-2.722395307548,1.578785247421));
#224 = CARTESIAN_POINT('',(7.86,-2.7,1.565477982256));
#225 = TOROIDAL_SURFACE('',#226,4.871951219512,2.878048780488);
#226 = AXIS2_PLACEMENT_3D('',#227,#228,#229);
#227 = CARTESIAN_POINT('',(3.75,-1.421951219512,7.78));
#228 = DIRECTION('',(2.18900008386E-033,-1.,1.532300058702E-032));
#229 = DIRECTION('',(1.,2.18900008386E-033,-5.690366858437E-033));
#230 = ADVANCED_FACE('',(#231),#234,.F.);
#231 = FACE_BOUND('',#232,.F.);
#232 = EDGE_LOOP('',(#233));
#233 = ORIENTED_EDGE('',*,*,#64,.T.);
#234 = PLANE('',#235);
#235 = AXIS2_PLACEMENT_3D('',#236,#237,#238);
#236 = CARTESIAN_POINT('',(3.75,1.6,7.78));
#237 = DIRECTION('',(2.18900008386E-033,-1.,1.532300058702E-032));
#238 = DIRECTION('',(0.E+000,-1.532300058702E-032,-1.));
#239 = ADVANCED_FACE('',(#240),#260,.T.);
#240 = FACE_BOUND('',#241,.T.);
#241 = EDGE_LOOP('',(#242,#243,#251,#258,#259));
#242 = ORIENTED_EDGE('',*,*,#95,.T.);
#243 = ORIENTED_EDGE('',*,*,#244,.T.);
#244 = EDGE_CURVE('',#75,#245,#247,.T.);
#245 = VERTEX_POINT('',#246);
#246 = CARTESIAN_POINT('',(0.36,0.E+000,-2.856));
#247 = LINE('',#248,#249);
#248 = CARTESIAN_POINT('',(0.36,0.E+000,7.78));
#249 = VECTOR('',#250,1.);
#250 = DIRECTION('',(-0.E+000,-0.E+000,-1.));
#251 = ORIENTED_EDGE('',*,*,#252,.T.);
#252 = EDGE_CURVE('',#245,#245,#253,.T.);
#253 = CIRCLE('',#254,0.36);
#254 = AXIS2_PLACEMENT_3D('',#255,#256,#257);
#255 = CARTESIAN_POINT('',(0.E+000,0.E+000,-2.856));
#256 = DIRECTION('',(0.E+000,0.E+000,1.));
#257 = DIRECTION('',(1.,0.E+000,0.E+000));
#258 = ORIENTED_EDGE('',*,*,#244,.F.);
#259 = ORIENTED_EDGE('',*,*,#74,.T.);
#260 = CYLINDRICAL_SURFACE('',#261,0.36);
#261 = AXIS2_PLACEMENT_3D('',#262,#263,#264);
#262 = CARTESIAN_POINT('',(0.E+000,0.E+000,7.78));
#263 = DIRECTION('',(0.E+000,0.E+000,1.));
#264 = DIRECTION('',(1.,0.E+000,0.E+000));
#265 = ADVANCED_FACE('',(#266),#269,.T.);
#266 = FACE_BOUND('',#267,.T.);
#267 = EDGE_LOOP('',(#268));
#268 = ORIENTED_EDGE('',*,*,#148,.T.);
#269 = PLANE('',#270);
#270 = AXIS2_PLACEMENT_3D('',#271,#272,#273);
#271 = CARTESIAN_POINT('',(3.75,-4.3,7.78));
#272 = DIRECTION('',(2.18900008386E-033,-1.,1.532300058702E-032));
#273 = DIRECTION('',(0.E+000,-1.532300058702E-032,-1.));
#274 = ADVANCED_FACE('',(#275),#295,.T.);
#275 = FACE_BOUND('',#276,.T.);
#276 = EDGE_LOOP('',(#277,#278,#286,#293,#294));
#277 = ORIENTED_EDGE('',*,*,#158,.F.);
#278 = ORIENTED_EDGE('',*,*,#279,.T.);
#279 = EDGE_CURVE('',#159,#280,#282,.T.);
#280 = VERTEX_POINT('',#281);
#281 = CARTESIAN_POINT('',(7.86,-2.7,-2.856));
#282 = LINE('',#283,#284);
#283 = CARTESIAN_POINT('',(7.86,-2.7,7.78));
#284 = VECTOR('',#285,1.);
#285 = DIRECTION('',(-0.E+000,-0.E+000,-1.));
#286 = ORIENTED_EDGE('',*,*,#287,.T.);
#287 = EDGE_CURVE('',#280,#280,#288,.T.);
#288 = CIRCLE('',#289,0.36);
#289 = AXIS2_PLACEMENT_3D('',#290,#291,#292);
#290 = CARTESIAN_POINT('',(7.5,-2.7,-2.856));
#291 = DIRECTION('',(0.E+000,0.E+000,1.));
#292 = DIRECTION('',(1.,0.E+000,0.E+000));
#293 = ORIENTED_EDGE('',*,*,#279,.F.);
#294 = ORIENTED_EDGE('',*,*,#179,.F.);
#295 = CYLINDRICAL_SURFACE('',#296,0.36);
#296 = AXIS2_PLACEMENT_3D('',#297,#298,#299);
#297 = CARTESIAN_POINT('',(7.5,-2.7,7.78));
#298 = DIRECTION('',(0.E+000,0.E+000,1.));
#299 = DIRECTION('',(1.,0.E+000,0.E+000));
#300 = ADVANCED_FACE('',(#301),#321,.T.);
#301 = FACE_BOUND('',#302,.F.);
#302 = EDGE_LOOP('',(#303,#312,#313,#314));
#303 = ORIENTED_EDGE('',*,*,#304,.F.);
#304 = EDGE_CURVE('',#245,#305,#307,.T.);
#305 = VERTEX_POINT('',#306);
#306 = CARTESIAN_POINT('',(0.216,0.E+000,-3.));
#307 = CIRCLE('',#308,0.144);
#308 = AXIS2_PLACEMENT_3D('',#309,#310,#311);
#309 = CARTESIAN_POINT('',(0.216,0.E+000,-2.856));
#310 = DIRECTION('',(-0.E+000,1.,0.E+000));
#311 = DIRECTION('',(1.,0.E+000,0.E+000));
#312 = ORIENTED_EDGE('',*,*,#252,.T.);
#313 = ORIENTED_EDGE('',*,*,#304,.T.);
#314 = ORIENTED_EDGE('',*,*,#315,.F.);
#315 = EDGE_CURVE('',#305,#305,#316,.T.);
#316 = CIRCLE('',#317,0.216);
#317 = AXIS2_PLACEMENT_3D('',#318,#319,#320);
#318 = CARTESIAN_POINT('',(0.E+000,0.E+000,-3.));
#319 = DIRECTION('',(0.E+000,0.E+000,1.));
#320 = DIRECTION('',(1.,0.E+000,0.E+000));
#321 = TOROIDAL_SURFACE('',#322,0.216,0.144);
#322 = AXIS2_PLACEMENT_3D('',#323,#324,#325);
#323 = CARTESIAN_POINT('',(0.E+000,0.E+000,-2.856));
#324 = DIRECTION('',(-0.E+000,-0.E+000,-1.));
#325 = DIRECTION('',(1.,0.E+000,0.E+000));
#326 = ADVANCED_FACE('',(#327),#347,.T.);
#327 = FACE_BOUND('',#328,.F.);
#328 = EDGE_LOOP('',(#329,#338,#339,#340));
#329 = ORIENTED_EDGE('',*,*,#330,.F.);
#330 = EDGE_CURVE('',#280,#331,#333,.T.);
#331 = VERTEX_POINT('',#332);
#332 = CARTESIAN_POINT('',(7.716,-2.7,-3.));
#333 = CIRCLE('',#334,0.144);
#334 = AXIS2_PLACEMENT_3D('',#335,#336,#337);
#335 = CARTESIAN_POINT('',(7.716,-2.7,-2.856));
#336 = DIRECTION('',(-0.E+000,1.,0.E+000));
#337 = DIRECTION('',(1.,0.E+000,0.E+000));
#338 = ORIENTED_EDGE('',*,*,#287,.T.);
#339 = ORIENTED_EDGE('',*,*,#330,.T.);
#340 = ORIENTED_EDGE('',*,*,#341,.F.);
#341 = EDGE_CURVE('',#331,#331,#342,.T.);
#342 = CIRCLE('',#343,0.216);
#343 = AXIS2_PLACEMENT_3D('',#344,#345,#346);
#344 = CARTESIAN_POINT('',(7.5,-2.7,-3.));
#345 = DIRECTION('',(0.E+000,0.E+000,1.));
#346 = DIRECTION('',(1.,0.E+000,0.E+000));
#347 = TOROIDAL_SURFACE('',#348,0.216,0.144);
#348 = AXIS2_PLACEMENT_3D('',#349,#350,#351);
#349 = CARTESIAN_POINT('',(7.5,-2.7,-2.856));
#350 = DIRECTION('',(-0.E+000,-0.E+000,-1.));
#351 = DIRECTION('',(1.,0.E+000,0.E+000));
#352 = ADVANCED_FACE('',(#353),#356,.F.);
#353 = FACE_BOUND('',#354,.F.);
#354 = EDGE_LOOP('',(#355));
#355 = ORIENTED_EDGE('',*,*,#315,.T.);
#356 = PLANE('',#357);
#357 = AXIS2_PLACEMENT_3D('',#358,#359,#360);
#358 = CARTESIAN_POINT('',(-1.483767504926E-017,1.497958850874E-017,-3.)
);
#359 = DIRECTION('',(0.E+000,0.E+000,1.));
#360 = DIRECTION('',(1.,0.E+000,0.E+000));
#361 = ADVANCED_FACE('',(#362),#365,.F.);
#362 = FACE_BOUND('',#363,.F.);
#363 = EDGE_LOOP('',(#364));
#364 = ORIENTED_EDGE('',*,*,#341,.T.);
#365 = PLANE('',#366);
#366 = AXIS2_PLACEMENT_3D('',#367,#368,#369);
#367 = CARTESIAN_POINT('',(7.5,-2.7,-3.));
#368 = DIRECTION('',(0.E+000,0.E+000,1.));
#369 = DIRECTION('',(1.,0.E+000,0.E+000));
#370 = ( GEOMETRIC_REPRESENTATION_CONTEXT(3)
GLOBAL_UNCERTAINTY_ASSIGNED_CONTEXT((#374)) GLOBAL_UNIT_ASSIGNED_CONTEXT
((#371,#372,#373)) REPRESENTATION_CONTEXT('Context #1',
'3D Context with UNIT and UNCERTAINTY') );
#371 = ( LENGTH_UNIT() NAMED_UNIT(*) SI_UNIT(.MILLI.,.METRE.) );
#372 = ( NAMED_UNIT(*) PLANE_ANGLE_UNIT() SI_UNIT($,.RADIAN.) );
#373 = ( NAMED_UNIT(*) SI_UNIT($,.STERADIAN.) SOLID_ANGLE_UNIT() );
#374 = UNCERTAINTY_MEASURE_WITH_UNIT(LENGTH_MEASURE(1.E-007),#371,
'distance_accuracy_value','confusion accuracy');
#375 = PRODUCT_RELATED_PRODUCT_CATEGORY('part',$,(#7));
#376 = MECHANICAL_DESIGN_GEOMETRIC_PRESENTATION_REPRESENTATION('',(#377,
#385,#392,#399,#406,#414,#421,#428,#435,#442,#449),#370);
#377 = STYLED_ITEM('color',(#378),#17);
#378 = PRESENTATION_STYLE_ASSIGNMENT((#379));
#379 = SURFACE_STYLE_USAGE(.BOTH.,#380);
#380 = SURFACE_SIDE_STYLE('',(#381));
#381 = SURFACE_STYLE_FILL_AREA(#382);
#382 = FILL_AREA_STYLE('',(#383));
#383 = FILL_AREA_STYLE_COLOUR('',#384);
#384 = COLOUR_RGB('',0.136999994516,0.402000010014,0.726999998093);
#385 = STYLED_ITEM('color',(#386),#50);
#386 = PRESENTATION_STYLE_ASSIGNMENT((#387));
#387 = SURFACE_STYLE_USAGE(.BOTH.,#388);
#388 = SURFACE_SIDE_STYLE('',(#389));
#389 = SURFACE_STYLE_FILL_AREA(#390);
#390 = FILL_AREA_STYLE('',(#391));
#391 = FILL_AREA_STYLE_COLOUR('',#384);
#392 = STYLED_ITEM('color',(#393),#134);
#393 = PRESENTATION_STYLE_ASSIGNMENT((#394));
#394 = SURFACE_STYLE_USAGE(.BOTH.,#395);
#395 = SURFACE_SIDE_STYLE('',(#396));
#396 = SURFACE_STYLE_FILL_AREA(#397);
#397 = FILL_AREA_STYLE('',(#398));
#398 = FILL_AREA_STYLE_COLOUR('',#384);
#399 = STYLED_ITEM('color',(#400),#230);
#400 = PRESENTATION_STYLE_ASSIGNMENT((#401));
#401 = SURFACE_STYLE_USAGE(.BOTH.,#402);
#402 = SURFACE_SIDE_STYLE('',(#403));
#403 = SURFACE_STYLE_FILL_AREA(#404);
#404 = FILL_AREA_STYLE('',(#405));
#405 = FILL_AREA_STYLE_COLOUR('',#384);
#406 = STYLED_ITEM('color',(#407),#239);
#407 = PRESENTATION_STYLE_ASSIGNMENT((#408));
#408 = SURFACE_STYLE_USAGE(.BOTH.,#409);
#409 = SURFACE_SIDE_STYLE('',(#410));
#410 = SURFACE_STYLE_FILL_AREA(#411);
#411 = FILL_AREA_STYLE('',(#412));
#412 = FILL_AREA_STYLE_COLOUR('',#413);
#413 = COLOUR_RGB('',0.824000000954,0.819999992847,0.78100001812);
#414 = STYLED_ITEM('color',(#415),#265);
#415 = PRESENTATION_STYLE_ASSIGNMENT((#416));
#416 = SURFACE_STYLE_USAGE(.BOTH.,#417);
#417 = SURFACE_SIDE_STYLE('',(#418));
#418 = SURFACE_STYLE_FILL_AREA(#419);
#419 = FILL_AREA_STYLE('',(#420));
#420 = FILL_AREA_STYLE_COLOUR('',#384);
#421 = STYLED_ITEM('color',(#422),#274);
#422 = PRESENTATION_STYLE_ASSIGNMENT((#423));
#423 = SURFACE_STYLE_USAGE(.BOTH.,#424);
#424 = SURFACE_SIDE_STYLE('',(#425));
#425 = SURFACE_STYLE_FILL_AREA(#426);
#426 = FILL_AREA_STYLE('',(#427));
#427 = FILL_AREA_STYLE_COLOUR('',#413);
#428 = STYLED_ITEM('color',(#429),#300);
#429 = PRESENTATION_STYLE_ASSIGNMENT((#430));
#430 = SURFACE_STYLE_USAGE(.BOTH.,#431);
#431 = SURFACE_SIDE_STYLE('',(#432));
#432 = SURFACE_STYLE_FILL_AREA(#433);
#433 = FILL_AREA_STYLE('',(#434));
#434 = FILL_AREA_STYLE_COLOUR('',#413);
#435 = STYLED_ITEM('color',(#436),#326);
#436 = PRESENTATION_STYLE_ASSIGNMENT((#437));
#437 = SURFACE_STYLE_USAGE(.BOTH.,#438);
#438 = SURFACE_SIDE_STYLE('',(#439));
#439 = SURFACE_STYLE_FILL_AREA(#440);
#440 = FILL_AREA_STYLE('',(#441));
#441 = FILL_AREA_STYLE_COLOUR('',#413);
#442 = STYLED_ITEM('color',(#443),#352);
#443 = PRESENTATION_STYLE_ASSIGNMENT((#444));
#444 = SURFACE_STYLE_USAGE(.BOTH.,#445);
#445 = SURFACE_SIDE_STYLE('',(#446));
#446 = SURFACE_STYLE_FILL_AREA(#447);
#447 = FILL_AREA_STYLE('',(#448));
#448 = FILL_AREA_STYLE_COLOUR('',#413);
#449 = STYLED_ITEM('color',(#450),#361);
#450 = PRESENTATION_STYLE_ASSIGNMENT((#451));
#451 = SURFACE_STYLE_USAGE(.BOTH.,#452);
#452 = SURFACE_SIDE_STYLE('',(#453));
#453 = SURFACE_STYLE_FILL_AREA(#454);
#454 = FILL_AREA_STYLE('',(#455));
#455 = FILL_AREA_STYLE_COLOUR('',#413);
ENDSEC;
END-ISO-10303-21;
