ISO-10303-21;
HEADER;
/* RV_Disc_D15.5mm_W4.5mm_P7.5mm.step 3D STEP model for use in ECAD systems
 * Copyright (C) 2018, kicad StepUp
 * 
 * This work is licensed under the [Creative Commons CC-BY-SA 4.0 License](https://creativecommons.org/licenses/by-sa/4.0/legalcode), 
 * with the following exception:
 * To the extent that the creation of electronic designs that use 'Licensed Material' can be considered to be 'Adapted Material', 
 * then the copyright holder waives article 3 of the license with respect to these designs and any generated files which use data provided 
 * as part of the 'Licensed Material'.
 * You are free to use the library data in your own projects without the obligation to share your project files under this or any other license agreement.
 * However, if you wish to redistribute these libraries, or parts thereof (including in modified form) as a collection then the exception above does not apply. 
 * Please refer to https://github.com/KiCad/kicad-packages3D/blob/master/LICENSE.md for further clarification of the exception.
 * Disclaimer of Warranties and Limitation of Liability.
 * These libraries are provided in the hope that they will be useful, but are provided without warranty of any kind, express or implied.
 * *USE 3D CAD DATA AT YOUR OWN RISK*
 * *DO NOT RELY UPON ANY INFORMATION FOUND HERE WITHOUT INDEPENDENT VERIFICATION.*
 * 
 */

FILE_DESCRIPTION(
/* description */ ('model of RV_Disc_D15.5mm_W4.5mm_P7.5mm'),
/* implementation_level */ '2;1');

FILE_NAME(
/* name */ 'RV_Disc_D15.5mm_W4.5mm_P7.5mm.step',
/* time_stamp */ '2018-11-11T20:58:20',
/* author */ ('kicad StepUp','ksu'),
/* organization */ ('FreeCAD'),
/* preprocessor_version */ 'OCC',
/* originating_system */ 'kicad StepUp',
/* authorisation */ '');

FILE_SCHEMA(('AUTOMOTIVE_DESIGN { 1 0 10303 214 1 1 1 1 }'));
ENDSEC;

DATA;
#1 = APPLICATION_PROTOCOL_DEFINITION('international standard',
'automotive_design',2000,#2);
#2 = APPLICATION_CONTEXT(
'core data for automotive mechanical design processes');
#3 = SHAPE_DEFINITION_REPRESENTATION(#4,#10);
#4 = PRODUCT_DEFINITION_SHAPE('','',#5);
#5 = PRODUCT_DEFINITION('design','',#6,#9);
#6 = PRODUCT_DEFINITION_FORMATION('','',#7);
#7 = PRODUCT('RV_Disc_D155mm_W45mm_P75mm','RV_Disc_D155mm_W45mm_P75mm',
'',(#8));
#8 = PRODUCT_CONTEXT('',#2,'mechanical');
#9 = PRODUCT_DEFINITION_CONTEXT('part definition',#2,'design');
#10 = ADVANCED_BREP_SHAPE_REPRESENTATION('',(#11,#15),#386);
#11 = AXIS2_PLACEMENT_3D('',#12,#13,#14);
#12 = CARTESIAN_POINT('',(0.E+000,0.E+000,0.E+000));
#13 = DIRECTION('',(0.E+000,0.E+000,1.));
#14 = DIRECTION('',(1.,0.E+000,-0.E+000));
#15 = MANIFOLD_SOLID_BREP('',#16);
#16 = CLOSED_SHELL('',(#17,#50,#146,#246,#255,#281,#290,#316,#342,#368,
#377));
#17 = ADVANCED_FACE('',(#18),#45,.T.);
#18 = FACE_BOUND('',#19,.F.);
#19 = EDGE_LOOP('',(#20,#30,#37,#38));
#20 = ORIENTED_EDGE('',*,*,#21,.T.);
#21 = EDGE_CURVE('',#22,#24,#26,.T.);
#22 = VERTEX_POINT('',#23);
#23 = CARTESIAN_POINT('',(11.5,-0.94512195122,7.78));
#24 = VERTEX_POINT('',#25);
#25 = CARTESIAN_POINT('',(11.5,-1.05487804878,7.78));
#26 = LINE('',#27,#28);
#27 = CARTESIAN_POINT('',(11.5,1.25,7.78));
#28 = VECTOR('',#29,1.);
#29 = DIRECTION('',(0.E+000,-1.,0.E+000));
#30 = ORIENTED_EDGE('',*,*,#31,.T.);
#31 = EDGE_CURVE('',#24,#24,#32,.T.);
#32 = CIRCLE('',#33,7.75);
#33 = AXIS2_PLACEMENT_3D('',#34,#35,#36);
#34 = CARTESIAN_POINT('',(3.75,-1.05487804878,7.78));
#35 = DIRECTION('',(0.E+000,-1.,0.E+000));
#36 = DIRECTION('',(1.,0.E+000,0.E+000));
#37 = ORIENTED_EDGE('',*,*,#21,.F.);
#38 = ORIENTED_EDGE('',*,*,#39,.F.);
#39 = EDGE_CURVE('',#22,#22,#40,.T.);
#40 = CIRCLE('',#41,7.75);
#41 = AXIS2_PLACEMENT_3D('',#42,#43,#44);
#42 = CARTESIAN_POINT('',(3.75,-0.94512195122,7.78));
#43 = DIRECTION('',(0.E+000,-1.,0.E+000));
#44 = DIRECTION('',(1.,0.E+000,0.E+000));
#45 = CYLINDRICAL_SURFACE('',#46,7.75);
#46 = AXIS2_PLACEMENT_3D('',#47,#48,#49);
#47 = CARTESIAN_POINT('',(3.75,1.25,7.78));
#48 = DIRECTION('',(0.E+000,1.,0.E+000));
#49 = DIRECTION('',(1.,0.E+000,0.E+000));
#50 = ADVANCED_FACE('',(#51,#71),#141,.T.);
#51 = FACE_BOUND('',#52,.F.);
#52 = EDGE_LOOP('',(#53,#54,#63,#70));
#53 = ORIENTED_EDGE('',*,*,#39,.T.);
#54 = ORIENTED_EDGE('',*,*,#55,.T.);
#55 = EDGE_CURVE('',#22,#56,#58,.T.);
#56 = VERTEX_POINT('',#57);
#57 = CARTESIAN_POINT('',(9.30487804878,1.25,7.78));
#58 = CIRCLE('',#59,2.19512195122);
#59 = AXIS2_PLACEMENT_3D('',#60,#61,#62);
#60 = CARTESIAN_POINT('',(9.30487804878,-0.94512195122,7.78));
#61 = DIRECTION('',(0.E+000,0.E+000,1.));
#62 = DIRECTION('',(1.,0.E+000,0.E+000));
#63 = ORIENTED_EDGE('',*,*,#64,.F.);
#64 = EDGE_CURVE('',#56,#56,#65,.T.);
#65 = CIRCLE('',#66,5.55487804878);
#66 = AXIS2_PLACEMENT_3D('',#67,#68,#69);
#67 = CARTESIAN_POINT('',(3.75,1.25,7.78));
#68 = DIRECTION('',(0.E+000,-1.,0.E+000));
#69 = DIRECTION('',(1.,0.E+000,0.E+000));
#70 = ORIENTED_EDGE('',*,*,#55,.F.);
#71 = FACE_BOUND('',#72,.F.);
#72 = EDGE_LOOP('',(#73,#94));
#73 = ORIENTED_EDGE('',*,*,#74,.T.);
#74 = EDGE_CURVE('',#75,#77,#79,.T.);
#75 = VERTEX_POINT('',#76);
#76 = CARTESIAN_POINT('',(0.36,0.E+000,1.049402077641));
#77 = VERTEX_POINT('',#78);
#78 = CARTESIAN_POINT('',(-5.198794951187E-002,-0.356226407086,
1.119173274477));
#79 = B_SPLINE_CURVE_WITH_KNOTS('',7,(#80,#81,#82,#83,#84,#85,#86,#87,
#88,#89,#90,#91,#92,#93),.UNSPECIFIED.,.F.,.F.,(8,6,8),(0.E+000,
0.329517693312,1.),.UNSPECIFIED.);
#80 = CARTESIAN_POINT('',(0.36,-5.551115123126E-017,1.049402077641));
#81 = CARTESIAN_POINT('',(0.36,-2.725354795633E-002,1.034845202923));
#82 = CARTESIAN_POINT('',(0.357592869485,-5.481024018113E-002,
1.021947438015));
#83 = CARTESIAN_POINT('',(0.352682505439,-8.24271768623E-002,
1.01088237207));
#84 = CARTESIAN_POINT('',(0.345197540061,-0.109823885503,1.001807070481)
);
#85 = CARTESIAN_POINT('',(0.335111837254,-0.1366818548,0.994846592608));
#86 = CARTESIAN_POINT('',(0.32246373449,-0.162657209331,0.990079202266)
);
#87 = CARTESIAN_POINT('',(0.276670428931,-0.237764908357,0.982319584693)
);
#88 = CARTESIAN_POINT('',(0.235894501199,-0.28298797742,0.986274772417)
);
#89 = CARTESIAN_POINT('',(0.186029798212,-0.320323836053,0.99948549502)
);
#90 = CARTESIAN_POINT('',(0.129111216193,-0.34731771711,1.021113402187)
);
#91 = CARTESIAN_POINT('',(6.811533920609E-002,-0.362247460298,
1.049569275911));
#92 = CARTESIAN_POINT('',(6.668274825233E-003,-0.364786740539,
1.082947482772));
#93 = CARTESIAN_POINT('',(-5.198794951187E-002,-0.356226407086,
1.119173274477));
#94 = ORIENTED_EDGE('',*,*,#95,.T.);
#95 = EDGE_CURVE('',#77,#75,#96,.T.);
#96 = B_SPLINE_CURVE_WITH_KNOTS('',7,(#97,#98,#99,#100,#101,#102,#103,
#104,#105,#106,#107,#108,#109,#110,#111,#112,#113,#114,#115,#116,
#117,#118,#119,#120,#121,#122,#123,#124,#125,#126,#127,#128,#129,
#130,#131,#132,#133,#134,#135,#136,#137,#138,#139,#140),
.UNSPECIFIED.,.F.,.F.,(8,6,6,6,6,6,6,8),(0.E+000,0.186348977025,
0.41591208189,0.468094547252,0.554666866972,0.673521557622,
0.816772825181,1.),.UNSPECIFIED.);
#97 = CARTESIAN_POINT('',(-5.198794951187E-002,-0.356226407086,
1.119173274477));
#98 = CARTESIAN_POINT('',(-9.757266281837E-002,-0.349573739775,
1.147326166141));
#99 = CARTESIAN_POINT('',(-0.141357386667,-0.336233376941,1.177128737266
));
#100 = CARTESIAN_POINT('',(-0.182247746494,-0.316807792282,
1.207847163381));
#101 = CARTESIAN_POINT('',(-0.219406593056,-0.292072123434,
1.238921304299));
#102 = CARTESIAN_POINT('',(-0.252236729463,-0.262838452042,
1.269932899035));
#103 = CARTESIAN_POINT('',(-0.280321275584,-0.229877363806,
1.300555879041));
#104 = CARTESIAN_POINT('',(-0.331655830892,-0.149572356398,
1.367363132687));
#105 = CARTESIAN_POINT('',(-0.352225279036,-0.100742585845,
1.403126127997));
#106 = CARTESIAN_POINT('',(-0.364431230268,-4.878586508262E-002,
1.437202392132));
#107 = CARTESIAN_POINT('',(-0.367790630832,4.907781139185E-003,
1.468946787284));
#108 = CARTESIAN_POINT('',(-0.361950179418,5.882320037982E-002,
1.497521131961));
#109 = CARTESIAN_POINT('',(-0.346734405975,0.11128564024,1.521716429915)
);
#110 = CARTESIAN_POINT('',(-0.316737539598,0.171559962951,1.544097704564
));
#111 = CARTESIAN_POINT('',(-0.310706730379,0.182547010629,1.547933847299
));
#112 = CARTESIAN_POINT('',(-0.304203794584,0.193334228273,1.551442227198
));
#113 = CARTESIAN_POINT('',(-0.297233218252,0.203897076225,1.554603162241
));
#114 = CARTESIAN_POINT('',(-0.289801400957,0.214210136986,1.557396378438
));
#115 = CARTESIAN_POINT('',(-0.281917007108,0.22424738543,1.559801459441)
);
#116 = CARTESIAN_POINT('',(-0.259778740958,0.250133246376,1.565111109874
));
#117 = CARTESIAN_POINT('',(-0.244751002263,0.265453117339,1.567300348967
));
#118 = CARTESIAN_POINT('',(-0.228560007314,0.279820420303,1.568274465251
));
#119 = CARTESIAN_POINT('',(-0.211280739001,0.293109952332,1.567944129157
));
#120 = CARTESIAN_POINT('',(-0.193012420358,0.305201322985,1.566233971491
));
#121 = CARTESIAN_POINT('',(-0.173879677958,0.315987318144,1.563094325192
));
#122 = CARTESIAN_POINT('',(-0.126787271977,0.338280536281,1.552223244191
));
#123 = CARTESIAN_POINT('',(-9.817161808413E-002,0.348568787069,
1.543210708948));
#124 = CARTESIAN_POINT('',(-6.860278818764E-002,0.356002535811,
1.531443022022));
#125 = CARTESIAN_POINT('',(-3.856379234348E-002,0.360451044339,
1.517033920932));
#126 = CARTESIAN_POINT('',(-8.5615918859E-003,0.361917447911,
1.500270801969));
#127 = CARTESIAN_POINT('',(2.091248194534E-002,0.360542493913,
1.481593824005));
#128 = CARTESIAN_POINT('',(8.377660471341E-002,0.351830365498,
1.437340154279));
#129 = CARTESIAN_POINT('',(0.116791702636,0.343318357831,1.411089525493)
);
#130 = CARTESIAN_POINT('',(0.148083012543,0.331443161519,1.383400564859)
);
#131 = CARTESIAN_POINT('',(0.177404381814,0.316581230734,1.354853728769)
);
#132 = CARTESIAN_POINT('',(0.204595784784,0.299057625823,1.325933504274)
);
#133 = CARTESIAN_POINT('',(0.229538255587,0.279127692757,1.297022857832)
);
#134 = CARTESIAN_POINT('',(0.280986646793,0.228653958692,1.231886788473)
);
#135 = CARTESIAN_POINT('',(0.305944987938,0.196740766139,1.195923832367)
);
#136 = CARTESIAN_POINT('',(0.32671399476,0.161696454766,1.161273439181)
);
#137 = CARTESIAN_POINT('',(0.342941238304,0.123931775643,1.128611051998)
);
#138 = CARTESIAN_POINT('',(0.354190684533,8.393157292206E-002,
1.09862678945));
#139 = CARTESIAN_POINT('',(0.36,4.233820700506E-002,1.072016086508));
#140 = CARTESIAN_POINT('',(0.36,-5.551115123126E-017,1.049402077641));
#141 = TOROIDAL_SURFACE('',#142,5.55487804878,2.19512195122);
#142 = AXIS2_PLACEMENT_3D('',#143,#144,#145);
#143 = CARTESIAN_POINT('',(3.75,-0.94512195122,7.78));
#144 = DIRECTION('',(0.E+000,1.,0.E+000));
#145 = DIRECTION('',(1.,0.E+000,0.E+000));
#146 = ADVANCED_FACE('',(#147,#167),#241,.T.);
#147 = FACE_BOUND('',#148,.T.);
#148 = EDGE_LOOP('',(#149,#150,#159,#166));
#149 = ORIENTED_EDGE('',*,*,#31,.T.);
#150 = ORIENTED_EDGE('',*,*,#151,.T.);
#151 = EDGE_CURVE('',#24,#152,#154,.T.);
#152 = VERTEX_POINT('',#153);
#153 = CARTESIAN_POINT('',(9.30487804878,-3.25,7.78));
#154 = CIRCLE('',#155,2.19512195122);
#155 = AXIS2_PLACEMENT_3D('',#156,#157,#158);
#156 = CARTESIAN_POINT('',(9.30487804878,-1.05487804878,7.78));
#157 = DIRECTION('',(0.E+000,0.E+000,-1.));
#158 = DIRECTION('',(1.,0.E+000,0.E+000));
#159 = ORIENTED_EDGE('',*,*,#160,.F.);
#160 = EDGE_CURVE('',#152,#152,#161,.T.);
#161 = CIRCLE('',#162,5.55487804878);
#162 = AXIS2_PLACEMENT_3D('',#163,#164,#165);
#163 = CARTESIAN_POINT('',(3.75,-3.25,7.78));
#164 = DIRECTION('',(0.E+000,-1.,0.E+000));
#165 = DIRECTION('',(1.,0.E+000,0.E+000));
#166 = ORIENTED_EDGE('',*,*,#151,.F.);
#167 = FACE_BOUND('',#168,.T.);
#168 = EDGE_LOOP('',(#169,#206));
#169 = ORIENTED_EDGE('',*,*,#170,.T.);
#170 = EDGE_CURVE('',#171,#173,#175,.T.);
#171 = VERTEX_POINT('',#172);
#172 = CARTESIAN_POINT('',(7.86,-2.,1.4632802506));
#173 = VERTEX_POINT('',#174);
#174 = CARTESIAN_POINT('',(7.157881749425,-1.88795044568,1.002806224681)
);
#175 = B_SPLINE_CURVE_WITH_KNOTS('',8,(#176,#177,#178,#179,#180,#181,
#182,#183,#184,#185,#186,#187,#188,#189,#190,#191,#192,#193,#194,
#195,#196,#197,#198,#199,#200,#201,#202,#203,#204,#205),
.UNSPECIFIED.,.F.,.F.,(9,7,7,7,9),(0.E+000,0.210471623604,
0.644943618541,0.919826212744,1.),.UNSPECIFIED.);
#176 = CARTESIAN_POINT('',(7.86,-2.,1.4632802506));
#177 = CARTESIAN_POINT('',(7.86,-1.974488136538,1.448760829002));
#178 = CARTESIAN_POINT('',(7.857933733394,-1.949083679142,1.433519315792
));
#179 = CARTESIAN_POINT('',(7.853831824964,-1.923948656105,1.417656772999
));
#180 = CARTESIAN_POINT('',(7.847731525411,-1.899240411399,1.401261459356
));
#181 = CARTESIAN_POINT('',(7.839677117628,-1.875112622875,1.384411643061
));
#182 = CARTESIAN_POINT('',(7.82972032297,-1.851716320458,1.367178414533)
);
#183 = CARTESIAN_POINT('',(7.817920707536,-1.829200904351,1.349628499173
));
#184 = CARTESIAN_POINT('',(7.776324297485,-1.763362615148,1.295079967301
));
#185 = CARTESIAN_POINT('',(7.740833048897,-1.723546473972,1.257384413563
));
#186 = CARTESIAN_POINT('',(7.698420629962,-1.689302492355,1.219144088668
));
#187 = CARTESIAN_POINT('',(7.649699504181,-1.661954912154,1.180867745437
));
#188 = CARTESIAN_POINT('',(7.595737003377,-1.643054767798,1.143358537089
));
#189 = CARTESIAN_POINT('',(7.538276736072,-1.634077517697,1.107750751993
));
#190 = CARTESIAN_POINT('',(7.479823251447,-1.635913929058,1.075672426417
));
#191 = CARTESIAN_POINT('',(7.387286461791,-1.6561353031,1.031645114645)
);
#192 = CARTESIAN_POINT('',(7.352289842099,-1.668160838161,1.016702771621
));
#193 = CARTESIAN_POINT('',(7.318794139292,-1.684258026843,1.004223797264
));
#194 = CARTESIAN_POINT('',(7.287405924133,-1.704173830001,0.994525357466
));
#195 = CARTESIAN_POINT('',(7.258667839001,-1.72753402094,0.987873693228)
);
#196 = CARTESIAN_POINT('',(7.233031339876,-1.75386229404,0.984459802721)
);
#197 = CARTESIAN_POINT('',(7.210834152188,-1.782604510132,0.984374245136
));
#198 = CARTESIAN_POINT('',(7.186871545017,-1.822069502489,0.988516385684
));
#199 = CARTESIAN_POINT('',(7.181770634929,-1.831135403795,0.989731873152
));
#200 = CARTESIAN_POINT('',(7.176984615148,-1.840340912469,0.991226643924
));
#201 = CARTESIAN_POINT('',(7.172517422112,-1.849671277448,0.992999062402
));
#202 = CARTESIAN_POINT('',(7.168372023781,-1.859111866715,0.995046742223
));
#203 = CARTESIAN_POINT('',(7.164550419634,-1.868648167293,0.997366546261
));
#204 = CARTESIAN_POINT('',(7.161053640675,-1.878265785245,0.999954586631
));
#205 = CARTESIAN_POINT('',(7.157881749425,-1.88795044568,1.002806224681)
);
#206 = ORIENTED_EDGE('',*,*,#207,.T.);
#207 = EDGE_CURVE('',#173,#171,#208,.T.);
#208 = B_SPLINE_CURVE_WITH_KNOTS('',7,(#209,#210,#211,#212,#213,#214,
#215,#216,#217,#218,#219,#220,#221,#222,#223,#224,#225,#226,#227,
#228,#229,#230,#231,#232,#233,#234,#235,#236,#237,#238,#239,#240),
.UNSPECIFIED.,.F.,.F.,(8,6,6,6,6,8),(0.E+000,0.33304201404,
0.512535105556,0.68135246115,0.84426778879,1.),.UNSPECIFIED.);
#209 = CARTESIAN_POINT('',(7.157881749425,-1.88795044568,1.002806224681)
);
#210 = CARTESIAN_POINT('',(7.13908048211,-1.945355909907,1.019709203079)
);
#211 = CARTESIAN_POINT('',(7.131972128439,-2.005052519786,1.046033580713
));
#212 = CARTESIAN_POINT('',(7.136462433297,-2.064012143563,1.080736708615
));
#213 = CARTESIAN_POINT('',(7.151349191717,-2.119861561255,1.122020720335
));
#214 = CARTESIAN_POINT('',(7.175324392107,-2.171158970469,1.167988729365
));
#215 = CARTESIAN_POINT('',(7.207360855973,-2.216883853569,1.216935517215
));
#216 = CARTESIAN_POINT('',(7.268034184344,-2.276921320775,1.294052319702
));
#217 = CARTESIAN_POINT('',(7.291407152536,-2.295975636484,1.321369979266
));
#218 = CARTESIAN_POINT('',(7.316800553781,-2.312893864448,1.348722839936
));
#219 = CARTESIAN_POINT('',(7.344110865859,-2.327463516438,1.375788451246
));
#220 = CARTESIAN_POINT('',(7.373207763018,-2.339420574921,1.402170790309
));
#221 = CARTESIAN_POINT('',(7.403902134713,-2.348458348649,1.427400586554
));
#222 = CARTESIAN_POINT('',(7.466013643046,-2.359695474968,1.47312350581)
);
#223 = CARTESIAN_POINT('',(7.497382385725,-2.362288243948,1.493884931253
));
#224 = CARTESIAN_POINT('',(7.529512760989,-2.36166995435,1.512596077146)
);
#225 = CARTESIAN_POINT('',(7.561820551696,-2.357630880255,1.52868421738)
);
#226 = CARTESIAN_POINT('',(7.593682003858,-2.350136539777,1.541761575225
));
#227 = CARTESIAN_POINT('',(7.624488461935,-2.339333477768,1.551666495407
));
#228 = CARTESIAN_POINT('',(7.681918128621,-2.312215659315,1.56497485514)
);
#229 = CARTESIAN_POINT('',(7.70868234089,-2.296091465103,1.568601089575)
);
#230 = CARTESIAN_POINT('',(7.733577409144,-2.27740459157,1.569351218088)
);
#231 = CARTESIAN_POINT('',(7.756276356245,-2.256490075902,1.567417820178
));
#232 = CARTESIAN_POINT('',(7.776560094137,-2.233714489855,1.563067706505
));
#233 = CARTESIAN_POINT('',(7.79430316093,-2.209434790272,1.556581425158)
);
#234 = CARTESIAN_POINT('',(7.823908915432,-2.159639096773,1.540221706037
));
#235 = CARTESIAN_POINT('',(7.835996374748,-2.134225005164,1.53051034568)
);
#236 = CARTESIAN_POINT('',(7.845650782441,-2.108007940407,1.519306571262
));
#237 = CARTESIAN_POINT('',(7.852858497321,-2.081247057848,1.50681633411)
);
#238 = CARTESIAN_POINT('',(7.857631962606,-2.054181797228,1.493218869324
));
#239 = CARTESIAN_POINT('',(7.86,-2.027031645262,1.478664616961));
#240 = CARTESIAN_POINT('',(7.86,-2.,1.4632802506));
#241 = TOROIDAL_SURFACE('',#242,5.55487804878,2.19512195122);
#242 = AXIS2_PLACEMENT_3D('',#243,#244,#245);
#243 = CARTESIAN_POINT('',(3.75,-1.05487804878,7.78));
#244 = DIRECTION('',(0.E+000,-1.,0.E+000));
#245 = DIRECTION('',(1.,0.E+000,0.E+000));
#246 = ADVANCED_FACE('',(#247),#250,.F.);
#247 = FACE_BOUND('',#248,.F.);
#248 = EDGE_LOOP('',(#249));
#249 = ORIENTED_EDGE('',*,*,#64,.T.);
#250 = PLANE('',#251);
#251 = AXIS2_PLACEMENT_3D('',#252,#253,#254);
#252 = CARTESIAN_POINT('',(3.75,1.25,7.78));
#253 = DIRECTION('',(-0.E+000,-1.,-0.E+000));
#254 = DIRECTION('',(0.E+000,0.E+000,-1.));
#255 = ADVANCED_FACE('',(#256),#276,.T.);
#256 = FACE_BOUND('',#257,.T.);
#257 = EDGE_LOOP('',(#258,#259,#267,#274,#275));
#258 = ORIENTED_EDGE('',*,*,#95,.T.);
#259 = ORIENTED_EDGE('',*,*,#260,.T.);
#260 = EDGE_CURVE('',#75,#261,#263,.T.);
#261 = VERTEX_POINT('',#262);
#262 = CARTESIAN_POINT('',(0.36,0.E+000,-2.856));
#263 = LINE('',#264,#265);
#264 = CARTESIAN_POINT('',(0.36,0.E+000,7.78));
#265 = VECTOR('',#266,1.);
#266 = DIRECTION('',(-0.E+000,-0.E+000,-1.));
#267 = ORIENTED_EDGE('',*,*,#268,.T.);
#268 = EDGE_CURVE('',#261,#261,#269,.T.);
#269 = CIRCLE('',#270,0.36);
#270 = AXIS2_PLACEMENT_3D('',#271,#272,#273);
#271 = CARTESIAN_POINT('',(0.E+000,0.E+000,-2.856));
#272 = DIRECTION('',(0.E+000,0.E+000,1.));
#273 = DIRECTION('',(1.,0.E+000,0.E+000));
#274 = ORIENTED_EDGE('',*,*,#260,.F.);
#275 = ORIENTED_EDGE('',*,*,#74,.T.);
#276 = CYLINDRICAL_SURFACE('',#277,0.36);
#277 = AXIS2_PLACEMENT_3D('',#278,#279,#280);
#278 = CARTESIAN_POINT('',(0.E+000,0.E+000,7.78));
#279 = DIRECTION('',(0.E+000,0.E+000,1.));
#280 = DIRECTION('',(1.,0.E+000,0.E+000));
#281 = ADVANCED_FACE('',(#282),#285,.T.);
#282 = FACE_BOUND('',#283,.T.);
#283 = EDGE_LOOP('',(#284));
#284 = ORIENTED_EDGE('',*,*,#160,.T.);
#285 = PLANE('',#286);
#286 = AXIS2_PLACEMENT_3D('',#287,#288,#289);
#287 = CARTESIAN_POINT('',(3.75,-3.25,7.78));
#288 = DIRECTION('',(-0.E+000,-1.,-0.E+000));
#289 = DIRECTION('',(0.E+000,0.E+000,-1.));
#290 = ADVANCED_FACE('',(#291),#311,.T.);
#291 = FACE_BOUND('',#292,.T.);
#292 = EDGE_LOOP('',(#293,#294,#302,#309,#310));
#293 = ORIENTED_EDGE('',*,*,#170,.F.);
#294 = ORIENTED_EDGE('',*,*,#295,.T.);
#295 = EDGE_CURVE('',#171,#296,#298,.T.);
#296 = VERTEX_POINT('',#297);
#297 = CARTESIAN_POINT('',(7.86,-2.,-2.856));
#298 = LINE('',#299,#300);
#299 = CARTESIAN_POINT('',(7.86,-2.,7.78));
#300 = VECTOR('',#301,1.);
#301 = DIRECTION('',(-0.E+000,-0.E+000,-1.));
#302 = ORIENTED_EDGE('',*,*,#303,.T.);
#303 = EDGE_CURVE('',#296,#296,#304,.T.);
#304 = CIRCLE('',#305,0.36);
#305 = AXIS2_PLACEMENT_3D('',#306,#307,#308);
#306 = CARTESIAN_POINT('',(7.5,-2.,-2.856));
#307 = DIRECTION('',(0.E+000,0.E+000,1.));
#308 = DIRECTION('',(1.,0.E+000,0.E+000));
#309 = ORIENTED_EDGE('',*,*,#295,.F.);
#310 = ORIENTED_EDGE('',*,*,#207,.F.);
#311 = CYLINDRICAL_SURFACE('',#312,0.36);
#312 = AXIS2_PLACEMENT_3D('',#313,#314,#315);
#313 = CARTESIAN_POINT('',(7.5,-2.,7.78));
#314 = DIRECTION('',(0.E+000,0.E+000,1.));
#315 = DIRECTION('',(1.,0.E+000,0.E+000));
#316 = ADVANCED_FACE('',(#317),#337,.T.);
#317 = FACE_BOUND('',#318,.F.);
#318 = EDGE_LOOP('',(#319,#328,#329,#330));
#319 = ORIENTED_EDGE('',*,*,#320,.F.);
#320 = EDGE_CURVE('',#261,#321,#323,.T.);
#321 = VERTEX_POINT('',#322);
#322 = CARTESIAN_POINT('',(0.216,0.E+000,-3.));
#323 = CIRCLE('',#324,0.144);
#324 = AXIS2_PLACEMENT_3D('',#325,#326,#327);
#325 = CARTESIAN_POINT('',(0.216,0.E+000,-2.856));
#326 = DIRECTION('',(-0.E+000,1.,0.E+000));
#327 = DIRECTION('',(1.,0.E+000,0.E+000));
#328 = ORIENTED_EDGE('',*,*,#268,.T.);
#329 = ORIENTED_EDGE('',*,*,#320,.T.);
#330 = ORIENTED_EDGE('',*,*,#331,.F.);
#331 = EDGE_CURVE('',#321,#321,#332,.T.);
#332 = CIRCLE('',#333,0.216);
#333 = AXIS2_PLACEMENT_3D('',#334,#335,#336);
#334 = CARTESIAN_POINT('',(0.E+000,0.E+000,-3.));
#335 = DIRECTION('',(0.E+000,0.E+000,1.));
#336 = DIRECTION('',(1.,0.E+000,0.E+000));
#337 = TOROIDAL_SURFACE('',#338,0.216,0.144);
#338 = AXIS2_PLACEMENT_3D('',#339,#340,#341);
#339 = CARTESIAN_POINT('',(0.E+000,0.E+000,-2.856));
#340 = DIRECTION('',(-0.E+000,-0.E+000,-1.));
#341 = DIRECTION('',(1.,0.E+000,0.E+000));
#342 = ADVANCED_FACE('',(#343),#363,.T.);
#343 = FACE_BOUND('',#344,.F.);
#344 = EDGE_LOOP('',(#345,#354,#355,#356));
#345 = ORIENTED_EDGE('',*,*,#346,.F.);
#346 = EDGE_CURVE('',#296,#347,#349,.T.);
#347 = VERTEX_POINT('',#348);
#348 = CARTESIAN_POINT('',(7.716,-2.,-3.));
#349 = CIRCLE('',#350,0.144);
#350 = AXIS2_PLACEMENT_3D('',#351,#352,#353);
#351 = CARTESIAN_POINT('',(7.716,-2.,-2.856));
#352 = DIRECTION('',(-0.E+000,1.,0.E+000));
#353 = DIRECTION('',(1.,0.E+000,0.E+000));
#354 = ORIENTED_EDGE('',*,*,#303,.T.);
#355 = ORIENTED_EDGE('',*,*,#346,.T.);
#356 = ORIENTED_EDGE('',*,*,#357,.F.);
#357 = EDGE_CURVE('',#347,#347,#358,.T.);
#358 = CIRCLE('',#359,0.216);
#359 = AXIS2_PLACEMENT_3D('',#360,#361,#362);
#360 = CARTESIAN_POINT('',(7.5,-2.,-3.));
#361 = DIRECTION('',(0.E+000,0.E+000,1.));
#362 = DIRECTION('',(1.,0.E+000,0.E+000));
#363 = TOROIDAL_SURFACE('',#364,0.216,0.144);
#364 = AXIS2_PLACEMENT_3D('',#365,#366,#367);
#365 = CARTESIAN_POINT('',(7.5,-2.,-2.856));
#366 = DIRECTION('',(-0.E+000,-0.E+000,-1.));
#367 = DIRECTION('',(1.,0.E+000,0.E+000));
#368 = ADVANCED_FACE('',(#369),#372,.F.);
#369 = FACE_BOUND('',#370,.F.);
#370 = EDGE_LOOP('',(#371));
#371 = ORIENTED_EDGE('',*,*,#331,.T.);
#372 = PLANE('',#373);
#373 = AXIS2_PLACEMENT_3D('',#374,#375,#376);
#374 = CARTESIAN_POINT('',(-1.483767504926E-017,1.497958850874E-017,-3.)
);
#375 = DIRECTION('',(0.E+000,0.E+000,1.));
#376 = DIRECTION('',(1.,0.E+000,0.E+000));
#377 = ADVANCED_FACE('',(#378),#381,.F.);
#378 = FACE_BOUND('',#379,.F.);
#379 = EDGE_LOOP('',(#380));
#380 = ORIENTED_EDGE('',*,*,#357,.T.);
#381 = PLANE('',#382);
#382 = AXIS2_PLACEMENT_3D('',#383,#384,#385);
#383 = CARTESIAN_POINT('',(7.5,-2.,-3.));
#384 = DIRECTION('',(0.E+000,0.E+000,1.));
#385 = DIRECTION('',(1.,0.E+000,0.E+000));
#386 = ( GEOMETRIC_REPRESENTATION_CONTEXT(3)
GLOBAL_UNCERTAINTY_ASSIGNED_CONTEXT((#390)) GLOBAL_UNIT_ASSIGNED_CONTEXT
((#387,#388,#389)) REPRESENTATION_CONTEXT('Context #1',
'3D Context with UNIT and UNCERTAINTY') );
#387 = ( LENGTH_UNIT() NAMED_UNIT(*) SI_UNIT(.MILLI.,.METRE.) );
#388 = ( NAMED_UNIT(*) PLANE_ANGLE_UNIT() SI_UNIT($,.RADIAN.) );
#389 = ( NAMED_UNIT(*) SI_UNIT($,.STERADIAN.) SOLID_ANGLE_UNIT() );
#390 = UNCERTAINTY_MEASURE_WITH_UNIT(LENGTH_MEASURE(1.E-007),#387,
'distance_accuracy_value','confusion accuracy');
#391 = PRODUCT_RELATED_PRODUCT_CATEGORY('part',$,(#7));
#392 = MECHANICAL_DESIGN_GEOMETRIC_PRESENTATION_REPRESENTATION('',(#393,
#401,#408,#415,#422,#430,#437,#444,#451,#458,#465),#386);
#393 = STYLED_ITEM('color',(#394),#17);
#394 = PRESENTATION_STYLE_ASSIGNMENT((#395));
#395 = SURFACE_STYLE_USAGE(.BOTH.,#396);
#396 = SURFACE_SIDE_STYLE('',(#397));
#397 = SURFACE_STYLE_FILL_AREA(#398);
#398 = FILL_AREA_STYLE('',(#399));
#399 = FILL_AREA_STYLE_COLOUR('',#400);
#400 = COLOUR_RGB('',0.136999994516,0.402000010014,0.726999998093);
#401 = STYLED_ITEM('color',(#402),#50);
#402 = PRESENTATION_STYLE_ASSIGNMENT((#403));
#403 = SURFACE_STYLE_USAGE(.BOTH.,#404);
#404 = SURFACE_SIDE_STYLE('',(#405));
#405 = SURFACE_STYLE_FILL_AREA(#406);
#406 = FILL_AREA_STYLE('',(#407));
#407 = FILL_AREA_STYLE_COLOUR('',#400);
#408 = STYLED_ITEM('color',(#409),#146);
#409 = PRESENTATION_STYLE_ASSIGNMENT((#410));
#410 = SURFACE_STYLE_USAGE(.BOTH.,#411);
#411 = SURFACE_SIDE_STYLE('',(#412));
#412 = SURFACE_STYLE_FILL_AREA(#413);
#413 = FILL_AREA_STYLE('',(#414));
#414 = FILL_AREA_STYLE_COLOUR('',#400);
#415 = STYLED_ITEM('color',(#416),#246);
#416 = PRESENTATION_STYLE_ASSIGNMENT((#417));
#417 = SURFACE_STYLE_USAGE(.BOTH.,#418);
#418 = SURFACE_SIDE_STYLE('',(#419));
#419 = SURFACE_STYLE_FILL_AREA(#420);
#420 = FILL_AREA_STYLE('',(#421));
#421 = FILL_AREA_STYLE_COLOUR('',#400);
#422 = STYLED_ITEM('color',(#423),#255);
#423 = PRESENTATION_STYLE_ASSIGNMENT((#424));
#424 = SURFACE_STYLE_USAGE(.BOTH.,#425);
#425 = SURFACE_SIDE_STYLE('',(#426));
#426 = SURFACE_STYLE_FILL_AREA(#427);
#427 = FILL_AREA_STYLE('',(#428));
#428 = FILL_AREA_STYLE_COLOUR('',#429);
#429 = COLOUR_RGB('',0.824000000954,0.819999992847,0.78100001812);
#430 = STYLED_ITEM('color',(#431),#281);
#431 = PRESENTATION_STYLE_ASSIGNMENT((#432));
#432 = SURFACE_STYLE_USAGE(.BOTH.,#433);
#433 = SURFACE_SIDE_STYLE('',(#434));
#434 = SURFACE_STYLE_FILL_AREA(#435);
#435 = FILL_AREA_STYLE('',(#436));
#436 = FILL_AREA_STYLE_COLOUR('',#400);
#437 = STYLED_ITEM('color',(#438),#290);
#438 = PRESENTATION_STYLE_ASSIGNMENT((#439));
#439 = SURFACE_STYLE_USAGE(.BOTH.,#440);
#440 = SURFACE_SIDE_STYLE('',(#441));
#441 = SURFACE_STYLE_FILL_AREA(#442);
#442 = FILL_AREA_STYLE('',(#443));
#443 = FILL_AREA_STYLE_COLOUR('',#429);
#444 = STYLED_ITEM('color',(#445),#316);
#445 = PRESENTATION_STYLE_ASSIGNMENT((#446));
#446 = SURFACE_STYLE_USAGE(.BOTH.,#447);
#447 = SURFACE_SIDE_STYLE('',(#448));
#448 = SURFACE_STYLE_FILL_AREA(#449);
#449 = FILL_AREA_STYLE('',(#450));
#450 = FILL_AREA_STYLE_COLOUR('',#429);
#451 = STYLED_ITEM('color',(#452),#342);
#452 = PRESENTATION_STYLE_ASSIGNMENT((#453));
#453 = SURFACE_STYLE_USAGE(.BOTH.,#454);
#454 = SURFACE_SIDE_STYLE('',(#455));
#455 = SURFACE_STYLE_FILL_AREA(#456);
#456 = FILL_AREA_STYLE('',(#457));
#457 = FILL_AREA_STYLE_COLOUR('',#429);
#458 = STYLED_ITEM('color',(#459),#368);
#459 = PRESENTATION_STYLE_ASSIGNMENT((#460));
#460 = SURFACE_STYLE_USAGE(.BOTH.,#461);
#461 = SURFACE_SIDE_STYLE('',(#462));
#462 = SURFACE_STYLE_FILL_AREA(#463);
#463 = FILL_AREA_STYLE('',(#464));
#464 = FILL_AREA_STYLE_COLOUR('',#429);
#465 = STYLED_ITEM('color',(#466),#377);
#466 = PRESENTATION_STYLE_ASSIGNMENT((#467));
#467 = SURFACE_STYLE_USAGE(.BOTH.,#468);
#468 = SURFACE_SIDE_STYLE('',(#469));
#469 = SURFACE_STYLE_FILL_AREA(#470);
#470 = FILL_AREA_STYLE('',(#471));
#471 = FILL_AREA_STYLE_COLOUR('',#429);
ENDSEC;
END-ISO-10303-21;
